ISO-10303-21;
HEADER;
FILE_DESCRIPTION( ( '' ), '1' );
FILE_NAME( 'R:/Engineering/Parts CD files/STP/Industrial & Dual Contained/Chemproline/Coupling/AGRU_25053011007_PE 100 schwarz_Muffe_110 - MOP 16 bar_105.stp', '2012-06-20T12:47:59', ( '' ), ( '' ), ' ', ' ', ' ' );
FILE_SCHEMA( ( 'CONFIG_CONTROL_DESIGN' ) );
ENDSEC;
DATA;
#1 = DESIGN_CONTEXT( '', #27, 'design' );
#2 = APPLICATION_PROTOCOL_DEFINITION( 'INTERNATIONAL STANDARD', 'config_control_design', 1994, #27 );
#3 = PRODUCT_CATEGORY_RELATIONSHIP( 'NONE', 'NONE', #28, #29 );
#4 = DATE_AND_TIME( #30, #31 );
#5 = DATE_TIME_ROLE( 'creation_date' );
#6 = DATE_TIME_ROLE( 'classification_date' );
#7 = PERSON_AND_ORGANIZATION_ROLE( 'creator' );
#8 = PERSON_AND_ORGANIZATION_ROLE( 'design_supplier' );
#9 = PERSON_AND_ORGANIZATION_ROLE( 'classification_officer' );
#10 = PERSON_AND_ORGANIZATION_ROLE( 'design_owner' );
#11 = APPROVAL_PERSON_ORGANIZATION( #32, #33, #34 );
#12 = APPROVAL_DATE_TIME( #4, #33 );
#13 = CC_DESIGN_APPROVAL( #33, ( #35, #36, #37 ) );
#14 = CC_DESIGN_DATE_AND_TIME_ASSIGNMENT( #4, #5, ( #37 ) );
#15 = CC_DESIGN_DATE_AND_TIME_ASSIGNMENT( #4, #6, ( #35 ) );
#16 = CC_DESIGN_PERSON_AND_ORGANIZATION_ASSIGNMENT( #32, #10, ( #38 ) );
#17 = CC_DESIGN_PERSON_AND_ORGANIZATION_ASSIGNMENT( #32, #7, ( #37 ) );
#18 = CC_DESIGN_PERSON_AND_ORGANIZATION_ASSIGNMENT( #32, #7, ( #36 ) );
#19 = CC_DESIGN_PERSON_AND_ORGANIZATION_ASSIGNMENT( #32, #8, ( #36 ) );
#20 = CC_DESIGN_SECURITY_CLASSIFICATION( #35, ( #36 ) );
#21 = CC_DESIGN_PERSON_AND_ORGANIZATION_ASSIGNMENT( #32, #9, ( #35 ) );
#22 = SHAPE_DEFINITION_REPRESENTATION( #39, #40 );
#23 =  ( GEOMETRIC_REPRESENTATION_CONTEXT( 3 )GLOBAL_UNCERTAINTY_ASSIGNED_CONTEXT( ( #43 ) )GLOBAL_UNIT_ASSIGNED_CONTEXT( ( #45, #46, #47 ) )REPRESENTATION_CONTEXT( 'NONE', 'WORKSPACE' ) );
#27 = APPLICATION_CONTEXT( 'CONFIGURATION CONTROLLED 3D DESIGNS OF MECHANICAL PARTS AND ASSEMBLIES' );
#28 = PRODUCT_CATEGORY( 'part', 'NONE' );
#29 = PRODUCT_RELATED_PRODUCT_CATEGORY( 'detail', ' ', ( #38 ) );
#30 = CALENDAR_DATE( 2012, 20, 5 );
#31 = LOCAL_TIME( 8, 47, 59.0000000000000, #49 );
#32 = PERSON_AND_ORGANIZATION( #50, #51 );
#33 = APPROVAL( #52, 'SOLID MODEL' );
#34 = APPROVAL_ROLE( 'APPROVED' );
#35 = SECURITY_CLASSIFICATION( '', '', #53 );
#36 = PRODUCT_DEFINITION_FORMATION_WITH_SPECIFIED_SOURCE( ' ', 'NONE', #38, .NOT_KNOWN. );
#37 = PRODUCT_DEFINITION( 'NONE', 'NONE', #36, #1 );
#38 = PRODUCT( '1', '1', 'PART-1-DESC', ( #54 ) );
#39 = PRODUCT_DEFINITION_SHAPE( 'NONE', 'NONE', #37 );
#40 = ADVANCED_BREP_SHAPE_REPRESENTATION( '1', ( #55, #56 ), #23 );
#43 = UNCERTAINTY_MEASURE_WITH_UNIT( LENGTH_MEASURE( 1.00000000000000E-006 ), #45, '', '' );
#45 =  ( CONVERSION_BASED_UNIT( 'MILLIMETRE', #59 )LENGTH_UNIT(  )NAMED_UNIT( #62 ) );
#46 =  ( NAMED_UNIT( #64 )PLANE_ANGLE_UNIT(  )SI_UNIT( $, .RADIAN. ) );
#47 =  ( NAMED_UNIT( #64 )SOLID_ANGLE_UNIT(  )SI_UNIT( $, .STERADIAN. ) );
#49 = COORDINATED_UNIVERSAL_TIME_OFFSET( 5, 0, .BEHIND. );
#50 = PERSON( '', 'UNSPECIFIED', $, $, $, $ );
#51 = ORGANIZATION( 'UNSPECIFIED', 'UNSPECIFIED', 'UNSPECIFIED' );
#52 = APPROVAL_STATUS( 'approved' );
#53 = SECURITY_CLASSIFICATION_LEVEL( 'unclassified' );
#54 = MECHANICAL_CONTEXT( '', #27, 'mechanical' );
#55 = MANIFOLD_SOLID_BREP( '1', #70 );
#56 = AXIS2_PLACEMENT_3D( '', #71, #72, #73 );
#59 = LENGTH_MEASURE_WITH_UNIT( LENGTH_MEASURE( 1.00000000000000 ), #74 );
#62 = DIMENSIONAL_EXPONENTS( 1.00000000000000, 0.000000000000000, 0.000000000000000, 0.000000000000000, 0.000000000000000, 0.000000000000000, 0.000000000000000 );
#64 = DIMENSIONAL_EXPONENTS( 0.000000000000000, 0.000000000000000, 0.000000000000000, 0.000000000000000, 0.000000000000000, 0.000000000000000, 0.000000000000000 );
#70 = CLOSED_SHELL( '', ( #75, #76, #77, #78, #79, #80, #81, #82, #83, #84, #85, #86, #87, #88 ) );
#71 = CARTESIAN_POINT( '', ( 0.000000000000000, 0.000000000000000, 0.000000000000000 ) );
#72 = DIRECTION( '', ( 0.000000000000000, 0.000000000000000, 1.00000000000000 ) );
#73 = DIRECTION( '', ( 1.00000000000000, 0.000000000000000, 0.000000000000000 ) );
#74 =  ( NAMED_UNIT( #62 )LENGTH_UNIT(  )SI_UNIT( .MILLI., .METRE. ) );
#75 = ADVANCED_FACE( '', ( #90 ), #91, .F. );
#76 = ADVANCED_FACE( '', ( #92 ), #93, .T. );
#77 = ADVANCED_FACE( '', ( #94 ), #95, .T. );
#78 = ADVANCED_FACE( '', ( #96 ), #97, .F. );
#79 = ADVANCED_FACE( '', ( #98 ), #99, .F. );
#80 = ADVANCED_FACE( '', ( #100, #101 ), #102, .T. );
#81 = ADVANCED_FACE( '', ( #103 ), #104, .F. );
#82 = ADVANCED_FACE( '', ( #105, #106 ), #107, .T. );
#83 = ADVANCED_FACE( '', ( #108 ), #109, .F. );
#84 = ADVANCED_FACE( '', ( #110, #111 ), #112, .T. );
#85 = ADVANCED_FACE( '', ( #113 ), #114, .T. );
#86 = ADVANCED_FACE( '', ( #115 ), #116, .T. );
#87 = ADVANCED_FACE( '', ( #117, #118 ), #119, .T. );
#88 = ADVANCED_FACE( '', ( #120 ), #121, .F. );
#90 = FACE_OUTER_BOUND( '', #122, .T. );
#91 = CYLINDRICAL_SURFACE( '', #123, 55.0000000000000 );
#92 = FACE_OUTER_BOUND( '', #124, .T. );
#93 = CONICAL_SURFACE( '', #125, 66.3050000000000, 0.0264382827534141 );
#94 = FACE_OUTER_BOUND( '', #126, .T. );
#95 = CONICAL_SURFACE( '', #127, 66.3050000000000, 0.0264382827534147 );
#96 = FACE_OUTER_BOUND( '', #128, .T. );
#97 = CYLINDRICAL_SURFACE( '', #129, 55.0000000000000 );
#98 = FACE_OUTER_BOUND( '', #130, .T. );
#99 = CYLINDRICAL_SURFACE( '', #131, 51.0333333333333 );
#100 = FACE_BOUND( '', #132, .T. );
#101 = FACE_OUTER_BOUND( '', #133, .T. );
#102 = PLANE( '', #134 );
#103 = FACE_OUTER_BOUND( '', #135, .T. );
#104 = CYLINDRICAL_SURFACE( '', #136, 51.0333333333333 );
#105 = FACE_OUTER_BOUND( '', #137, .T. );
#106 = FACE_BOUND( '', #138, .T. );
#107 = PLANE( '', #139 );
#108 = FACE_OUTER_BOUND( '', #140, .T. );
#109 = CYLINDRICAL_SURFACE( '', #141, 55.0000000000000 );
#110 = FACE_OUTER_BOUND( '', #142, .T. );
#111 = FACE_BOUND( '', #143, .T. );
#112 = PLANE( '', #144 );
#113 = FACE_OUTER_BOUND( '', #145, .T. );
#114 = CONICAL_SURFACE( '', #146, 66.3050000000000, 0.0264382827534147 );
#115 = FACE_OUTER_BOUND( '', #147, .T. );
#116 = CONICAL_SURFACE( '', #148, 66.3050000000000, 0.0264382827534141 );
#117 = FACE_BOUND( '', #149, .T. );
#118 = FACE_OUTER_BOUND( '', #150, .T. );
#119 = PLANE( '', #151 );
#120 = FACE_OUTER_BOUND( '', #152, .T. );
#121 = CYLINDRICAL_SURFACE( '', #153, 55.0000000000000 );
#122 = EDGE_LOOP( '', ( #154, #155, #156, #157 ) );
#123 = AXIS2_PLACEMENT_3D( '', #158, #159, #160 );
#124 = EDGE_LOOP( '', ( #161, #162, #163, #164 ) );
#125 = AXIS2_PLACEMENT_3D( '', #165, #166, #167 );
#126 = EDGE_LOOP( '', ( #168, #169, #170, #171 ) );
#127 = AXIS2_PLACEMENT_3D( '', #172, #173, #174 );
#128 = EDGE_LOOP( '', ( #175, #176, #177, #178 ) );
#129 = AXIS2_PLACEMENT_3D( '', #179, #180, #181 );
#130 = EDGE_LOOP( '', ( #182, #183, #184, #185 ) );
#131 = AXIS2_PLACEMENT_3D( '', #186, #187, #188 );
#132 = EDGE_LOOP( '', ( #189, #190 ) );
#133 = EDGE_LOOP( '', ( #191, #192 ) );
#134 = AXIS2_PLACEMENT_3D( '', #193, #194, #195 );
#135 = EDGE_LOOP( '', ( #196, #197, #198, #199 ) );
#136 = AXIS2_PLACEMENT_3D( '', #200, #201, #202 );
#137 = EDGE_LOOP( '', ( #203, #204 ) );
#138 = EDGE_LOOP( '', ( #205, #206 ) );
#139 = AXIS2_PLACEMENT_3D( '', #207, #208, #209 );
#140 = EDGE_LOOP( '', ( #210, #211, #212, #213 ) );
#141 = AXIS2_PLACEMENT_3D( '', #214, #215, #216 );
#142 = EDGE_LOOP( '', ( #217, #218 ) );
#143 = EDGE_LOOP( '', ( #219, #220 ) );
#144 = AXIS2_PLACEMENT_3D( '', #221, #222, #223 );
#145 = EDGE_LOOP( '', ( #224, #225, #226, #227 ) );
#146 = AXIS2_PLACEMENT_3D( '', #228, #229, #230 );
#147 = EDGE_LOOP( '', ( #231, #232, #233, #234 ) );
#148 = AXIS2_PLACEMENT_3D( '', #235, #236, #237 );
#149 = EDGE_LOOP( '', ( #238, #239 ) );
#150 = EDGE_LOOP( '', ( #240, #241 ) );
#151 = AXIS2_PLACEMENT_3D( '', #242, #243, #244 );
#152 = EDGE_LOOP( '', ( #245, #246, #247, #248 ) );
#153 = AXIS2_PLACEMENT_3D( '', #249, #250, #251 );
#154 = ORIENTED_EDGE( '', *, *, #252, .F. );
#155 = ORIENTED_EDGE( '', *, *, #253, .F. );
#156 = ORIENTED_EDGE( '', *, *, #254, .F. );
#157 = ORIENTED_EDGE( '', *, *, #255, .T. );
#158 = CARTESIAN_POINT( '', ( -27.0000000000000, 0.000000000000000, 0.000000000000000 ) );
#159 = DIRECTION( '', ( 1.00000000000000, 0.000000000000000, 0.000000000000000 ) );
#160 = DIRECTION( '', ( 0.000000000000000, 1.00000000000000, -2.44921270764475E-016 ) );
#161 = ORIENTED_EDGE( '', *, *, #256, .F. );
#162 = ORIENTED_EDGE( '', *, *, #257, .T. );
#163 = ORIENTED_EDGE( '', *, *, #258, .F. );
#164 = ORIENTED_EDGE( '', *, *, #259, .F. );
#165 = CARTESIAN_POINT( '', ( -25.5000000000000, 0.000000000000000, 0.000000000000000 ) );
#166 = DIRECTION( '', ( 1.00000000000000, 0.000000000000000, 0.000000000000000 ) );
#167 = DIRECTION( '', ( 0.000000000000000, 1.00000000000000, -2.44921270764475E-016 ) );
#168 = ORIENTED_EDGE( '', *, *, #260, .F. );
#169 = ORIENTED_EDGE( '', *, *, #261, .T. );
#170 = ORIENTED_EDGE( '', *, *, #262, .F. );
#171 = ORIENTED_EDGE( '', *, *, #257, .F. );
#172 = CARTESIAN_POINT( '', ( 19.5000000000000, 0.000000000000000, 0.000000000000000 ) );
#173 = DIRECTION( '', ( -1.00000000000000, 0.000000000000000, 0.000000000000000 ) );
#174 = DIRECTION( '', ( 0.000000000000000, 1.00000000000000, -2.44921270764475E-016 ) );
#175 = ORIENTED_EDGE( '', *, *, #263, .F. );
#176 = ORIENTED_EDGE( '', *, *, #264, .F. );
#177 = ORIENTED_EDGE( '', *, *, #265, .F. );
#178 = ORIENTED_EDGE( '', *, *, #266, .T. );
#179 = CARTESIAN_POINT( '', ( 21.0000000000000, 0.000000000000000, 0.000000000000000 ) );
#180 = DIRECTION( '', ( 1.00000000000000, 0.000000000000000, 0.000000000000000 ) );
#181 = DIRECTION( '', ( 0.000000000000000, 1.00000000000000, -2.44921270764475E-016 ) );
#182 = ORIENTED_EDGE( '', *, *, #267, .F. );
#183 = ORIENTED_EDGE( '', *, *, #268, .F. );
#184 = ORIENTED_EDGE( '', *, *, #269, .F. );
#185 = ORIENTED_EDGE( '', *, *, #270, .T. );
#186 = CARTESIAN_POINT( '', ( -3.00000000000000, 0.000000000000000, 0.000000000000000 ) );
#187 = DIRECTION( '', ( 1.00000000000000, 0.000000000000000, 0.000000000000000 ) );
#188 = DIRECTION( '', ( 0.000000000000000, 1.00000000000000, -2.44921270764475E-016 ) );
#189 = ORIENTED_EDGE( '', *, *, #271, .F. );
#190 = ORIENTED_EDGE( '', *, *, #270, .F. );
#191 = ORIENTED_EDGE( '', *, *, #272, .T. );
#192 = ORIENTED_EDGE( '', *, *, #253, .T. );
#193 = CARTESIAN_POINT( '', ( -6.00000000000000, 53.0166666666667, -1.29849093716966E-014 ) );
#194 = DIRECTION( '', ( -1.00000000000000, 0.000000000000000, 0.000000000000000 ) );
#195 = DIRECTION( '', ( 0.000000000000000, 1.00000000000000, -2.44921270764475E-016 ) );
#196 = ORIENTED_EDGE( '', *, *, #267, .T. );
#197 = ORIENTED_EDGE( '', *, *, #271, .T. );
#198 = ORIENTED_EDGE( '', *, *, #269, .T. );
#199 = ORIENTED_EDGE( '', *, *, #273, .F. );
#200 = CARTESIAN_POINT( '', ( -3.00000000000000, 0.000000000000000, 0.000000000000000 ) );
#201 = DIRECTION( '', ( 1.00000000000000, 0.000000000000000, 0.000000000000000 ) );
#202 = DIRECTION( '', ( 0.000000000000000, 1.00000000000000, -2.44921270764475E-016 ) );
#203 = ORIENTED_EDGE( '', *, *, #274, .F. );
#204 = ORIENTED_EDGE( '', *, *, #266, .F. );
#205 = ORIENTED_EDGE( '', *, *, #273, .T. );
#206 = ORIENTED_EDGE( '', *, *, #268, .T. );
#207 = CARTESIAN_POINT( '', ( 0.000000000000000, 53.0166666666667, -1.29849093716966E-014 ) );
#208 = DIRECTION( '', ( 1.00000000000000, 0.000000000000000, 0.000000000000000 ) );
#209 = DIRECTION( '', ( 0.000000000000000, -1.00000000000000, 2.44921270764475E-016 ) );
#210 = ORIENTED_EDGE( '', *, *, #263, .T. );
#211 = ORIENTED_EDGE( '', *, *, #274, .T. );
#212 = ORIENTED_EDGE( '', *, *, #265, .T. );
#213 = ORIENTED_EDGE( '', *, *, #275, .F. );
#214 = CARTESIAN_POINT( '', ( 21.0000000000000, 0.000000000000000, 0.000000000000000 ) );
#215 = DIRECTION( '', ( 1.00000000000000, 0.000000000000000, 0.000000000000000 ) );
#216 = DIRECTION( '', ( 0.000000000000000, 1.00000000000000, -2.44921270764475E-016 ) );
#217 = ORIENTED_EDGE( '', *, *, #261, .F. );
#218 = ORIENTED_EDGE( '', *, *, #276, .F. );
#219 = ORIENTED_EDGE( '', *, *, #275, .T. );
#220 = ORIENTED_EDGE( '', *, *, #264, .T. );
#221 = CARTESIAN_POINT( '', ( 42.0000000000000, 60.3550000000000, -1.47822232969899E-014 ) );
#222 = DIRECTION( '', ( 1.00000000000000, 0.000000000000000, 0.000000000000000 ) );
#223 = DIRECTION( '', ( 0.000000000000000, -1.00000000000000, 2.44921270764475E-016 ) );
#224 = ORIENTED_EDGE( '', *, *, #260, .T. );
#225 = ORIENTED_EDGE( '', *, *, #277, .F. );
#226 = ORIENTED_EDGE( '', *, *, #262, .T. );
#227 = ORIENTED_EDGE( '', *, *, #276, .T. );
#228 = CARTESIAN_POINT( '', ( 19.5000000000000, 0.000000000000000, 0.000000000000000 ) );
#229 = DIRECTION( '', ( -1.00000000000000, 0.000000000000000, 0.000000000000000 ) );
#230 = DIRECTION( '', ( 0.000000000000000, 1.00000000000000, -2.44921270764475E-016 ) );
#231 = ORIENTED_EDGE( '', *, *, #256, .T. );
#232 = ORIENTED_EDGE( '', *, *, #278, .F. );
#233 = ORIENTED_EDGE( '', *, *, #258, .T. );
#234 = ORIENTED_EDGE( '', *, *, #277, .T. );
#235 = CARTESIAN_POINT( '', ( -25.5000000000000, 0.000000000000000, 0.000000000000000 ) );
#236 = DIRECTION( '', ( 1.00000000000000, 0.000000000000000, 0.000000000000000 ) );
#237 = DIRECTION( '', ( 0.000000000000000, 1.00000000000000, -2.44921270764475E-016 ) );
#238 = ORIENTED_EDGE( '', *, *, #279, .F. );
#239 = ORIENTED_EDGE( '', *, *, #255, .F. );
#240 = ORIENTED_EDGE( '', *, *, #259, .T. );
#241 = ORIENTED_EDGE( '', *, *, #278, .T. );
#242 = CARTESIAN_POINT( '', ( -48.0000000000000, 60.3550000000000, -1.47822232969899E-014 ) );
#243 = DIRECTION( '', ( -1.00000000000000, 0.000000000000000, 0.000000000000000 ) );
#244 = DIRECTION( '', ( 0.000000000000000, 1.00000000000000, -2.44921270764475E-016 ) );
#245 = ORIENTED_EDGE( '', *, *, #252, .T. );
#246 = ORIENTED_EDGE( '', *, *, #279, .T. );
#247 = ORIENTED_EDGE( '', *, *, #254, .T. );
#248 = ORIENTED_EDGE( '', *, *, #272, .F. );
#249 = CARTESIAN_POINT( '', ( -27.0000000000000, 0.000000000000000, 0.000000000000000 ) );
#250 = DIRECTION( '', ( 1.00000000000000, 0.000000000000000, 0.000000000000000 ) );
#251 = DIRECTION( '', ( 0.000000000000000, 1.00000000000000, -2.44921270764475E-016 ) );
#252 = EDGE_CURVE( '', #280, #281, #282, .T. );
#253 = EDGE_CURVE( '', #283, #280, #284, .T. );
#254 = EDGE_CURVE( '', #285, #283, #286, .T. );
#255 = EDGE_CURVE( '', #285, #281, #287, .T. );
#256 = EDGE_CURVE( '', #288, #289, #290, .T. );
#257 = EDGE_CURVE( '', #288, #291, #292, .T. );
#258 = EDGE_CURVE( '', #293, #291, #294, .T. );
#259 = EDGE_CURVE( '', #289, #293, #295, .T. );
#260 = EDGE_CURVE( '', #296, #288, #297, .T. );
#261 = EDGE_CURVE( '', #296, #298, #299, .T. );
#262 = EDGE_CURVE( '', #291, #298, #300, .T. );
#263 = EDGE_CURVE( '', #301, #302, #303, .T. );
#264 = EDGE_CURVE( '', #304, #301, #305, .T. );
#265 = EDGE_CURVE( '', #306, #304, #307, .T. );
#266 = EDGE_CURVE( '', #306, #302, #308, .T. );
#267 = EDGE_CURVE( '', #309, #310, #311, .T. );
#268 = EDGE_CURVE( '', #312, #309, #313, .T. );
#269 = EDGE_CURVE( '', #314, #312, #315, .T. );
#270 = EDGE_CURVE( '', #314, #310, #316, .T. );
#271 = EDGE_CURVE( '', #310, #314, #317, .T. );
#272 = EDGE_CURVE( '', #280, #283, #318, .T. );
#273 = EDGE_CURVE( '', #309, #312, #319, .T. );
#274 = EDGE_CURVE( '', #302, #306, #320, .T. );
#275 = EDGE_CURVE( '', #301, #304, #321, .T. );
#276 = EDGE_CURVE( '', #298, #296, #322, .T. );
#277 = EDGE_CURVE( '', #291, #288, #323, .T. );
#278 = EDGE_CURVE( '', #293, #289, #324, .T. );
#279 = EDGE_CURVE( '', #281, #285, #325, .T. );
#280 = VERTEX_POINT( '', #326 );
#281 = VERTEX_POINT( '', #327 );
#282 = LINE( '', #328, #329 );
#283 = VERTEX_POINT( '', #330 );
#284 = CIRCLE( '', #331, 55.0000000000000 );
#285 = VERTEX_POINT( '', #332 );
#286 = LINE( '', #333, #334 );
#287 = CIRCLE( '', #335, 55.0000000000000 );
#288 = VERTEX_POINT( '', #336 );
#289 = VERTEX_POINT( '', #337 );
#290 = LINE( '', #338, #339 );
#291 = VERTEX_POINT( '', #340 );
#292 = CIRCLE( '', #341, 66.9000000000000 );
#293 = VERTEX_POINT( '', #342 );
#294 = LINE( '', #343, #344 );
#295 = CIRCLE( '', #345, 65.7100000000000 );
#296 = VERTEX_POINT( '', #346 );
#297 = LINE( '', #347, #348 );
#298 = VERTEX_POINT( '', #349 );
#299 = CIRCLE( '', #350, 65.7100000000000 );
#300 = LINE( '', #351, #352 );
#301 = VERTEX_POINT( '', #353 );
#302 = VERTEX_POINT( '', #354 );
#303 = LINE( '', #355, #356 );
#304 = VERTEX_POINT( '', #357 );
#305 = CIRCLE( '', #358, 55.0000000000000 );
#306 = VERTEX_POINT( '', #359 );
#307 = LINE( '', #360, #361 );
#308 = CIRCLE( '', #362, 55.0000000000000 );
#309 = VERTEX_POINT( '', #363 );
#310 = VERTEX_POINT( '', #364 );
#311 = LINE( '', #365, #366 );
#312 = VERTEX_POINT( '', #367 );
#313 = CIRCLE( '', #368, 51.0333333333333 );
#314 = VERTEX_POINT( '', #369 );
#315 = LINE( '', #370, #371 );
#316 = CIRCLE( '', #372, 51.0333333333333 );
#317 = CIRCLE( '', #373, 51.0333333333333 );
#318 = CIRCLE( '', #374, 55.0000000000000 );
#319 = CIRCLE( '', #375, 51.0333333333333 );
#320 = CIRCLE( '', #376, 55.0000000000000 );
#321 = CIRCLE( '', #377, 55.0000000000000 );
#322 = CIRCLE( '', #378, 65.7100000000000 );
#323 = CIRCLE( '', #379, 66.9000000000000 );
#324 = CIRCLE( '', #380, 65.7100000000000 );
#325 = CIRCLE( '', #381, 55.0000000000000 );
#326 = CARTESIAN_POINT( '', ( -6.00000000000000, 55.0000000000000, -1.34706698920462E-014 ) );
#327 = CARTESIAN_POINT( '', ( -48.0000000000000, 55.0000000000000, -1.34706698920462E-014 ) );
#328 = CARTESIAN_POINT( '', ( -27.0000000000000, 55.0000000000000, -6.73533494602307E-015 ) );
#329 = VECTOR( '', #382, 1.00000000000000 );
#330 = CARTESIAN_POINT( '', ( -6.00000000000000, -55.0000000000000, 6.73533494602307E-015 ) );
#331 = AXIS2_PLACEMENT_3D( '', #383, #384, #385 );
#332 = CARTESIAN_POINT( '', ( -48.0000000000000, -55.0000000000000, 6.73533494602307E-015 ) );
#333 = CARTESIAN_POINT( '', ( -27.0000000000000, -55.0000000000000, 6.73533494602307E-015 ) );
#334 = VECTOR( '', #386, 1.00000000000000 );
#335 = AXIS2_PLACEMENT_3D( '', #387, #388, #389 );
#336 = CARTESIAN_POINT( '', ( -3.00000000000000, 66.9000000000000, -1.63852330141434E-014 ) );
#337 = CARTESIAN_POINT( '', ( -48.0000000000000, 65.7100000000000, -1.60937767019337E-014 ) );
#338 = CARTESIAN_POINT( '', ( -25.5000000000000, 66.3050000000000, -8.11975242901927E-015 ) );
#339 = VECTOR( '', #390, 1.00000000000000 );
#340 = CARTESIAN_POINT( '', ( -3.00000000000000, -66.9000000000000, 8.19261650707170E-015 ) );
#341 = AXIS2_PLACEMENT_3D( '', #391, #392, #393 );
#342 = CARTESIAN_POINT( '', ( -48.0000000000000, -65.7100000000000, 8.04688835096684E-015 ) );
#343 = CARTESIAN_POINT( '', ( -25.5000000000000, -66.3050000000000, 8.11975242901927E-015 ) );
#344 = VECTOR( '', #394, 1.00000000000000 );
#345 = AXIS2_PLACEMENT_3D( '', #395, #396, #397 );
#346 = CARTESIAN_POINT( '', ( 42.0000000000000, 65.7100000000000, -1.60937767019337E-014 ) );
#347 = CARTESIAN_POINT( '', ( 19.5000000000000, 66.3050000000000, -8.11975242901928E-015 ) );
#348 = VECTOR( '', #398, 1.00000000000000 );
#349 = CARTESIAN_POINT( '', ( 42.0000000000000, -65.7100000000000, 8.04688835096684E-015 ) );
#350 = AXIS2_PLACEMENT_3D( '', #399, #400, #401 );
#351 = CARTESIAN_POINT( '', ( 19.5000000000000, -66.3050000000000, 8.11975242901927E-015 ) );
#352 = VECTOR( '', #402, 1.00000000000000 );
#353 = CARTESIAN_POINT( '', ( 42.0000000000000, 55.0000000000000, -1.34706698920462E-014 ) );
#354 = CARTESIAN_POINT( '', ( 0.000000000000000, 55.0000000000000, -1.34706698920462E-014 ) );
#355 = CARTESIAN_POINT( '', ( 21.0000000000000, 55.0000000000000, -6.73533494602307E-015 ) );
#356 = VECTOR( '', #403, 1.00000000000000 );
#357 = CARTESIAN_POINT( '', ( 42.0000000000000, -55.0000000000000, 6.73533494602307E-015 ) );
#358 = AXIS2_PLACEMENT_3D( '', #404, #405, #406 );
#359 = CARTESIAN_POINT( '', ( 0.000000000000000, -55.0000000000000, 6.73533494602307E-015 ) );
#360 = CARTESIAN_POINT( '', ( 21.0000000000000, -55.0000000000000, 6.73533494602307E-015 ) );
#361 = VECTOR( '', #407, 1.00000000000000 );
#362 = AXIS2_PLACEMENT_3D( '', #408, #409, #410 );
#363 = CARTESIAN_POINT( '', ( 0.000000000000000, 51.0333333333333, -1.24991488513471E-014 ) );
#364 = CARTESIAN_POINT( '', ( -6.00000000000000, 51.0333333333333, -1.24991488513471E-014 ) );
#365 = CARTESIAN_POINT( '', ( -3.00000000000000, 51.0333333333333, -6.24957442567353E-015 ) );
#366 = VECTOR( '', #411, 1.00000000000000 );
#367 = CARTESIAN_POINT( '', ( 0.000000000000000, -51.0333333333333, 6.24957442567353E-015 ) );
#368 = AXIS2_PLACEMENT_3D( '', #412, #413, #414 );
#369 = CARTESIAN_POINT( '', ( -6.00000000000000, -51.0333333333333, 6.24957442567353E-015 ) );
#370 = CARTESIAN_POINT( '', ( -3.00000000000000, -51.0333333333333, 6.24957442567353E-015 ) );
#371 = VECTOR( '', #415, 1.00000000000000 );
#372 = AXIS2_PLACEMENT_3D( '', #416, #417, #418 );
#373 = AXIS2_PLACEMENT_3D( '', #419, #420, #421 );
#374 = AXIS2_PLACEMENT_3D( '', #422, #423, #424 );
#375 = AXIS2_PLACEMENT_3D( '', #425, #426, #427 );
#376 = AXIS2_PLACEMENT_3D( '', #428, #429, #430 );
#377 = AXIS2_PLACEMENT_3D( '', #431, #432, #433 );
#378 = AXIS2_PLACEMENT_3D( '', #434, #435, #436 );
#379 = AXIS2_PLACEMENT_3D( '', #437, #438, #439 );
#380 = AXIS2_PLACEMENT_3D( '', #440, #441, #442 );
#381 = AXIS2_PLACEMENT_3D( '', #443, #444, #445 );
#382 = DIRECTION( '', ( -1.00000000000000, 0.000000000000000, 0.000000000000000 ) );
#383 = CARTESIAN_POINT( '', ( -6.00000000000000, 0.000000000000000, 0.000000000000000 ) );
#384 = DIRECTION( '', ( -1.00000000000000, 0.000000000000000, 0.000000000000000 ) );
#385 = DIRECTION( '', ( 0.000000000000000, 1.00000000000000, -2.44921270764475E-016 ) );
#386 = DIRECTION( '', ( 1.00000000000000, 0.000000000000000, 0.000000000000000 ) );
#387 = CARTESIAN_POINT( '', ( -48.0000000000000, 0.000000000000000, 0.000000000000000 ) );
#388 = DIRECTION( '', ( -1.00000000000000, 0.000000000000000, 0.000000000000000 ) );
#389 = DIRECTION( '', ( 0.000000000000000, 1.00000000000000, -2.44921270764475E-016 ) );
#390 = DIRECTION( '', ( -0.999650528959424, -0.0264352028769263, 3.23727174076675E-018 ) );
#391 = CARTESIAN_POINT( '', ( -3.00000000000000, 0.000000000000000, 0.000000000000000 ) );
#392 = DIRECTION( '', ( -1.00000000000000, 0.000000000000000, 0.000000000000000 ) );
#393 = DIRECTION( '', ( 0.000000000000000, 1.00000000000000, -2.44921270764475E-016 ) );
#394 = DIRECTION( '', ( 0.999650528959424, -0.0264352028769263, 3.23727174076675E-018 ) );
#395 = CARTESIAN_POINT( '', ( -48.0000000000000, 0.000000000000000, 0.000000000000000 ) );
#396 = DIRECTION( '', ( -1.00000000000000, 0.000000000000000, 0.000000000000000 ) );
#397 = DIRECTION( '', ( 0.000000000000000, 1.00000000000000, -2.44921270764475E-016 ) );
#398 = DIRECTION( '', ( -0.999650528959424, 0.0264352028769269, -3.23727174076683E-018 ) );
#399 = CARTESIAN_POINT( '', ( 42.0000000000000, 0.000000000000000, 0.000000000000000 ) );
#400 = DIRECTION( '', ( -1.00000000000000, 0.000000000000000, 0.000000000000000 ) );
#401 = DIRECTION( '', ( 0.000000000000000, 1.00000000000000, -2.44921270764475E-016 ) );
#402 = DIRECTION( '', ( 0.999650528959424, 0.0264352028769269, -3.23727174076683E-018 ) );
#403 = DIRECTION( '', ( -1.00000000000000, 0.000000000000000, 0.000000000000000 ) );
#404 = CARTESIAN_POINT( '', ( 42.0000000000000, 0.000000000000000, 0.000000000000000 ) );
#405 = DIRECTION( '', ( -1.00000000000000, 0.000000000000000, 0.000000000000000 ) );
#406 = DIRECTION( '', ( 0.000000000000000, 1.00000000000000, -2.44921270764475E-016 ) );
#407 = DIRECTION( '', ( 1.00000000000000, 0.000000000000000, 0.000000000000000 ) );
#408 = CARTESIAN_POINT( '', ( 0.000000000000000, 0.000000000000000, 0.000000000000000 ) );
#409 = DIRECTION( '', ( -1.00000000000000, 0.000000000000000, 0.000000000000000 ) );
#410 = DIRECTION( '', ( 0.000000000000000, 1.00000000000000, -2.44921270764475E-016 ) );
#411 = DIRECTION( '', ( -1.00000000000000, 0.000000000000000, 0.000000000000000 ) );
#412 = CARTESIAN_POINT( '', ( 0.000000000000000, 0.000000000000000, 0.000000000000000 ) );
#413 = DIRECTION( '', ( -1.00000000000000, 0.000000000000000, 0.000000000000000 ) );
#414 = DIRECTION( '', ( 0.000000000000000, 1.00000000000000, -2.44921270764475E-016 ) );
#415 = DIRECTION( '', ( 1.00000000000000, 0.000000000000000, 0.000000000000000 ) );
#416 = CARTESIAN_POINT( '', ( -6.00000000000000, 0.000000000000000, 0.000000000000000 ) );
#417 = DIRECTION( '', ( -1.00000000000000, 0.000000000000000, 0.000000000000000 ) );
#418 = DIRECTION( '', ( 0.000000000000000, 1.00000000000000, -2.44921270764475E-016 ) );
#419 = CARTESIAN_POINT( '', ( -6.00000000000000, 0.000000000000000, 0.000000000000000 ) );
#420 = DIRECTION( '', ( -1.00000000000000, 0.000000000000000, 0.000000000000000 ) );
#421 = DIRECTION( '', ( 0.000000000000000, 1.00000000000000, -2.44921270764475E-016 ) );
#422 = CARTESIAN_POINT( '', ( -6.00000000000000, 0.000000000000000, 0.000000000000000 ) );
#423 = DIRECTION( '', ( -1.00000000000000, 0.000000000000000, 0.000000000000000 ) );
#424 = DIRECTION( '', ( 0.000000000000000, 1.00000000000000, -2.44921270764475E-016 ) );
#425 = CARTESIAN_POINT( '', ( 0.000000000000000, 0.000000000000000, 0.000000000000000 ) );
#426 = DIRECTION( '', ( -1.00000000000000, 0.000000000000000, 0.000000000000000 ) );
#427 = DIRECTION( '', ( 0.000000000000000, 1.00000000000000, -2.44921270764475E-016 ) );
#428 = CARTESIAN_POINT( '', ( 0.000000000000000, 0.000000000000000, 0.000000000000000 ) );
#429 = DIRECTION( '', ( -1.00000000000000, 0.000000000000000, 0.000000000000000 ) );
#430 = DIRECTION( '', ( 0.000000000000000, 1.00000000000000, -2.44921270764475E-016 ) );
#431 = CARTESIAN_POINT( '', ( 42.0000000000000, 0.000000000000000, 0.000000000000000 ) );
#432 = DIRECTION( '', ( -1.00000000000000, 0.000000000000000, 0.000000000000000 ) );
#433 = DIRECTION( '', ( 0.000000000000000, 1.00000000000000, -2.44921270764475E-016 ) );
#434 = CARTESIAN_POINT( '', ( 42.0000000000000, 0.000000000000000, 0.000000000000000 ) );
#435 = DIRECTION( '', ( -1.00000000000000, 0.000000000000000, 0.000000000000000 ) );
#436 = DIRECTION( '', ( 0.000000000000000, 1.00000000000000, -2.44921270764475E-016 ) );
#437 = CARTESIAN_POINT( '', ( -3.00000000000000, 0.000000000000000, 0.000000000000000 ) );
#438 = DIRECTION( '', ( -1.00000000000000, 0.000000000000000, 0.000000000000000 ) );
#439 = DIRECTION( '', ( 0.000000000000000, 1.00000000000000, -2.44921270764475E-016 ) );
#440 = CARTESIAN_POINT( '', ( -48.0000000000000, 0.000000000000000, 0.000000000000000 ) );
#441 = DIRECTION( '', ( -1.00000000000000, 0.000000000000000, 0.000000000000000 ) );
#442 = DIRECTION( '', ( 0.000000000000000, 1.00000000000000, -2.44921270764475E-016 ) );
#443 = CARTESIAN_POINT( '', ( -48.0000000000000, 0.000000000000000, 0.000000000000000 ) );
#444 = DIRECTION( '', ( -1.00000000000000, 0.000000000000000, 0.000000000000000 ) );
#445 = DIRECTION( '', ( 0.000000000000000, 1.00000000000000, -2.44921270764475E-016 ) );
ENDSEC;
END-ISO-10303-21;
