ISO-10303-21;
HEADER;
FILE_DESCRIPTION( ( '' ), '1' );
FILE_NAME( 'R:/Engineering/Parts CD files/STP/Industrial & Dual Contained/Chemproline/Stub Ends/AGRU_25052002507_PE 100 schwarz_Bundbuchse_25 - MOP 16 bar_105.stp', '2012-06-20T13:05:52', ( '' ), ( '' ), ' ', ' ', ' ' );
FILE_SCHEMA( ( 'CONFIG_CONTROL_DESIGN' ) );
ENDSEC;
DATA;
#1 = DESIGN_CONTEXT( '', #27, 'design' );
#2 = APPLICATION_PROTOCOL_DEFINITION( 'INTERNATIONAL STANDARD', 'config_control_design', 1994, #27 );
#3 = PRODUCT_CATEGORY_RELATIONSHIP( 'NONE', 'NONE', #28, #29 );
#4 = DATE_AND_TIME( #30, #31 );
#5 = DATE_TIME_ROLE( 'creation_date' );
#6 = DATE_TIME_ROLE( 'classification_date' );
#7 = PERSON_AND_ORGANIZATION_ROLE( 'creator' );
#8 = PERSON_AND_ORGANIZATION_ROLE( 'design_supplier' );
#9 = PERSON_AND_ORGANIZATION_ROLE( 'classification_officer' );
#10 = PERSON_AND_ORGANIZATION_ROLE( 'design_owner' );
#11 = APPROVAL_PERSON_ORGANIZATION( #32, #33, #34 );
#12 = APPROVAL_DATE_TIME( #4, #33 );
#13 = CC_DESIGN_APPROVAL( #33, ( #35, #36, #37 ) );
#14 = CC_DESIGN_DATE_AND_TIME_ASSIGNMENT( #4, #5, ( #37 ) );
#15 = CC_DESIGN_DATE_AND_TIME_ASSIGNMENT( #4, #6, ( #35 ) );
#16 = CC_DESIGN_PERSON_AND_ORGANIZATION_ASSIGNMENT( #32, #10, ( #38 ) );
#17 = CC_DESIGN_PERSON_AND_ORGANIZATION_ASSIGNMENT( #32, #7, ( #37 ) );
#18 = CC_DESIGN_PERSON_AND_ORGANIZATION_ASSIGNMENT( #32, #7, ( #36 ) );
#19 = CC_DESIGN_PERSON_AND_ORGANIZATION_ASSIGNMENT( #32, #8, ( #36 ) );
#20 = CC_DESIGN_SECURITY_CLASSIFICATION( #35, ( #36 ) );
#21 = CC_DESIGN_PERSON_AND_ORGANIZATION_ASSIGNMENT( #32, #9, ( #35 ) );
#22 = SHAPE_DEFINITION_REPRESENTATION( #39, #40 );
#23 =  ( GEOMETRIC_REPRESENTATION_CONTEXT( 3 )GLOBAL_UNCERTAINTY_ASSIGNED_CONTEXT( ( #43 ) )GLOBAL_UNIT_ASSIGNED_CONTEXT( ( #45, #46, #47 ) )REPRESENTATION_CONTEXT( 'NONE', 'WORKSPACE' ) );
#27 = APPLICATION_CONTEXT( 'CONFIGURATION CONTROLLED 3D DESIGNS OF MECHANICAL PARTS AND ASSEMBLIES' );
#28 = PRODUCT_CATEGORY( 'part', 'NONE' );
#29 = PRODUCT_RELATED_PRODUCT_CATEGORY( 'detail', ' ', ( #38 ) );
#30 = CALENDAR_DATE( 2012, 20, 5 );
#31 = LOCAL_TIME( 9, 5, 52.0000000000000, #49 );
#32 = PERSON_AND_ORGANIZATION( #50, #51 );
#33 = APPROVAL( #52, 'SOLID MODEL' );
#34 = APPROVAL_ROLE( 'APPROVED' );
#35 = SECURITY_CLASSIFICATION( '', '', #53 );
#36 = PRODUCT_DEFINITION_FORMATION_WITH_SPECIFIED_SOURCE( ' ', 'NONE', #38, .NOT_KNOWN. );
#37 = PRODUCT_DEFINITION( 'NONE', 'NONE', #36, #1 );
#38 = PRODUCT( '1', '1', 'PART-1-DESC', ( #54 ) );
#39 = PRODUCT_DEFINITION_SHAPE( 'NONE', 'NONE', #37 );
#40 = ADVANCED_BREP_SHAPE_REPRESENTATION( '1', ( #55, #56 ), #23 );
#43 = UNCERTAINTY_MEASURE_WITH_UNIT( LENGTH_MEASURE( 1.00000000000000E-006 ), #45, '', '' );
#45 =  ( CONVERSION_BASED_UNIT( 'MILLIMETRE', #59 )LENGTH_UNIT(  )NAMED_UNIT( #62 ) );
#46 =  ( NAMED_UNIT( #64 )PLANE_ANGLE_UNIT(  )SI_UNIT( $, .RADIAN. ) );
#47 =  ( NAMED_UNIT( #64 )SOLID_ANGLE_UNIT(  )SI_UNIT( $, .STERADIAN. ) );
#49 = COORDINATED_UNIVERSAL_TIME_OFFSET( 5, 0, .BEHIND. );
#50 = PERSON( '', 'UNSPECIFIED', $, $, $, $ );
#51 = ORGANIZATION( 'UNSPECIFIED', 'UNSPECIFIED', 'UNSPECIFIED' );
#52 = APPROVAL_STATUS( 'approved' );
#53 = SECURITY_CLASSIFICATION_LEVEL( 'unclassified' );
#54 = MECHANICAL_CONTEXT( '', #27, 'mechanical' );
#55 = MANIFOLD_SOLID_BREP( '1', #70 );
#56 = AXIS2_PLACEMENT_3D( '', #71, #72, #73 );
#59 = LENGTH_MEASURE_WITH_UNIT( LENGTH_MEASURE( 1.00000000000000 ), #74 );
#62 = DIMENSIONAL_EXPONENTS( 1.00000000000000, 0.000000000000000, 0.000000000000000, 0.000000000000000, 0.000000000000000, 0.000000000000000, 0.000000000000000 );
#64 = DIMENSIONAL_EXPONENTS( 0.000000000000000, 0.000000000000000, 0.000000000000000, 0.000000000000000, 0.000000000000000, 0.000000000000000, 0.000000000000000 );
#70 = CLOSED_SHELL( '', ( #75, #76, #77, #78, #79, #80, #81, #82, #83, #84, #85, #86 ) );
#71 = CARTESIAN_POINT( '', ( 0.000000000000000, 0.000000000000000, 0.000000000000000 ) );
#72 = DIRECTION( '', ( 0.000000000000000, 0.000000000000000, 1.00000000000000 ) );
#73 = DIRECTION( '', ( 1.00000000000000, 0.000000000000000, 0.000000000000000 ) );
#74 =  ( NAMED_UNIT( #62 )LENGTH_UNIT(  )SI_UNIT( .MILLI., .METRE. ) );
#75 = ADVANCED_FACE( '', ( #88 ), #89, .F. );
#76 = ADVANCED_FACE( '', ( #90 ), #91, .T. );
#77 = ADVANCED_FACE( '', ( #92 ), #93, .T. );
#78 = ADVANCED_FACE( '', ( #94 ), #95, .F. );
#79 = ADVANCED_FACE( '', ( #96, #97 ), #98, .T. );
#80 = ADVANCED_FACE( '', ( #99 ), #100, .F. );
#81 = ADVANCED_FACE( '', ( #101, #102 ), #103, .T. );
#82 = ADVANCED_FACE( '', ( #104 ), #105, .T. );
#83 = ADVANCED_FACE( '', ( #106, #107 ), #108, .T. );
#84 = ADVANCED_FACE( '', ( #109 ), #110, .T. );
#85 = ADVANCED_FACE( '', ( #111, #112 ), #113, .T. );
#86 = ADVANCED_FACE( '', ( #114 ), #115, .F. );
#88 = FACE_OUTER_BOUND( '', #116, .T. );
#89 = CYLINDRICAL_SURFACE( '', #117, 11.1666666666667 );
#90 = FACE_OUTER_BOUND( '', #118, .T. );
#91 = CYLINDRICAL_SURFACE( '', #119, 29.0000000000000 );
#92 = FACE_OUTER_BOUND( '', #120, .T. );
#93 = CYLINDRICAL_SURFACE( '', #121, 16.5000000000000 );
#94 = FACE_OUTER_BOUND( '', #122, .T. );
#95 = CYLINDRICAL_SURFACE( '', #123, 12.5000000000000 );
#96 = FACE_OUTER_BOUND( '', #124, .T. );
#97 = FACE_BOUND( '', #125, .T. );
#98 = PLANE( '', #126 );
#99 = FACE_OUTER_BOUND( '', #127, .T. );
#100 = CYLINDRICAL_SURFACE( '', #128, 12.5000000000000 );
#101 = FACE_OUTER_BOUND( '', #129, .T. );
#102 = FACE_BOUND( '', #130, .T. );
#103 = PLANE( '', #131 );
#104 = FACE_OUTER_BOUND( '', #132, .T. );
#105 = CYLINDRICAL_SURFACE( '', #133, 16.5000000000000 );
#106 = FACE_OUTER_BOUND( '', #134, .T. );
#107 = FACE_BOUND( '', #135, .T. );
#108 = PLANE( '', #136 );
#109 = FACE_OUTER_BOUND( '', #137, .T. );
#110 = CYLINDRICAL_SURFACE( '', #138, 29.0000000000000 );
#111 = FACE_BOUND( '', #139, .T. );
#112 = FACE_OUTER_BOUND( '', #140, .T. );
#113 = PLANE( '', #141 );
#114 = FACE_OUTER_BOUND( '', #142, .T. );
#115 = CYLINDRICAL_SURFACE( '', #143, 11.1666666666667 );
#116 = EDGE_LOOP( '', ( #144, #145, #146, #147 ) );
#117 = AXIS2_PLACEMENT_3D( '', #148, #149, #150 );
#118 = EDGE_LOOP( '', ( #151, #152, #153, #154 ) );
#119 = AXIS2_PLACEMENT_3D( '', #155, #156, #157 );
#120 = EDGE_LOOP( '', ( #158, #159, #160, #161 ) );
#121 = AXIS2_PLACEMENT_3D( '', #162, #163, #164 );
#122 = EDGE_LOOP( '', ( #165, #166, #167, #168 ) );
#123 = AXIS2_PLACEMENT_3D( '', #169, #170, #171 );
#124 = EDGE_LOOP( '', ( #172, #173 ) );
#125 = EDGE_LOOP( '', ( #174, #175 ) );
#126 = AXIS2_PLACEMENT_3D( '', #176, #177, #178 );
#127 = EDGE_LOOP( '', ( #179, #180, #181, #182 ) );
#128 = AXIS2_PLACEMENT_3D( '', #183, #184, #185 );
#129 = EDGE_LOOP( '', ( #186, #187 ) );
#130 = EDGE_LOOP( '', ( #188, #189 ) );
#131 = AXIS2_PLACEMENT_3D( '', #190, #191, #192 );
#132 = EDGE_LOOP( '', ( #193, #194, #195, #196 ) );
#133 = AXIS2_PLACEMENT_3D( '', #197, #198, #199 );
#134 = EDGE_LOOP( '', ( #200, #201 ) );
#135 = EDGE_LOOP( '', ( #202, #203 ) );
#136 = AXIS2_PLACEMENT_3D( '', #204, #205, #206 );
#137 = EDGE_LOOP( '', ( #207, #208, #209, #210 ) );
#138 = AXIS2_PLACEMENT_3D( '', #211, #212, #213 );
#139 = EDGE_LOOP( '', ( #214, #215 ) );
#140 = EDGE_LOOP( '', ( #216, #217 ) );
#141 = AXIS2_PLACEMENT_3D( '', #218, #219, #220 );
#142 = EDGE_LOOP( '', ( #221, #222, #223, #224 ) );
#143 = AXIS2_PLACEMENT_3D( '', #225, #226, #227 );
#144 = ORIENTED_EDGE( '', *, *, #228, .F. );
#145 = ORIENTED_EDGE( '', *, *, #229, .F. );
#146 = ORIENTED_EDGE( '', *, *, #230, .F. );
#147 = ORIENTED_EDGE( '', *, *, #231, .T. );
#148 = CARTESIAN_POINT( '', ( -2.50000000000000, 0.000000000000000, 0.000000000000000 ) );
#149 = DIRECTION( '', ( 1.00000000000000, 0.000000000000000, 0.000000000000000 ) );
#150 = DIRECTION( '', ( 0.000000000000000, 1.00000000000000, -2.44921270764475E-016 ) );
#151 = ORIENTED_EDGE( '', *, *, #232, .F. );
#152 = ORIENTED_EDGE( '', *, *, #233, .T. );
#153 = ORIENTED_EDGE( '', *, *, #234, .F. );
#154 = ORIENTED_EDGE( '', *, *, #235, .F. );
#155 = CARTESIAN_POINT( '', ( 0.000000000000000, 0.000000000000000, 0.000000000000000 ) );
#156 = DIRECTION( '', ( 1.00000000000000, 0.000000000000000, 0.000000000000000 ) );
#157 = DIRECTION( '', ( 0.000000000000000, 1.00000000000000, -2.44921270764475E-016 ) );
#158 = ORIENTED_EDGE( '', *, *, #236, .F. );
#159 = ORIENTED_EDGE( '', *, *, #237, .T. );
#160 = ORIENTED_EDGE( '', *, *, #238, .F. );
#161 = ORIENTED_EDGE( '', *, *, #239, .F. );
#162 = CARTESIAN_POINT( '', ( 11.5000000000000, 0.000000000000000, 0.000000000000000 ) );
#163 = DIRECTION( '', ( 1.00000000000000, 0.000000000000000, 0.000000000000000 ) );
#164 = DIRECTION( '', ( 0.000000000000000, 1.00000000000000, -2.44921270764475E-016 ) );
#165 = ORIENTED_EDGE( '', *, *, #240, .F. );
#166 = ORIENTED_EDGE( '', *, *, #241, .F. );
#167 = ORIENTED_EDGE( '', *, *, #242, .F. );
#168 = ORIENTED_EDGE( '', *, *, #243, .T. );
#169 = CARTESIAN_POINT( '', ( 9.00000000000000, 0.000000000000000, 0.000000000000000 ) );
#170 = DIRECTION( '', ( 1.00000000000000, 0.000000000000000, 0.000000000000000 ) );
#171 = DIRECTION( '', ( 0.000000000000000, 1.00000000000000, -2.44921270764475E-016 ) );
#172 = ORIENTED_EDGE( '', *, *, #244, .F. );
#173 = ORIENTED_EDGE( '', *, *, #243, .F. );
#174 = ORIENTED_EDGE( '', *, *, #245, .T. );
#175 = ORIENTED_EDGE( '', *, *, #229, .T. );
#176 = CARTESIAN_POINT( '', ( -3.55271367880050E-015, 11.8333333333333, -2.89823503737963E-015 ) );
#177 = DIRECTION( '', ( 1.00000000000000, 5.32907051820077E-015, -1.30520272331123E-030 ) );
#178 = DIRECTION( '', ( 5.32907051820077E-015, -1.00000000000000, 2.44921270764475E-016 ) );
#179 = ORIENTED_EDGE( '', *, *, #240, .T. );
#180 = ORIENTED_EDGE( '', *, *, #244, .T. );
#181 = ORIENTED_EDGE( '', *, *, #242, .T. );
#182 = ORIENTED_EDGE( '', *, *, #246, .F. );
#183 = CARTESIAN_POINT( '', ( 9.00000000000000, 0.000000000000000, 0.000000000000000 ) );
#184 = DIRECTION( '', ( 1.00000000000000, 0.000000000000000, 0.000000000000000 ) );
#185 = DIRECTION( '', ( 0.000000000000000, 1.00000000000000, -2.44921270764475E-016 ) );
#186 = ORIENTED_EDGE( '', *, *, #237, .F. );
#187 = ORIENTED_EDGE( '', *, *, #247, .F. );
#188 = ORIENTED_EDGE( '', *, *, #246, .T. );
#189 = ORIENTED_EDGE( '', *, *, #241, .T. );
#190 = CARTESIAN_POINT( '', ( 18.0000000000000, 14.5000000000000, -3.55135842608489E-015 ) );
#191 = DIRECTION( '', ( 1.00000000000000, 0.000000000000000, 0.000000000000000 ) );
#192 = DIRECTION( '', ( 0.000000000000000, -1.00000000000000, 2.44921270764475E-016 ) );
#193 = ORIENTED_EDGE( '', *, *, #236, .T. );
#194 = ORIENTED_EDGE( '', *, *, #248, .F. );
#195 = ORIENTED_EDGE( '', *, *, #238, .T. );
#196 = ORIENTED_EDGE( '', *, *, #247, .T. );
#197 = CARTESIAN_POINT( '', ( 11.5000000000000, 0.000000000000000, 0.000000000000000 ) );
#198 = DIRECTION( '', ( 1.00000000000000, 0.000000000000000, 0.000000000000000 ) );
#199 = DIRECTION( '', ( 0.000000000000000, 1.00000000000000, -2.44921270764475E-016 ) );
#200 = ORIENTED_EDGE( '', *, *, #233, .F. );
#201 = ORIENTED_EDGE( '', *, *, #249, .F. );
#202 = ORIENTED_EDGE( '', *, *, #239, .T. );
#203 = ORIENTED_EDGE( '', *, *, #248, .T. );
#204 = CARTESIAN_POINT( '', ( 5.00000000000000, 22.7500000000000, -5.57195890989182E-015 ) );
#205 = DIRECTION( '', ( 1.00000000000000, 0.000000000000000, 0.000000000000000 ) );
#206 = DIRECTION( '', ( 0.000000000000000, -1.00000000000000, 2.44921270764475E-016 ) );
#207 = ORIENTED_EDGE( '', *, *, #232, .T. );
#208 = ORIENTED_EDGE( '', *, *, #250, .F. );
#209 = ORIENTED_EDGE( '', *, *, #234, .T. );
#210 = ORIENTED_EDGE( '', *, *, #249, .T. );
#211 = CARTESIAN_POINT( '', ( 0.000000000000000, 0.000000000000000, 0.000000000000000 ) );
#212 = DIRECTION( '', ( 1.00000000000000, 0.000000000000000, 0.000000000000000 ) );
#213 = DIRECTION( '', ( 0.000000000000000, 1.00000000000000, -2.44921270764475E-016 ) );
#214 = ORIENTED_EDGE( '', *, *, #251, .F. );
#215 = ORIENTED_EDGE( '', *, *, #231, .F. );
#216 = ORIENTED_EDGE( '', *, *, #235, .T. );
#217 = ORIENTED_EDGE( '', *, *, #250, .T. );
#218 = CARTESIAN_POINT( '', ( -5.00000000000000, 20.0833333333333, -4.91883552118655E-015 ) );
#219 = DIRECTION( '', ( -1.00000000000000, 0.000000000000000, 0.000000000000000 ) );
#220 = DIRECTION( '', ( 0.000000000000000, 1.00000000000000, -2.44921270764475E-016 ) );
#221 = ORIENTED_EDGE( '', *, *, #228, .T. );
#222 = ORIENTED_EDGE( '', *, *, #251, .T. );
#223 = ORIENTED_EDGE( '', *, *, #230, .T. );
#224 = ORIENTED_EDGE( '', *, *, #245, .F. );
#225 = CARTESIAN_POINT( '', ( -2.50000000000000, 0.000000000000000, 0.000000000000000 ) );
#226 = DIRECTION( '', ( 1.00000000000000, 0.000000000000000, 0.000000000000000 ) );
#227 = DIRECTION( '', ( 0.000000000000000, 1.00000000000000, -2.44921270764475E-016 ) );
#228 = EDGE_CURVE( '', #252, #253, #254, .T. );
#229 = EDGE_CURVE( '', #255, #252, #256, .T. );
#230 = EDGE_CURVE( '', #257, #255, #258, .T. );
#231 = EDGE_CURVE( '', #257, #253, #259, .T. );
#232 = EDGE_CURVE( '', #260, #261, #262, .T. );
#233 = EDGE_CURVE( '', #260, #263, #264, .T. );
#234 = EDGE_CURVE( '', #265, #263, #266, .T. );
#235 = EDGE_CURVE( '', #261, #265, #267, .T. );
#236 = EDGE_CURVE( '', #268, #269, #270, .T. );
#237 = EDGE_CURVE( '', #268, #271, #272, .T. );
#238 = EDGE_CURVE( '', #273, #271, #274, .T. );
#239 = EDGE_CURVE( '', #269, #273, #275, .T. );
#240 = EDGE_CURVE( '', #276, #277, #278, .T. );
#241 = EDGE_CURVE( '', #279, #276, #280, .T. );
#242 = EDGE_CURVE( '', #281, #279, #282, .T. );
#243 = EDGE_CURVE( '', #281, #277, #283, .T. );
#244 = EDGE_CURVE( '', #277, #281, #284, .T. );
#245 = EDGE_CURVE( '', #252, #255, #285, .T. );
#246 = EDGE_CURVE( '', #276, #279, #286, .T. );
#247 = EDGE_CURVE( '', #271, #268, #287, .T. );
#248 = EDGE_CURVE( '', #273, #269, #288, .T. );
#249 = EDGE_CURVE( '', #263, #260, #289, .T. );
#250 = EDGE_CURVE( '', #265, #261, #290, .T. );
#251 = EDGE_CURVE( '', #253, #257, #291, .T. );
#252 = VERTEX_POINT( '', #292 );
#253 = VERTEX_POINT( '', #293 );
#254 = LINE( '', #294, #295 );
#255 = VERTEX_POINT( '', #296 );
#256 = CIRCLE( '', #297, 11.1666666666667 );
#257 = VERTEX_POINT( '', #298 );
#258 = LINE( '', #299, #300 );
#259 = CIRCLE( '', #301, 11.1666666666667 );
#260 = VERTEX_POINT( '', #302 );
#261 = VERTEX_POINT( '', #303 );
#262 = LINE( '', #304, #305 );
#263 = VERTEX_POINT( '', #306 );
#264 = CIRCLE( '', #307, 29.0000000000000 );
#265 = VERTEX_POINT( '', #308 );
#266 = LINE( '', #309, #310 );
#267 = CIRCLE( '', #311, 29.0000000000000 );
#268 = VERTEX_POINT( '', #312 );
#269 = VERTEX_POINT( '', #313 );
#270 = LINE( '', #314, #315 );
#271 = VERTEX_POINT( '', #316 );
#272 = CIRCLE( '', #317, 16.5000000000000 );
#273 = VERTEX_POINT( '', #318 );
#274 = LINE( '', #319, #320 );
#275 = CIRCLE( '', #321, 16.5000000000000 );
#276 = VERTEX_POINT( '', #322 );
#277 = VERTEX_POINT( '', #323 );
#278 = LINE( '', #324, #325 );
#279 = VERTEX_POINT( '', #326 );
#280 = CIRCLE( '', #327, 12.5000000000000 );
#281 = VERTEX_POINT( '', #328 );
#282 = LINE( '', #329, #330 );
#283 = CIRCLE( '', #331, 12.5000000000000 );
#284 = CIRCLE( '', #332, 12.5000000000000 );
#285 = CIRCLE( '', #333, 11.1666666666667 );
#286 = CIRCLE( '', #334, 12.5000000000000 );
#287 = CIRCLE( '', #335, 16.5000000000000 );
#288 = CIRCLE( '', #336, 16.5000000000000 );
#289 = CIRCLE( '', #337, 29.0000000000000 );
#290 = CIRCLE( '', #338, 29.0000000000000 );
#291 = CIRCLE( '', #339, 11.1666666666667 );
#292 = CARTESIAN_POINT( '', ( 0.000000000000000, 11.1666666666667, -2.73495419020331E-015 ) );
#293 = CARTESIAN_POINT( '', ( -5.00000000000000, 11.1666666666667, -2.73495419020331E-015 ) );
#294 = CARTESIAN_POINT( '', ( -2.50000000000000, 11.1666666666667, -1.36747709510166E-015 ) );
#295 = VECTOR( '', #340, 1.00000000000000 );
#296 = CARTESIAN_POINT( '', ( 0.000000000000000, -11.1666666666667, 1.36747709510166E-015 ) );
#297 = AXIS2_PLACEMENT_3D( '', #341, #342, #343 );
#298 = CARTESIAN_POINT( '', ( -5.00000000000000, -11.1666666666667, 1.36747709510166E-015 ) );
#299 = CARTESIAN_POINT( '', ( -2.50000000000000, -11.1666666666667, 1.36747709510166E-015 ) );
#300 = VECTOR( '', #344, 1.00000000000000 );
#301 = AXIS2_PLACEMENT_3D( '', #345, #346, #347 );
#302 = CARTESIAN_POINT( '', ( 5.00000000000000, 29.0000000000000, -7.10271685216979E-015 ) );
#303 = CARTESIAN_POINT( '', ( -5.00000000000000, 29.0000000000000, -7.10271685216979E-015 ) );
#304 = CARTESIAN_POINT( '', ( 0.000000000000000, 29.0000000000000, -3.55135842608489E-015 ) );
#305 = VECTOR( '', #348, 1.00000000000000 );
#306 = CARTESIAN_POINT( '', ( 5.00000000000000, -29.0000000000000, 3.55135842608489E-015 ) );
#307 = AXIS2_PLACEMENT_3D( '', #349, #350, #351 );
#308 = CARTESIAN_POINT( '', ( -5.00000000000000, -29.0000000000000, 3.55135842608489E-015 ) );
#309 = CARTESIAN_POINT( '', ( 0.000000000000000, -29.0000000000000, 3.55135842608489E-015 ) );
#310 = VECTOR( '', #352, 1.00000000000000 );
#311 = AXIS2_PLACEMENT_3D( '', #353, #354, #355 );
#312 = CARTESIAN_POINT( '', ( 18.0000000000000, 16.5000000000000, -4.04120096761385E-015 ) );
#313 = CARTESIAN_POINT( '', ( 5.00000000000000, 16.5000000000000, -4.04120096761385E-015 ) );
#314 = CARTESIAN_POINT( '', ( 11.5000000000000, 16.5000000000000, -2.02060048380692E-015 ) );
#315 = VECTOR( '', #356, 1.00000000000000 );
#316 = CARTESIAN_POINT( '', ( 18.0000000000000, -16.5000000000000, 2.02060048380692E-015 ) );
#317 = AXIS2_PLACEMENT_3D( '', #357, #358, #359 );
#318 = CARTESIAN_POINT( '', ( 5.00000000000000, -16.5000000000000, 2.02060048380692E-015 ) );
#319 = CARTESIAN_POINT( '', ( 11.5000000000000, -16.5000000000000, 2.02060048380692E-015 ) );
#320 = VECTOR( '', #360, 1.00000000000000 );
#321 = AXIS2_PLACEMENT_3D( '', #361, #362, #363 );
#322 = CARTESIAN_POINT( '', ( 18.0000000000000, 12.5000000000000, -3.06151588455594E-015 ) );
#323 = CARTESIAN_POINT( '', ( -7.10542735760100E-015, 12.5000000000000, -3.06151588455594E-015 ) );
#324 = CARTESIAN_POINT( '', ( 9.00000000000000, 12.5000000000000, -1.53075794227797E-015 ) );
#325 = VECTOR( '', #364, 1.00000000000000 );
#326 = CARTESIAN_POINT( '', ( 18.0000000000000, -12.5000000000000, 1.53075794227797E-015 ) );
#327 = AXIS2_PLACEMENT_3D( '', #365, #366, #367 );
#328 = CARTESIAN_POINT( '', ( -7.10542735760100E-015, -12.5000000000000, 1.53075794227797E-015 ) );
#329 = CARTESIAN_POINT( '', ( 9.00000000000000, -12.5000000000000, 1.53075794227797E-015 ) );
#330 = VECTOR( '', #368, 1.00000000000000 );
#331 = AXIS2_PLACEMENT_3D( '', #369, #370, #371 );
#332 = AXIS2_PLACEMENT_3D( '', #372, #373, #374 );
#333 = AXIS2_PLACEMENT_3D( '', #375, #376, #377 );
#334 = AXIS2_PLACEMENT_3D( '', #378, #379, #380 );
#335 = AXIS2_PLACEMENT_3D( '', #381, #382, #383 );
#336 = AXIS2_PLACEMENT_3D( '', #384, #385, #386 );
#337 = AXIS2_PLACEMENT_3D( '', #387, #388, #389 );
#338 = AXIS2_PLACEMENT_3D( '', #390, #391, #392 );
#339 = AXIS2_PLACEMENT_3D( '', #393, #394, #395 );
#340 = DIRECTION( '', ( -1.00000000000000, 0.000000000000000, 0.000000000000000 ) );
#341 = CARTESIAN_POINT( '', ( 0.000000000000000, 0.000000000000000, 0.000000000000000 ) );
#342 = DIRECTION( '', ( -1.00000000000000, 0.000000000000000, 0.000000000000000 ) );
#343 = DIRECTION( '', ( 0.000000000000000, 1.00000000000000, -2.44921270764475E-016 ) );
#344 = DIRECTION( '', ( 1.00000000000000, 0.000000000000000, 0.000000000000000 ) );
#345 = CARTESIAN_POINT( '', ( -5.00000000000000, 0.000000000000000, 0.000000000000000 ) );
#346 = DIRECTION( '', ( -1.00000000000000, 0.000000000000000, 0.000000000000000 ) );
#347 = DIRECTION( '', ( 0.000000000000000, 1.00000000000000, -2.44921270764475E-016 ) );
#348 = DIRECTION( '', ( -1.00000000000000, 0.000000000000000, 0.000000000000000 ) );
#349 = CARTESIAN_POINT( '', ( 5.00000000000000, 0.000000000000000, 0.000000000000000 ) );
#350 = DIRECTION( '', ( -1.00000000000000, 0.000000000000000, 0.000000000000000 ) );
#351 = DIRECTION( '', ( 0.000000000000000, 1.00000000000000, -2.44921270764475E-016 ) );
#352 = DIRECTION( '', ( 1.00000000000000, 0.000000000000000, 0.000000000000000 ) );
#353 = CARTESIAN_POINT( '', ( -5.00000000000000, 0.000000000000000, 0.000000000000000 ) );
#354 = DIRECTION( '', ( -1.00000000000000, 0.000000000000000, 0.000000000000000 ) );
#355 = DIRECTION( '', ( 0.000000000000000, 1.00000000000000, -2.44921270764475E-016 ) );
#356 = DIRECTION( '', ( -1.00000000000000, 0.000000000000000, 0.000000000000000 ) );
#357 = CARTESIAN_POINT( '', ( 18.0000000000000, 0.000000000000000, 0.000000000000000 ) );
#358 = DIRECTION( '', ( -1.00000000000000, 0.000000000000000, 0.000000000000000 ) );
#359 = DIRECTION( '', ( 0.000000000000000, 1.00000000000000, -2.44921270764475E-016 ) );
#360 = DIRECTION( '', ( 1.00000000000000, 0.000000000000000, 0.000000000000000 ) );
#361 = CARTESIAN_POINT( '', ( 5.00000000000000, 0.000000000000000, 0.000000000000000 ) );
#362 = DIRECTION( '', ( -1.00000000000000, 0.000000000000000, 0.000000000000000 ) );
#363 = DIRECTION( '', ( 0.000000000000000, 1.00000000000000, -2.44921270764475E-016 ) );
#364 = DIRECTION( '', ( -1.00000000000000, 0.000000000000000, 0.000000000000000 ) );
#365 = CARTESIAN_POINT( '', ( 18.0000000000000, 0.000000000000000, 0.000000000000000 ) );
#366 = DIRECTION( '', ( -1.00000000000000, 0.000000000000000, 0.000000000000000 ) );
#367 = DIRECTION( '', ( 0.000000000000000, 1.00000000000000, -2.44921270764475E-016 ) );
#368 = DIRECTION( '', ( 1.00000000000000, 0.000000000000000, 0.000000000000000 ) );
#369 = CARTESIAN_POINT( '', ( -7.10542735760100E-015, 0.000000000000000, 0.000000000000000 ) );
#370 = DIRECTION( '', ( -1.00000000000000, 0.000000000000000, 0.000000000000000 ) );
#371 = DIRECTION( '', ( 0.000000000000000, 1.00000000000000, -2.44921270764475E-016 ) );
#372 = CARTESIAN_POINT( '', ( -7.10542735760100E-015, 0.000000000000000, 0.000000000000000 ) );
#373 = DIRECTION( '', ( -1.00000000000000, 0.000000000000000, 0.000000000000000 ) );
#374 = DIRECTION( '', ( 0.000000000000000, 1.00000000000000, -2.44921270764475E-016 ) );
#375 = CARTESIAN_POINT( '', ( 0.000000000000000, 0.000000000000000, 0.000000000000000 ) );
#376 = DIRECTION( '', ( -1.00000000000000, 0.000000000000000, 0.000000000000000 ) );
#377 = DIRECTION( '', ( 0.000000000000000, 1.00000000000000, -2.44921270764475E-016 ) );
#378 = CARTESIAN_POINT( '', ( 18.0000000000000, 0.000000000000000, 0.000000000000000 ) );
#379 = DIRECTION( '', ( -1.00000000000000, 0.000000000000000, 0.000000000000000 ) );
#380 = DIRECTION( '', ( 0.000000000000000, 1.00000000000000, -2.44921270764475E-016 ) );
#381 = CARTESIAN_POINT( '', ( 18.0000000000000, 0.000000000000000, 0.000000000000000 ) );
#382 = DIRECTION( '', ( -1.00000000000000, 0.000000000000000, 0.000000000000000 ) );
#383 = DIRECTION( '', ( 0.000000000000000, 1.00000000000000, -2.44921270764475E-016 ) );
#384 = CARTESIAN_POINT( '', ( 5.00000000000000, 0.000000000000000, 0.000000000000000 ) );
#385 = DIRECTION( '', ( -1.00000000000000, 0.000000000000000, 0.000000000000000 ) );
#386 = DIRECTION( '', ( 0.000000000000000, 1.00000000000000, -2.44921270764475E-016 ) );
#387 = CARTESIAN_POINT( '', ( 5.00000000000000, 0.000000000000000, 0.000000000000000 ) );
#388 = DIRECTION( '', ( -1.00000000000000, 0.000000000000000, 0.000000000000000 ) );
#389 = DIRECTION( '', ( 0.000000000000000, 1.00000000000000, -2.44921270764475E-016 ) );
#390 = CARTESIAN_POINT( '', ( -5.00000000000000, 0.000000000000000, 0.000000000000000 ) );
#391 = DIRECTION( '', ( -1.00000000000000, 0.000000000000000, 0.000000000000000 ) );
#392 = DIRECTION( '', ( 0.000000000000000, 1.00000000000000, -2.44921270764475E-016 ) );
#393 = CARTESIAN_POINT( '', ( -5.00000000000000, 0.000000000000000, 0.000000000000000 ) );
#394 = DIRECTION( '', ( -1.00000000000000, 0.000000000000000, 0.000000000000000 ) );
#395 = DIRECTION( '', ( 0.000000000000000, 1.00000000000000, -2.44921270764475E-016 ) );
ENDSEC;
END-ISO-10303-21;
