ISO-10303-21;
HEADER;
FILE_DESCRIPTION (( 'STEP AP203' ),
    '1' );
FILE_NAME ('581244010.STEP',
    '2015-12-04T19:04:34',
    ( '' ),
    ( '' ),
    'SwSTEP 2.0',
    'SolidWorks 2015',
    '' );
FILE_SCHEMA (( 'CONFIG_CONTROL_DESIGN' ));
ENDSEC;

DATA;
#1 = PERSON_AND_ORGANIZATION ( #128, #62 ) ;
#2 = CARTESIAN_POINT ( 'NONE',  ( 2.244094488188976400, 0.0000000000000000000, 0.0000000000000000000 ) ) ;
#3 = ADVANCED_FACE ( 'NONE', ( #27, #312 ), #46, .T. ) ;
#4 = CARTESIAN_POINT ( 'NONE',  ( 2.244094488188976400, -1.237032144331405200E-015, 0.5157480314960630800 ) ) ;
#5 = MANIFOLD_SOLID_BREP ( '1', #97 ) ;
#6 = APPROVAL_PERSON_ORGANIZATION ( #86, #206, #258 ) ;
#7 = CIRCLE ( 'NONE', #137, 0.5157480314960630800 ) ;
#8 = CARTESIAN_POINT ( 'NONE',  ( 1.122047244094489300, 0.0000000000000000000, 0.0000000000000000000 ) ) ;
#9 = CARTESIAN_POINT ( 'NONE',  ( 2.415250424049376800, 0.3625985628169813300, -0.6368688152234308600 ) ) ;
#10 = CARTESIAN_POINT ( 'NONE',  ( 2.611751604685429200, -0.006817412553799409200, 0.3616321329302043500 ) ) ;
#11 = DATE_AND_TIME ( #155, #177 ) ;
#12 = ORIENTED_EDGE ( 'NONE', *, *, #288, .F. ) ;
#13 = CC_DESIGN_APPROVAL ( #206, ( #171 ) ) ;
#14 = CARTESIAN_POINT ( 'NONE',  ( 2.384228410674679800, -0.009721045679993925100, -0.5156564100861652500 ) ) ;
#15 = EDGE_LOOP ( 'NONE', ( #104, #117 ) ) ;
#16 = ORIENTED_EDGE ( 'NONE', *, *, #247, .F. ) ;
#17 = CARTESIAN_POINT ( 'NONE',  ( 2.611751604685429200, 0.2082015620362358000, 0.3656856252036858000 ) ) ;
#18 = ADVANCED_FACE ( 'NONE', ( #32 ), #215, .F. ) ;
#19 = DIRECTION ( 'NONE',  ( 0.0000000000000000000, 0.0000000000000000000, -1.000000000000000000 ) ) ;
#20 = DIRECTION ( 'NONE',  ( 1.000000000000000000, 0.0000000000000000000, 0.0000000000000000000 ) ) ;
#21 = CARTESIAN_POINT ( 'NONE',  ( 2.244094488188976400, -3.083836652845140300E-015, 0.6299212598425196800 ) ) ;
#22 = CIRCLE ( 'NONE', #57, 0.5157480314960630800 ) ;
#23 = CARTESIAN_POINT ( 'NONE',  ( 2.611751604685429200, 0.3616963874323017000, 3.937702772117629300E-016 ) ) ;
#24 = VERTEX_POINT ( 'NONE', #306 ) ;
#25 = CARTESIAN_POINT ( 'NONE',  ( 0.0000000000000000000, 0.0000000000000000000, -0.6299212598425196800 ) ) ;
#26 = DIRECTION ( 'NONE',  ( 1.000000000000000000, 0.0000000000000000000, 0.0000000000000000000 ) ) ;
#27 = FACE_OUTER_BOUND ( 'NONE', #151, .T. ) ;
#28 = ORIENTED_EDGE ( 'NONE', *, *, #247, .T. ) ;
#29 = CARTESIAN_POINT ( 'NONE',  ( 3.830908918410755900, -1.586814430221781900, 0.0000000000000000000 ) ) ;
#30 = CYLINDRICAL_SURFACE ( 'NONE', #119, 0.6299212598425200100 ) ;
#31 = CARTESIAN_POINT ( 'NONE',  ( 2.611751604685429200, 0.3616963874323018700, -0.2150571789858715400 ) ) ;
#32 = FACE_OUTER_BOUND ( 'NONE', #79, .T. ) ;
#33 = CARTESIAN_POINT ( 'NONE',  ( 2.244094488188976400, 0.5157480314960626300, 0.3066530951786740100 ) ) ;
#34 = CC_DESIGN_APPROVAL ( #69, ( #276 ) ) ;
#35 = CYLINDRICAL_SURFACE ( 'NONE', #174, 0.5157480314960631900 ) ;
#36 = PERSON_AND_ORGANIZATION ( #128, #62 ) ;
#37 = AXIS2_PLACEMENT_3D ( 'NONE', #212, #73, #52 ) ;
#38 = COORDINATED_UNIVERSAL_TIME_OFFSET ( 5, 0, .BEHIND. ) ;
#39 = DESIGN_CONTEXT ( 'detailed design', #160, 'design' ) ;
#40 = EDGE_CURVE ( 'NONE', #198, #198, #261, .T. ) ;
#41 = FACE_OUTER_BOUND ( 'NONE', #15, .T. ) ;
#42 = FACE_OUTER_BOUND ( 'NONE', #145, .T. ) ;
#43 = CARTESIAN_POINT ( 'NONE',  ( 2.384228410674678900, 0.5157480314960633000, -0.3066530951786727900 ) ) ;
#44 = APPLICATION_CONTEXT ( 'configuration controlled 3d designs of mechanical parts and assemblies' ) ;
#45 = CIRCLE ( 'NONE', #191, 0.5157480314960631900 ) ;
#46 = CYLINDRICAL_SURFACE ( 'NONE', #143, 0.6299212598425196800 ) ;
#47 = CARTESIAN_POINT ( 'NONE',  ( 2.573108929277555300, -0.01062631913449513900, -0.5636769703284487700 ) ) ;
#48 = CARTESIAN_POINT ( 'NONE',  ( 2.244094488188976400, 0.2968775733064034600, -0.5214363424641839100 ) ) ;
#49 = AXIS2_PLACEMENT_3D ( 'NONE', #95, #26, #213 ) ;
#50 = DIRECTION ( 'NONE',  ( 0.0000000000000000000, 8.881784197001252300E-016, -1.000000000000000000 ) ) ;
#51 = CARTESIAN_POINT ( 'NONE',  ( 2.384228410674678900, 0.2968775733064023000, 0.5214363424641843500 ) ) ;
#52 = DIRECTION ( 'NONE',  ( 0.7071067811865481300, 0.7071067811865468000, 0.0000000000000000000 ) ) ;
#53 = DATE_AND_TIME ( #158, #284 ) ;
#54 = EDGE_LOOP ( 'NONE', ( #223 ) ) ;
#55 = LOCAL_TIME ( 14, 4, 34.00000000000000000, #105 ) ;
#56 = DATE_AND_TIME ( #72, #55 ) ;
#57 = AXIS2_PLACEMENT_3D ( 'NONE', #297, #251, #50 ) ;
#58 = DATE_AND_TIME ( #190, #189 ) ;
#59 = CC_DESIGN_APPROVAL ( #134, ( #268 ) ) ;
#60 = CARTESIAN_POINT ( 'NONE',  ( 4.276330512858975500, -1.141392835773563200, 0.0000000000000000000 ) ) ;
#61 = APPLICATION_PROTOCOL_DEFINITION ( 'international standard', 'config_control_design', 1994, #160 ) ;
#62 = ORGANIZATION ( 'UNSPECIFIED', 'UNSPECIFIED', '' ) ;
#63 = CC_DESIGN_PERSON_AND_ORGANIZATION_ASSIGNMENT ( #178, #219, ( #276 ) ) ;
#64 = DIRECTION ( 'NONE',  ( 0.7071067811865470200, -0.7071067811865480200, 3.677458913681069900E-032 ) ) ;
#65 = CIRCLE ( 'NONE', #37, 0.6299212598425200100 ) ;
#66 = AXIS2_PLACEMENT_3D ( 'NONE', #2, #88, #275 ) ;
#67 = APPROVAL_ROLE ( '' ) ;
#68 = EDGE_LOOP ( 'NONE', ( #110 ) ) ;
#69 = APPROVAL ( #303, 'UNSPECIFIED' ) ;
#70 = CARTESIAN_POINT ( 'NONE',  ( 2.693141348031971900, 0.4417665800699875400, -0.2626652567766371000 ) ) ;
#71 = EDGE_CURVE ( 'NONE', #285, #285, #7, .T. ) ;
#72 = CALENDAR_DATE ( 2015, 4, 12 ) ;
#73 = DIRECTION ( 'NONE',  ( 0.7071067811865470200, -0.7071067811865480200, 0.0000000000000000000 ) ) ;
#74 = CARTESIAN_POINT ( 'NONE',  ( 0.0000000000000000000, 0.0000000000000000000, 0.0000000000000000000 ) ) ;
#75 = SHAPE_DEFINITION_REPRESENTATION ( #286, #120 ) ;
#76 = FACE_OUTER_BOUND ( 'NONE', #161, .T. ) ;
#77 = EDGE_CURVE ( 'NONE', #96, #225, #266, .T. ) ;
#78 = FACE_OUTER_BOUND ( 'NONE', #310, .T. ) ;
#79 = EDGE_LOOP ( 'NONE', ( #281, #186 ) ) ;
#80 = EDGE_LOOP ( 'NONE', ( #101 ) ) ;
#81 = CARTESIAN_POINT ( 'NONE',  ( 2.513475061830249900, 0.2657042953246802100, -0.4666835368804740900 ) ) ;
#82 = VERTEX_POINT ( 'NONE', #25 ) ;
#83 = CARTESIAN_POINT ( 'NONE',  ( 2.384228410674679800, 0.5157480314960628500, 5.634436486932543500E-016 ) ) ;
#84 =( BOUNDED_SURFACE ( )  B_SPLINE_SURFACE ( 3, 3, ( 
 ( #214, #89, #70, #283, #293, #259, #221 ),
 ( #47, #240, #270, #254, #218, #269, #91 ),
 ( #109, #9, #154, #131, #123, #166, #289 ),
 ( #98, #140, #144, #280, #141, #130, #133 ) ),
 .UNSPECIFIED., .F., .F., .T. ) 
 B_SPLINE_SURFACE_WITH_KNOTS ( ( 4, 4 ),
 ( 4, 3, 4 ),
 ( 0.0000000000000000000, 1.000000000000000000 ),
 ( 0.0000000000000000000, 0.5000000000000000000, 1.000000000000000000 ),
 .UNSPECIFIED. ) 
 GEOMETRIC_REPRESENTATION_ITEM ( )  RATIONAL_B_SPLINE_SURFACE ( (
 ( 1.000000000000000000, 0.8002741005225368900, 0.8002741005225368900, 1.000000000000000000, 0.8002741005225368900, 0.8002741005225368900, 1.000000000000000000),
 ( 0.9482053969659241000, 0.7588242211675199100, 0.7588242211675199100, 0.9482053969659241000, 0.7588242211675199100, 0.7588242211675199100, 0.9482053969659241000),
 ( 0.9482053969659241000, 0.7588242211675199100, 0.7588242211675199100, 0.9482053969659241000, 0.7588242211675199100, 0.7588242211675199100, 0.9482053969659241000),
 ( 1.000000000000000000, 0.8002741005225368900, 0.8002741005225368900, 1.000000000000000000, 0.8002741005225368900, 0.8002741005225368900, 1.000000000000000000) ) ) 
 REPRESENTATION_ITEM ( '' )  SURFACE ( )  );
#85 = CARTESIAN_POINT ( 'NONE',  ( 2.611751604685429200, 0.3616963874323014800, 0.2150571789858724300 ) ) ;
#86 = PERSON_AND_ORGANIZATION ( #128, #62 ) ;
#87 = DIRECTION ( 'NONE',  ( 0.7071067811865481300, 0.7071067811865468000, 0.0000000000000000000 ) ) ;
#88 = DIRECTION ( 'NONE',  ( 0.7071067811865470200, -0.7071067811865480200, 3.677458913681069900E-032 ) ) ;
#89 = CARTESIAN_POINT ( 'NONE',  ( 2.693141348031971900, 0.2542919841663958700, -0.4466389315464862100 ) ) ;
#90 = CARTESIAN_POINT ( 'NONE',  ( 3.037501703299866100, -0.7934072151108897400, 0.0000000000000000000 ) ) ;
#91 = CARTESIAN_POINT ( 'NONE',  ( 2.573108929277555300, -0.01062631913449736700, 0.5636769703284487700 ) ) ;
#92 = FACE_OUTER_BOUND ( 'NONE', #99, .T. ) ;
#93 = AXIS2_PLACEMENT_3D ( 'NONE', #265, #181, #267 ) ;
#94 = CC_DESIGN_SECURITY_CLASSIFICATION ( #268, ( #171 ) ) ;
#95 = CARTESIAN_POINT ( 'NONE',  ( 2.244094488188976400, 0.0000000000000000000, 0.0000000000000000000 ) ) ;
#96 = VERTEX_POINT ( 'NONE', #4 ) ;
#97 = CLOSED_SHELL ( 'NONE', ( #164, #203, #3, #127, #152, #304, #180, #18 ) ) ;
#98 = CARTESIAN_POINT ( 'NONE',  ( 2.244094488188976400, -0.01187303289159619800, -0.6298093558304308500 ) ) ;
#99 = EDGE_LOOP ( 'NONE', ( #115 ) ) ;
#100 = DIRECTION ( 'NONE',  ( 0.0000000000000000000, 0.0000000000000000000, -1.000000000000000000 ) ) ;
#101 = ORIENTED_EDGE ( 'NONE', *, *, #71, .T. ) ;
#102 = FACE_BOUND ( 'NONE', #68, .T. ) ;
#103 = ORIENTED_EDGE ( 'NONE', *, *, #236, .T. ) ;
#104 = ORIENTED_EDGE ( 'NONE', *, *, #77, .T. ) ;
#105 = COORDINATED_UNIVERSAL_TIME_OFFSET ( 5, 0, .BEHIND. ) ;
#106 = CARTESIAN_POINT ( 'NONE',  ( 2.244094488188976400, -1.237032144331405200E-015, 0.5157480314960630800 ) ) ;
#107 = FACE_BOUND ( 'NONE', #80, .T. ) ;
#108 = CARTESIAN_POINT ( 'NONE',  ( 0.0000000000000000000, 0.0000000000000000000, 0.0000000000000000000 ) ) ;
#109 = CARTESIAN_POINT ( 'NONE',  ( 2.415250424049376800, -0.01187303289159620000, -0.6298093558304309600 ) ) ;
#110 = ORIENTED_EDGE ( 'NONE', *, *, #252, .T. ) ;
#111 = CIRCLE ( 'NONE', #66, 0.5157480314960631900 ) ;
#112 = DIRECTION ( 'NONE',  ( 0.7071067811865481300, 0.7071067811865468000, 0.0000000000000000000 ) ) ;
#113 = COORDINATED_UNIVERSAL_TIME_OFFSET ( 5, 0, .BEHIND. ) ;
#114 = PERSON_AND_ORGANIZATION_ROLE ( 'classification_officer' ) ;
#115 = ORIENTED_EDGE ( 'NONE', *, *, #252, .F. ) ;
#116 = VERTEX_POINT ( 'NONE', #233 ) ;
#117 = ORIENTED_EDGE ( 'NONE', *, *, #136, .F. ) ;
#118 = AXIS2_PLACEMENT_3D ( 'NONE', #209, #139, #142 ) ;
#119 = AXIS2_PLACEMENT_3D ( 'NONE', #257, #172, #87 ) ;
#120 = ADVANCED_BREP_SHAPE_REPRESENTATION ( '581244010', ( #5, #243 ), #188 ) ;
#121 = CARTESIAN_POINT ( 'NONE',  ( 2.513475061830249500, 0.4615925202686794200, 5.026173457093235700E-016 ) ) ;
#122 = AXIS2_PLACEMENT_3D ( 'NONE', #271, #256, #100 ) ;
#123 = CARTESIAN_POINT ( 'NONE',  ( 2.415250424049376800, 0.6299212598425191200, 0.3745381315159388400 ) ) ;
#124 = CARTESIAN_POINT ( 'NONE',  ( 0.0000000000000000000, 0.0000000000000000000, -0.5157480314960630800 ) ) ;
#125 = CYLINDRICAL_SURFACE ( 'NONE', #122, 0.5157480314960630800 ) ;
#126 = CARTESIAN_POINT ( 'NONE',  ( 4.195597848865236100, -1.222125499767301700, 0.0000000000000000000 ) ) ;
#127 = ADVANCED_FACE ( 'NONE', ( #305, #102 ), #291, .T. ) ;
#128 = PERSON ( 'UNSPECIFIED', 'UNSPECIFIED', 'UNSPECIFIED', ('UNSPECIFIED'), ('UNSPECIFIED'), ('UNSPECIFIED') ) ;
#129 = CARTESIAN_POINT ( 'NONE',  ( 2.244094488188976400, -0.009721045679993926800, -0.5156564100861652500 ) ) ;
#130 = CARTESIAN_POINT ( 'NONE',  ( 2.244094488188976400, 0.3625985628169788900, 0.6368688152234324200 ) ) ;
#131 = CARTESIAN_POINT ( 'NONE',  ( 2.415250424049376800, 0.6299212598425197900, 1.244271390864269800E-015 ) ) ;
#132 = CARTESIAN_POINT ( 'NONE',  ( 1.722250630081144400, -1.259842519685032900, -0.6299212598425193400 ) ) ;
#133 = CARTESIAN_POINT ( 'NONE',  ( 2.244094488188976400, -0.01187303289159868400, 0.6298093558304308500 ) ) ;
#134 = APPROVAL ( #167, 'UNSPECIFIED' ) ;
#135 = DIRECTION ( 'NONE',  ( 0.0000000000000000000, 0.0000000000000000000, 1.000000000000000000 ) ) ;
#136 = EDGE_CURVE ( 'NONE', #96, #225, #22, .T. ) ;
#137 = AXIS2_PLACEMENT_3D ( 'NONE', #108, #279, #19 ) ;
#138 = EDGE_CURVE ( 'NONE', #116, #24, #246, .T. ) ;
#139 = DIRECTION ( 'NONE',  ( -1.000000000000000000, 0.0000000000000000000, 0.0000000000000000000 ) ) ;
#140 = CARTESIAN_POINT ( 'NONE',  ( 2.244094488188976400, 0.3625985628169812700, -0.6368688152234309700 ) ) ;
#141 = CARTESIAN_POINT ( 'NONE',  ( 2.244094488188976400, 0.6299212598425191200, 0.3745381315159387900 ) ) ;
#142 = DIRECTION ( 'NONE',  ( 0.0000000000000000000, 0.0000000000000000000, 1.000000000000000000 ) ) ;
#143 = AXIS2_PLACEMENT_3D ( 'NONE', #8, #234, #299 ) ;
#144 = CARTESIAN_POINT ( 'NONE',  ( 2.244094488188976400, 0.6299212598425204500, -0.3745381315159364000 ) ) ;
#145 = EDGE_LOOP ( 'NONE', ( #255 ) ) ;
#146 = CARTESIAN_POINT ( 'NONE',  ( 2.244094488188978600, -2.272101418079784000E-016, -0.5157480314960630800 ) ) ;
#147 = CC_DESIGN_DATE_AND_TIME_ASSIGNMENT ( #56, #156, ( #268 ) ) ;
#148 = PERSON_AND_ORGANIZATION ( #128, #62 ) ;
#149 = CC_DESIGN_PERSON_AND_ORGANIZATION_ASSIGNMENT ( #1, #114, ( #268 ) ) ;
#150 = DIRECTION ( 'NONE',  ( -0.7071067811865470200, 0.7071067811865480200, -0.0000000000000000000 ) ) ;
#151 = EDGE_LOOP ( 'NONE', ( #309, #300 ) ) ;
#152 = ADVANCED_FACE ( 'NONE', ( #42, #107 ), #239, .T. ) ;
#153 = ORIENTED_EDGE ( 'NONE', *, *, #77, .F. ) ;
#154 = CARTESIAN_POINT ( 'NONE',  ( 2.415250424049376800, 0.6299212598425204500, -0.3745381315159363500 ) ) ;
#155 = CALENDAR_DATE ( 2015, 4, 12 ) ;
#156 = DATE_TIME_ROLE ( 'classification_date' ) ;
#157 = PRODUCT_RELATED_PRODUCT_CATEGORY ( 'detail', '', ( #232 ) ) ;
#158 = CALENDAR_DATE ( 2015, 4, 12 ) ;
#159 = CARTESIAN_POINT ( 'NONE',  ( 2.244094488188976400, 0.5157480314960629600, 5.634436486932542500E-016 ) ) ;
#160 = APPLICATION_CONTEXT ( 'configuration controlled 3d designs of mechanical parts and assemblies' ) ;
#161 = EDGE_LOOP ( 'NONE', ( #290 ) ) ;
#162 =( NAMED_UNIT ( * ) PLANE_ANGLE_UNIT ( ) SI_UNIT ( $, .RADIAN. ) );
#163 = ORIENTED_EDGE ( 'NONE', *, *, #40, .F. ) ;
#164 = ADVANCED_FACE ( 'NONE', ( #76, #282 ), #30, .T. ) ;
#165 = PERSON_AND_ORGANIZATION ( #128, #62 ) ;
#166 = CARTESIAN_POINT ( 'NONE',  ( 2.415250424049376800, 0.3625985628169788900, 0.6368688152234324200 ) ) ;
#167 = APPROVAL_STATUS ( 'not_yet_approved' ) ;
#168 = APPLICATION_PROTOCOL_DEFINITION ( 'international standard', 'config_control_design', 1994, #44 ) ;
#169 = DIRECTION ( 'NONE',  ( 0.7071067811865483500, 0.7071067811865468000, 0.0000000000000000000 ) ) ;
#170 = CARTESIAN_POINT ( 'NONE',  ( 1.816834829363188900, -1.031496062992122400, -0.5157480314960628500 ) ) ;
#171 = PRODUCT_DEFINITION_FORMATION_WITH_SPECIFIED_SOURCE ( 'ANY', '', #232, .NOT_KNOWN. ) ;
#172 = DIRECTION ( 'NONE',  ( 0.7071067811865470200, -0.7071067811865480200, 0.0000000000000000000 ) ) ;
#173 = EDGE_LOOP ( 'NONE', ( #224 ) ) ;
#174 = AXIS2_PLACEMENT_3D ( 'NONE', #90, #64, #216 ) ;
#175 = PERSON_AND_ORGANIZATION_ROLE ( 'design_owner' ) ;
#176 = CARTESIAN_POINT ( 'NONE',  ( 2.384228410674678900, 0.5157480314960624100, 0.3066530951786739500 ) ) ;
#177 = LOCAL_TIME ( 14, 4, 34.00000000000000000, #113 ) ;
#178 = PERSON_AND_ORGANIZATION ( #128, #62 ) ;
#179 = CARTESIAN_POINT ( 'NONE',  ( 4.053619715634882300, -1.364103632997669500, -7.714055772109464300E-017 ) ) ;
#180 = ADVANCED_FACE ( 'NONE', ( #311, #41 ), #125, .F. ) ;
#181 = DIRECTION ( 'NONE',  ( 1.000000000000000000, 0.0000000000000000000, 0.0000000000000000000 ) ) ;
#182 = FACE_OUTER_BOUND ( 'NONE', #296, .T. ) ;
#183 = APPROVAL_PERSON_ORGANIZATION ( #287, #69, #260 ) ;
#184 = CARTESIAN_POINT ( 'NONE',  ( 2.513475061830249500, -0.008700298791367484100, -0.4615105194564173000 ) ) ;
#185 = CALENDAR_DATE ( 2015, 4, 12 ) ;
#186 = ORIENTED_EDGE ( 'NONE', *, *, #136, .T. ) ;
#187 = PERSON_AND_ORGANIZATION_ROLE ( 'creator' ) ;
#188 =( GEOMETRIC_REPRESENTATION_CONTEXT ( 3 ) GLOBAL_UNCERTAINTY_ASSIGNED_CONTEXT ( ( #228 ) ) GLOBAL_UNIT_ASSIGNED_CONTEXT ( ( #262, #162, #226 ) ) REPRESENTATION_CONTEXT ( 'NONE', 'WORKASPACE' ) );
#189 = LOCAL_TIME ( 14, 4, 34.00000000000000000, #38 ) ;
#190 = CALENDAR_DATE ( 2015, 4, 12 ) ;
#191 = AXIS2_PLACEMENT_3D ( 'NONE', #230, #250, #169 ) ;
#192 = CARTESIAN_POINT ( 'NONE',  ( 2.513475061830249500, -0.008700298791368488500, 0.4615105194564173000 ) ) ;
#193 = CC_DESIGN_PERSON_AND_ORGANIZATION_ASSIGNMENT ( #211, #292, ( #171 ) ) ;
#194 = CARTESIAN_POINT ( 'NONE',  ( 2.244094488188978600, -5.524347760088523300E-016, -0.6299212598425196800 ) ) ;
#195 = COORDINATED_UNIVERSAL_TIME_OFFSET ( 5, 0, .BEHIND. ) ;
#196 = CARTESIAN_POINT ( 'NONE',  ( 2.611751604685429200, 0.2082015620362366000, -0.3656856252036853000 ) ) ;
#197 = CARTESIAN_POINT ( 'NONE',  ( 2.384228410674678900, 0.2968775733064034600, -0.5214363424641838000 ) ) ;
#198 = VERTEX_POINT ( 'NONE', #60 ) ;
#199 = DATE_TIME_ROLE ( 'creation_date' ) ;
#200 = ORIENTED_EDGE ( 'NONE', *, *, #138, .T. ) ;
#201 = DATE_AND_TIME ( #185, #277 ) ;
#202 = CARTESIAN_POINT ( 'NONE',  ( 2.244094488188976400, 0.5157480314960634100, -0.3066530951786728400 ) ) ;
#203 = ADVANCED_FACE ( 'NONE', ( #182 ), #84, .T. ) ;
#204 =( LENGTH_UNIT ( ) NAMED_UNIT ( * ) SI_UNIT ( $, .METRE. ) );
#205 = CARTESIAN_POINT ( 'NONE',  ( 2.244094488188976400, 0.2968775733064023500, 0.5214363424641845800 ) ) ;
#206 = APPROVAL ( #308, 'UNSPECIFIED' ) ;
#207 = AXIS2_PLACEMENT_3D ( 'NONE', #179, #238, #274 ) ;
#208 = CARTESIAN_POINT ( 'NONE',  ( 2.513475061830249900, 0.4615925202686790900, 0.2744533501002725000 ) ) ;
#209 = CARTESIAN_POINT ( 'NONE',  ( 0.0000000000000000000, 0.3149606299212598400, -7.714055772109464300E-017 ) ) ;
#210 = CARTESIAN_POINT ( 'NONE',  ( 2.611751604685429200, -0.006817412553798621700, -0.3616321329302043500 ) ) ;
#211 = PERSON_AND_ORGANIZATION ( #128, #62 ) ;
#212 = CARTESIAN_POINT ( 'NONE',  ( 2.244094488188976400, 4.097771990496394800E-016, 0.0000000000000000000 ) ) ;
#213 = DIRECTION ( 'NONE',  ( 0.0000000000000000000, 1.000000000000000000, 0.0000000000000000000 ) ) ;
#214 = CARTESIAN_POINT ( 'NONE',  ( 2.693141348031971900, -0.008326610752731535000, -0.4416881012887993200 ) ) ;
#215 =( BOUNDED_SURFACE ( )  B_SPLINE_SURFACE ( 3, 3, ( 
 ( #210, #196, #31, #23, #85, #17, #10 ),
 ( #184, #81, #264, #121, #208, #242, #192 ),
 ( #14, #197, #43, #83, #176, #51, #301 ),
 ( #129, #48, #202, #159, #33, #205, #217 ) ),
 .UNSPECIFIED., .F., .F., .F. ) 
 B_SPLINE_SURFACE_WITH_KNOTS ( ( 4, 4 ),
 ( 4, 3, 4 ),
 ( 0.0000000000000000000, 1.000000000000000000 ),
 ( 0.0000000000000000000, 0.5000000000000000000, 1.000000000000000000 ),
 .UNSPECIFIED. ) 
 GEOMETRIC_REPRESENTATION_ITEM ( )  RATIONAL_B_SPLINE_SURFACE ( (
 ( 1.000000000000000000, 0.8002741005225373300, 0.8002741005225373300, 1.000000000000000000, 0.8002741005225373300, 0.8002741005225373300, 1.000000000000000000),
 ( 0.9482053969659241000, 0.7588242211675203500, 0.7588242211675203500, 0.9482053969659241000, 0.7588242211675203500, 0.7588242211675203500, 0.9482053969659241000),
 ( 0.9482053969659241000, 0.7588242211675203500, 0.7588242211675203500, 0.9482053969659241000, 0.7588242211675203500, 0.7588242211675203500, 0.9482053969659241000),
 ( 1.000000000000000000, 0.8002741005225373300, 0.8002741005225373300, 1.000000000000000000, 0.8002741005225373300, 0.8002741005225373300, 1.000000000000000000) ) ) 
 REPRESENTATION_ITEM ( '' )  SURFACE ( )  );
#216 = DIRECTION ( 'NONE',  ( 0.7071067811865483500, 0.7071067811865468000, 0.0000000000000000000 ) ) ;
#217 = CARTESIAN_POINT ( 'NONE',  ( 2.244094488188976400, -0.009721045679995052700, 0.5156564100861652500 ) ) ;
#218 = CARTESIAN_POINT ( 'NONE',  ( 2.573108929277555300, 0.5637771239922797500, 0.3352101985957537900 ) ) ;
#219 = PERSON_AND_ORGANIZATION_ROLE ( 'creator' ) ;
#220 = CARTESIAN_POINT ( 'NONE',  ( 1.722250630081142700, -1.259842519685035600, 0.6299212598425131300 ) ) ;
#221 = CARTESIAN_POINT ( 'NONE',  ( 2.693141348031971900, -0.008326610752733278400, 0.4416881012887993200 ) ) ;
#222 = APPROVAL_DATE_TIME ( #201, #206 ) ;
#223 = ORIENTED_EDGE ( 'NONE', *, *, #71, .F. ) ;
#224 = ORIENTED_EDGE ( 'NONE', *, *, #253, .T. ) ;
#225 = VERTEX_POINT ( 'NONE', #146 ) ;
#226 =( NAMED_UNIT ( * ) SI_UNIT ( $, .STERADIAN. ) SOLID_ANGLE_UNIT ( ) );
#227 = LENGTH_MEASURE_WITH_UNIT ( LENGTH_MEASURE( 0.02539999999999999900 ), #204 );
#228 = UNCERTAINTY_MEASURE_WITH_UNIT (LENGTH_MEASURE( 1.000000000000000100E-005 ), #262, 'distance_accuracy_value', 'NONE');
#229 = APPROVAL_PERSON_ORGANIZATION ( #148, #134, #67 ) ;
#230 = CARTESIAN_POINT ( 'NONE',  ( 3.830908918410755900, -1.586814430221780600, 0.0000000000000000000 ) ) ;
#231 = AXIS2_PLACEMENT_3D ( 'NONE', #29, #150, #112 ) ;
#232 = PRODUCT ( '581244010', '581244010', '', ( #307 ) ) ;
#233 = CARTESIAN_POINT ( 'NONE',  ( 2.244094488188976400, -3.083836652845140300E-015, 0.6299212598425196800 ) ) ;
#234 = DIRECTION ( 'NONE',  ( 1.000000000000000000, 0.0000000000000000000, 0.0000000000000000000 ) ) ;
#235 = DIMENSIONAL_EXPONENTS ( 1.000000000000000000, 0.0000000000000000000, 0.0000000000000000000, 0.0000000000000000000, 0.0000000000000000000, 0.0000000000000000000, 0.0000000000000000000 ) ;
#236 = EDGE_CURVE ( 'NONE', #24, #116, #295, .T. ) ;
#237 = CARTESIAN_POINT ( 'NONE',  ( 1.816834829363188200, -1.031496062992123900, 0.5157480314960595200 ) ) ;
#238 = DIRECTION ( 'NONE',  ( 0.7071067811865470200, -0.7071067811865480200, 4.930380657631324900E-032 ) ) ;
#239 = PLANE ( 'NONE',  #118 ) ;
#240 = CARTESIAN_POINT ( 'NONE',  ( 2.573108929277555300, 0.3245243301675484500, -0.5699951595486710800 ) ) ;
#241 = COORDINATED_UNIVERSAL_TIME_OFFSET ( 5, 0, .BEHIND. ) ;
#242 = CARTESIAN_POINT ( 'NONE',  ( 2.513475061830249900, 0.2657042953246792100, 0.4666835368804745900 ) ) ;
#243 = AXIS2_PLACEMENT_3D ( 'NONE', #74, #135, #20 ) ;
#244 = SECURITY_CLASSIFICATION_LEVEL ( 'unclassified' ) ;
#245 = CC_DESIGN_DATE_AND_TIME_ASSIGNMENT ( #11, #199, ( #276 ) ) ;
#246 =( BOUNDED_CURVE ( )  B_SPLINE_CURVE ( 3, ( #21, #220, #132, #194 ),
 .UNSPECIFIED., .F., .T. ) 
 B_SPLINE_CURVE_WITH_KNOTS ( ( 4, 4 ),
 ( 1.570796326794901700, 4.712388980384689700 ),
 .UNSPECIFIED. ) 
 CURVE ( )  GEOMETRIC_REPRESENTATION_ITEM ( )  RATIONAL_B_SPLINE_CURVE ( ( 1.000000000000000000, 0.3333333333333351500, 0.3333333333333351500, 1.000000000000000000 ) ) 
 REPRESENTATION_ITEM ( '' )  );
#247 = EDGE_CURVE ( 'NONE', #24, #116, #65, .T. ) ;
#248 = EDGE_LOOP ( 'NONE', ( #163 ) ) ;
#249 = CC_DESIGN_PERSON_AND_ORGANIZATION_ASSIGNMENT ( #36, #175, ( #232 ) ) ;
#250 = DIRECTION ( 'NONE',  ( -0.7071067811865470200, 0.7071067811865480200, -3.677458913681069900E-032 ) ) ;
#251 = DIRECTION ( 'NONE',  ( -1.000000000000000000, -0.0000000000000000000, -0.0000000000000000000 ) ) ;
#252 = EDGE_CURVE ( 'NONE', #298, #298, #45, .T. ) ;
#253 = EDGE_CURVE ( 'NONE', #82, #82, #302, .T. ) ;
#254 = CARTESIAN_POINT ( 'NONE',  ( 2.573108929277555300, 0.5637771239922803000, 1.114081759916207200E-015 ) ) ;
#255 = ORIENTED_EDGE ( 'NONE', *, *, #253, .F. ) ;
#256 = DIRECTION ( 'NONE',  ( 1.000000000000000000, 0.0000000000000000000, 0.0000000000000000000 ) ) ;
#257 = CARTESIAN_POINT ( 'NONE',  ( 3.037501703299866100, -0.7934072151108897400, 0.0000000000000000000 ) ) ;
#258 = APPROVAL_ROLE ( '' ) ;
#259 = CARTESIAN_POINT ( 'NONE',  ( 2.693141348031971900, 0.2542919841663941500, 0.4466389315464872100 ) ) ;
#260 = APPROVAL_ROLE ( '' ) ;
#261 = CIRCLE ( 'NONE', #231, 0.6299212598425200100 ) ;
#262 =( CONVERSION_BASED_UNIT ( 'INCH', #227 ) LENGTH_UNIT ( ) NAMED_UNIT ( #235 ) );
#263 = CC_DESIGN_PERSON_AND_ORGANIZATION_ASSIGNMENT ( #165, #187, ( #171 ) ) ;
#264 = CARTESIAN_POINT ( 'NONE',  ( 2.513475061830249900, 0.4615925202686797000, -0.2744533501002715000 ) ) ;
#265 = CARTESIAN_POINT ( 'NONE',  ( 0.0000000000000000000, 0.0000000000000000000, 0.0000000000000000000 ) ) ;
#266 =( BOUNDED_CURVE ( )  B_SPLINE_CURVE ( 3, ( #106, #237, #170, #278 ),
 .UNSPECIFIED., .F., .T. ) 
 B_SPLINE_CURVE_WITH_KNOTS ( ( 4, 4 ),
 ( 1.570796326794899900, 4.712388980384689700 ),
 .UNSPECIFIED. ) 
 CURVE ( )  GEOMETRIC_REPRESENTATION_ITEM ( )  RATIONAL_B_SPLINE_CURVE ( ( 1.000000000000000000, 0.3333333333333345900, 0.3333333333333345900, 1.000000000000000000 ) ) 
 REPRESENTATION_ITEM ( '' )  );
#267 = DIRECTION ( 'NONE',  ( 0.0000000000000000000, 0.0000000000000000000, -1.000000000000000000 ) ) ;
#268 = SECURITY_CLASSIFICATION ( '', '', #244 ) ;
#269 = CARTESIAN_POINT ( 'NONE',  ( 2.573108929277555300, 0.3245243301675462300, 0.5699951595486724100 ) ) ;
#270 = CARTESIAN_POINT ( 'NONE',  ( 2.573108929277555300, 0.5637771239922809700, -0.3352101985957515200 ) ) ;
#271 = CARTESIAN_POINT ( 'NONE',  ( 1.122047244094489300, 0.0000000000000000000, 0.0000000000000000000 ) ) ;
#272 = APPROVAL_DATE_TIME ( #58, #69 ) ;
#273 = APPROVAL_DATE_TIME ( #53, #134 ) ;
#274 = DIRECTION ( 'NONE',  ( 0.7071067811865479100, 0.7071067811865469100, 0.0000000000000000000 ) ) ;
#275 = DIRECTION ( 'NONE',  ( 0.7071067811865483500, 0.7071067811865468000, 0.0000000000000000000 ) ) ;
#276 = PRODUCT_DEFINITION ( 'UNKNOWN', '', #171, #39 ) ;
#277 = LOCAL_TIME ( 14, 4, 34.00000000000000000, #195 ) ;
#278 = CARTESIAN_POINT ( 'NONE',  ( 2.244094488188978600, -2.272101418079784000E-016, -0.5157480314960630800 ) ) ;
#279 = DIRECTION ( 'NONE',  ( 1.000000000000000000, 0.0000000000000000000, 0.0000000000000000000 ) ) ;
#280 = CARTESIAN_POINT ( 'NONE',  ( 2.244094488188976400, 0.6299212598425196800, 1.244271390864269800E-015 ) ) ;
#281 = ORIENTED_EDGE ( 'NONE', *, *, #288, .T. ) ;
#282 = FACE_OUTER_BOUND ( 'NONE', #294, .T. ) ;
#283 = CARTESIAN_POINT ( 'NONE',  ( 2.693141348031971900, 0.4417665800699869200, 8.718436761030090000E-016 ) ) ;
#284 = LOCAL_TIME ( 14, 4, 34.00000000000000000, #241 ) ;
#285 = VERTEX_POINT ( 'NONE', #124 ) ;
#286 = PRODUCT_DEFINITION_SHAPE ( 'NONE', 'NONE',  #276 ) ;
#287 = PERSON_AND_ORGANIZATION ( #128, #62 ) ;
#288 = EDGE_CURVE ( 'NONE', #225, #96, #111, .T. ) ;
#289 = CARTESIAN_POINT ( 'NONE',  ( 2.415250424049376800, -0.01187303289159868400, 0.6298093558304309600 ) ) ;
#290 = ORIENTED_EDGE ( 'NONE', *, *, #40, .T. ) ;
#291 = PLANE ( 'NONE',  #207 ) ;
#292 = PERSON_AND_ORGANIZATION_ROLE ( 'design_supplier' ) ;
#293 = CARTESIAN_POINT ( 'NONE',  ( 2.693141348031971900, 0.4417665800699864300, 0.2626652567766388800 ) ) ;
#294 = EDGE_LOOP ( 'NONE', ( #200, #28 ) ) ;
#295 = CIRCLE ( 'NONE', #49, 0.6299212598425196800 ) ;
#296 = EDGE_LOOP ( 'NONE', ( #16, #103 ) ) ;
#297 = CARTESIAN_POINT ( 'NONE',  ( 2.244094488188976400, 0.0000000000000000000, 0.0000000000000000000 ) ) ;
#298 = VERTEX_POINT ( 'NONE', #126 ) ;
#299 = DIRECTION ( 'NONE',  ( 0.0000000000000000000, 0.0000000000000000000, -1.000000000000000000 ) ) ;
#300 = ORIENTED_EDGE ( 'NONE', *, *, #138, .F. ) ;
#301 = CARTESIAN_POINT ( 'NONE',  ( 2.384228410674679800, -0.009721045679995050900, 0.5156564100861652500 ) ) ;
#302 = CIRCLE ( 'NONE', #93, 0.6299212598425196800 ) ;
#303 = APPROVAL_STATUS ( 'not_yet_approved' ) ;
#304 = ADVANCED_FACE ( 'NONE', ( #92, #78 ), #35, .F. ) ;
#305 = FACE_OUTER_BOUND ( 'NONE', #248, .T. ) ;
#306 = CARTESIAN_POINT ( 'NONE',  ( 2.244094488188978600, -5.524347760088523300E-016, -0.6299212598425196800 ) ) ;
#307 = MECHANICAL_CONTEXT ( 'NONE', #44, 'mechanical' ) ;
#308 = APPROVAL_STATUS ( 'not_yet_approved' ) ;
#309 = ORIENTED_EDGE ( 'NONE', *, *, #236, .F. ) ;
#310 = EDGE_LOOP ( 'NONE', ( #12, #153 ) ) ;
#311 = FACE_OUTER_BOUND ( 'NONE', #54, .T. ) ;
#312 = FACE_OUTER_BOUND ( 'NONE', #173, .T. ) ;
ENDSEC;
END-ISO-10303-21;
