ISO-10303-21;
HEADER;
FILE_DESCRIPTION (( 'STEP AP203' ),
    '1' );
FILE_NAME ('581244020.STEP',
    '2015-12-04T19:18:18',
    ( '' ),
    ( '' ),
    'SwSTEP 2.0',
    'SolidWorks 2015',
    '' );
FILE_SCHEMA (( 'CONFIG_CONTROL_DESIGN' ));
ENDSEC;

DATA;
#1 = AXIS2_PLACEMENT_3D ( 'NONE', #124, #98, #270 ) ;
#2 = CARTESIAN_POINT ( 'NONE',  ( 3.149606299212599000, 0.7138659205459472200, 1.253835479971135800 ) ) ;
#3 = SHAPE_DEFINITION_REPRESENTATION ( #201, #139 ) ;
#4 = FACE_OUTER_BOUND ( 'NONE', #91, .T. ) ;
#5 = ORIENTED_EDGE ( 'NONE', *, *, #128, .F. ) ;
#6 = CARTESIAN_POINT ( 'NONE',  ( 3.424525521188367200, -0.01907105908212717800, 1.011631277802639900 ) ) ;
#7 = SECURITY_CLASSIFICATION_LEVEL ( 'unclassified' ) ;
#8 = EDGE_CURVE ( 'NONE', #75, #251, #64, .T. ) ;
#9 = EDGE_LOOP ( 'NONE', ( #209, #230 ) ) ;
#10 = CC_DESIGN_PERSON_AND_ORGANIZATION_ASSIGNMENT ( #52, #223, ( #148 ) ) ;
#11 = CARTESIAN_POINT ( 'NONE',  ( 1.574803149606305100, 0.0000000000000000000, 0.0000000000000000000 ) ) ;
#12 = FACE_OUTER_BOUND ( 'NONE', #111, .T. ) ;
#13 = CARTESIAN_POINT ( 'NONE',  ( 0.0000000000000000000, 0.0000000000000000000, 0.0000000000000000000 ) ) ;
#14 = PERSON_AND_ORGANIZATION ( #145, #305 ) ;
#15 = VERTEX_POINT ( 'NONE', #19 ) ;
#16 = FACE_OUTER_BOUND ( 'NONE', #66, .T. ) ;
#17 = DIRECTION ( 'NONE',  ( 0.0000000000000000000, 0.0000000000000000000, 1.000000000000000000 ) ) ;
#18 = CYLINDRICAL_SURFACE ( 'NONE', #164, 1.240157480314972200 ) ;
#19 = CARTESIAN_POINT ( 'NONE',  ( 6.092172707536161800, -1.511649536158650800, 6.504009358668628300E-015 ) ) ;
#20 =( NAMED_UNIT ( * ) SI_UNIT ( $, .STERADIAN. ) SOLID_ANGLE_UNIT ( ) );
#21 = CARTESIAN_POINT ( 'NONE',  ( 2.122226203562799500, -2.480314960629933700, -1.240157480314955300 ) ) ;
#22 = APPROVAL_ROLE ( '' ) ;
#23 = ORIENTED_EDGE ( 'NONE', *, *, #178, .F. ) ;
#24 = FACE_OUTER_BOUND ( 'NONE', #89, .T. ) ;
#25 = EDGE_LOOP ( 'NONE', ( #266 ) ) ;
#26 = APPROVAL_STATUS ( 'not_yet_approved' ) ;
#27 = CARTESIAN_POINT ( 'NONE',  ( 3.870887817835409400, 0.4084564995672809200, 0.7174137837965584000 ) ) ;
#28 = EDGE_LOOP ( 'NONE', ( #192, #204 ) ) ;
#29 = ORIENTED_EDGE ( 'NONE', *, *, #8, .F. ) ;
#30 = APPROVAL_PERSON_ORGANIZATION ( #72, #95, #22 ) ;
#31 = CARTESIAN_POINT ( 'NONE',  ( 3.149606299212605700, 4.370956789862821100E-015, 0.0000000000000000000 ) ) ;
#32 = AXIS2_PLACEMENT_3D ( 'NONE', #11, #53, #94 ) ;
#33 = CARTESIAN_POINT ( 'NONE',  ( 3.149606299212603000, 1.011811023622056800, -3.172446925478139500E-015 ) ) ;
#34 = CARTESIAN_POINT ( 'NONE',  ( 3.797353480105738500, 1.109936212859815400, -6.420784930444516100E-015 ) ) ;
#35 = AXIS2_PLACEMENT_3D ( 'NONE', #197, #243, #228 ) ;
#36 = CALENDAR_DATE ( 2015, 4, 12 ) ;
#37 = CARTESIAN_POINT ( 'NONE',  ( 3.678085745211130400, -0.01706852510978920300, -0.9054061335900804900 ) ) ;
#38 = CARTESIAN_POINT ( 'NONE',  ( 3.486569547937764700, 1.240157480314972900, -8.068430751623274500E-015 ) ) ;
#39 = EDGE_LOOP ( 'NONE', ( #5 ) ) ;
#40 = MECHANICAL_CONTEXT ( 'NONE', #261, 'mechanical' ) ;
#41 = ORIENTED_EDGE ( 'NONE', *, *, #213, .T. ) ;
#42 = DIRECTION ( 'NONE',  ( 1.000000000000000000, 1.115953679732483300E-016, 2.315244922591533100E-015 ) ) ;
#43 = DIRECTION ( 'NONE',  ( 1.000000000000000000, 0.0000000000000000000, 0.0000000000000000000 ) ) ;
#44 = LOCAL_TIME ( 14, 18, 18.00000000000000000, #46 ) ;
#45 = CARTESIAN_POINT ( 'NONE',  ( 4.263160285333158100, -1.113553986120547700, 2.404026234424551500E-014 ) ) ;
#46 = COORDINATED_UNIVERSAL_TIME_OFFSET ( 5, 0, .BEHIND. ) ;
#47 = CALENDAR_DATE ( 2015, 4, 12 ) ;
#48 = CALENDAR_DATE ( 2015, 4, 12 ) ;
#49 = PERSON_AND_ORGANIZATION ( #145, #305 ) ;
#50 = DATE_AND_TIME ( #193, #301 ) ;
#51 = APPROVAL_PERSON_ORGANIZATION ( #102, #235, #200 ) ;
#52 = PERSON_AND_ORGANIZATION ( #145, #305 ) ;
#53 = DIRECTION ( 'NONE',  ( 1.000000000000000000, 1.115953679732483300E-016, 2.315244922591533100E-015 ) ) ;
#54 = EDGE_LOOP ( 'NONE', ( #86, #29 ) ) ;
#55 = PLANE ( 'NONE',  #286 ) ;
#56 = COORDINATED_UNIVERSAL_TIME_OFFSET ( 5, 0, .BEHIND. ) ;
#57 = VERTEX_POINT ( 'NONE', #143 ) ;
#58 = DIRECTION ( 'NONE',  ( -2.423105807713612500E-015, -6.661338147750877100E-016, -1.000000000000000000 ) ) ;
#59 = ORIENTED_EDGE ( 'NONE', *, *, #135, .F. ) ;
#60 = CARTESIAN_POINT ( 'NONE',  ( 4.033667304528495200, -0.01639301491943318700, 0.8695734494123401600 ) ) ;
#61 = ORIENTED_EDGE ( 'NONE', *, *, #259, .F. ) ;
#62 = SECURITY_CLASSIFICATION ( '', '', #7 ) ;
#63 = DIRECTION ( 'NONE',  ( 0.7071067811865470200, -0.7071067811865480200, 1.166097647267058000E-015 ) ) ;
#64 = CIRCLE ( 'NONE', #35, 1.011811023622056800 ) ;
#65 = CARTESIAN_POINT ( 'NONE',  ( 3.149606299212599500, -0.02337503350531997700, 1.239937169291172700 ) ) ;
#66 = EDGE_LOOP ( 'NONE', ( #175, #23 ) ) ;
#67 = CC_DESIGN_DATE_AND_TIME_ASSIGNMENT ( #114, #79, ( #62 ) ) ;
#68 = VERTEX_POINT ( 'NONE', #265 ) ;
#69 = DIRECTION ( 'NONE',  ( 0.7071067811865479100, 0.7071067811865469100, 2.108153122477334800E-015 ) ) ;
#70 = APPROVAL_DATE_TIME ( #50, #95 ) ;
#71 = DIRECTION ( 'NONE',  ( 0.7071067811865480200, 0.7071067811865469100, 2.108153122477335200E-015 ) ) ;
#72 = PERSON_AND_ORGANIZATION ( #145, #305 ) ;
#73 = ORIENTED_EDGE ( 'NONE', *, *, #128, .T. ) ;
#74 = ADVANCED_FACE ( 'NONE', ( #110, #93 ), #84, .F. ) ;
#75 = VERTEX_POINT ( 'NONE', #106 ) ;
#76 = CARTESIAN_POINT ( 'NONE',  ( 3.870887817835409400, 0.7095875692374307200, 0.4219060686974822600 ) ) ;
#77 = APPROVAL_DATE_TIME ( #123, #180 ) ;
#78 = CARTESIAN_POINT ( 'NONE',  ( 3.870887817835412000, 0.7095875692374279400, -0.4219060686974833200 ) ) ;
#79 = DATE_TIME_ROLE ( 'classification_date' ) ;
#80 = CARTESIAN_POINT ( 'NONE',  ( 3.424525521188370700, 1.011811023622055400, -0.6016018737474838600 ) ) ;
#81 = CARTESIAN_POINT ( 'NONE',  ( 3.149606299212600800, 1.240157480314977300, 0.7373719464219982100 ) ) ;
#82 = DESIGN_CONTEXT ( 'detailed design', #199, 'design' ) ;
#83 = CC_DESIGN_APPROVAL ( #95, ( #142 ) ) ;
#84 = CYLINDRICAL_SURFACE ( 'NONE', #32, 1.011811023622056800 ) ;
#85 = ORIENTED_EDGE ( 'NONE', *, *, #274, .T. ) ;
#86 = ORIENTED_EDGE ( 'NONE', *, *, #178, .T. ) ;
#87 = FACE_OUTER_BOUND ( 'NONE', #190, .T. ) ;
#88 = CARTESIAN_POINT ( 'NONE',  ( 2.311394602126896700, -2.023622047244089600, -1.011811023622043000 ) ) ;
#89 = EDGE_LOOP ( 'NONE', ( #61 ) ) ;
#90 =( BOUNDED_SURFACE ( )  B_SPLINE_SURFACE ( 3, 3, ( 
 ( #260, #137, #78, #154, #76, #27, #127 ),
 ( #37, #152, #160, #289, #210, #162, #233 ),
 ( #293, #278, #80, #288, #92, #249, #6 ),
 ( #299, #220, #268, #33, #125, #221, #282 ) ),
 .UNSPECIFIED., .F., .F., .T. ) 
 B_SPLINE_SURFACE_WITH_KNOTS ( ( 4, 4 ),
 ( 4, 3, 4 ),
 ( 0.0000000000000000000, 1.000000000000000000 ),
 ( 0.0000000000000000000, 0.5000000000000000000, 1.000000000000000000 ),
 .UNSPECIFIED. ) 
 GEOMETRIC_REPRESENTATION_ITEM ( )  RATIONAL_B_SPLINE_SURFACE ( (
 ( 1.000000000000000000, 0.8002741005225365600, 0.8002741005225365600, 1.000000000000000000, 0.8002741005225365600, 0.8002741005225365600, 1.000000000000000000),
 ( 0.9482053969659249800, 0.7588242211675203500, 0.7588242211675203500, 0.9482053969659249800, 0.7588242211675203500, 0.7588242211675203500, 0.9482053969659249800),
 ( 0.9482053969659249800, 0.7588242211675203500, 0.7588242211675203500, 0.9482053969659249800, 0.7588242211675203500, 0.7588242211675203500, 0.9482053969659249800),
 ( 1.000000000000000000, 0.8002741005225365600, 0.8002741005225365600, 1.000000000000000000, 0.8002741005225365600, 0.8002741005225365600, 1.000000000000000000) ) ) 
 REPRESENTATION_ITEM ( '' )  SURFACE ( )  );
#91 = EDGE_LOOP ( 'NONE', ( #59 ) ) ;
#92 = CARTESIAN_POINT ( 'NONE',  ( 3.424525521188367600, 1.011811023622059000, 0.6016018737474787500 ) ) ;
#93 = FACE_OUTER_BOUND ( 'NONE', #54, .T. ) ;
#94 = DIRECTION ( 'NONE',  ( -2.429962845726244300E-015, -6.661338147750877100E-016, -1.000000000000000000 ) ) ;
#95 = APPROVAL ( #26, 'UNSPECIFIED' ) ;
#96 = CARTESIAN_POINT ( 'NONE',  ( 3.149606299212605700, 8.741913579725642300E-015, 1.240157480314981500 ) ) ;
#97 = FACE_OUTER_BOUND ( 'NONE', #224, .T. ) ;
#98 = DIRECTION ( 'NONE',  ( -0.7071067811865470200, 0.7071067811865480200, -1.166097647267057800E-015 ) ) ;
#99 = AXIS2_PLACEMENT_3D ( 'NONE', #250, #63, #69 ) ;
#100 = EDGE_LOOP ( 'NONE', ( #41, #122 ) ) ;
#101 = CARTESIAN_POINT ( 'NONE',  ( 5.376714271453692200, -2.227107972241090900, 4.370956789862821100E-015 ) ) ;
#102 = PERSON_AND_ORGANIZATION ( #145, #305 ) ;
#103 =( BOUNDED_SURFACE ( )  B_SPLINE_SURFACE ( 3, 3, ( 
 ( #155, #184, #165, #182, #237, #240, #60 ),
 ( #185, #151, #291, #34, #179, #253, #269 ),
 ( #181, #239, #120, #38, #198, #303, #117 ),
 ( #115, #267, #306, #285, #81, #2, #65 ) ),
 .UNSPECIFIED., .F., .F., .F. ) 
 B_SPLINE_SURFACE_WITH_KNOTS ( ( 4, 4 ),
 ( 4, 3, 4 ),
 ( 0.0000000000000000000, 1.000000000000000000 ),
 ( 0.0000000000000000000, 0.5000000000000000000, 1.000000000000000000 ),
 .UNSPECIFIED. ) 
 GEOMETRIC_REPRESENTATION_ITEM ( )  RATIONAL_B_SPLINE_SURFACE ( (
 ( 1.000000000000000000, 0.8002741005225377800, 0.8002741005225377800, 1.000000000000000000, 0.8002741005225377800, 0.8002741005225377800, 1.000000000000000000),
 ( 0.9482053969659247600, 0.7588242211675213500, 0.7588242211675213500, 0.9482053969659247600, 0.7588242211675213500, 0.7588242211675213500, 0.9482053969659247600),
 ( 0.9482053969659247600, 0.7588242211675213500, 0.7588242211675213500, 0.9482053969659247600, 0.7588242211675213500, 0.7588242211675213500, 0.9482053969659247600),
 ( 1.000000000000000000, 0.8002741005225377800, 0.8002741005225377800, 1.000000000000000000, 0.8002741005225377800, 0.8002741005225377800, 1.000000000000000000) ) ) 
 REPRESENTATION_ITEM ( '' )  SURFACE ( )  );
#104 = APPROVAL_STATUS ( 'not_yet_approved' ) ;
#105 = PLANE ( 'NONE',  #99 ) ;
#106 = CARTESIAN_POINT ( 'NONE',  ( 3.149606299212605700, -2.185478394931410600E-015, 1.011811023622067000 ) ) ;
#107 = CARTESIAN_POINT ( 'NONE',  ( 3.149606299212605700, -2.185478394931410600E-015, -1.011811023622045000 ) ) ;
#108 = CARTESIAN_POINT ( 'NONE',  ( 3.149606299212605700, 8.741913579725642300E-015, 1.240157480314981500 ) ) ;
#109 = COORDINATED_UNIVERSAL_TIME_OFFSET ( 5, 0, .BEHIND. ) ;
#110 = FACE_OUTER_BOUND ( 'NONE', #39, .T. ) ;
#111 = EDGE_LOOP ( 'NONE', ( #129 ) ) ;
#112 = FACE_BOUND ( 'NONE', #25, .T. ) ;
#113 = AXIS2_PLACEMENT_3D ( 'NONE', #205, #258, #238 ) ;
#114 = DATE_AND_TIME ( #48, #156 ) ;
#115 = CARTESIAN_POINT ( 'NONE',  ( 3.149606299212605700, -0.02337503350533766700, -1.239937169291172300 ) ) ;
#116 = ADVANCED_FACE ( 'NONE', ( #24, #134 ), #55, .T. ) ;
#117 = CARTESIAN_POINT ( 'NONE',  ( 3.486569547937762100, -0.02337503350531994900, 1.239937169291174500 ) ) ;
#118 = EDGE_LOOP ( 'NONE', ( #73 ) ) ;
#119 = AXIS2_PLACEMENT_3D ( 'NONE', #229, #17, #43 ) ;
#120 = CARTESIAN_POINT ( 'NONE',  ( 3.486569547937765600, 1.240157480314968000, -0.7373719464220155300 ) ) ;
#121 = PRODUCT ( '581244020', '581244020', '', ( #40 ) ) ;
#122 = ORIENTED_EDGE ( 'NONE', *, *, #232, .T. ) ;
#123 = DATE_AND_TIME ( #47, #159 ) ;
#124 = CARTESIAN_POINT ( 'NONE',  ( 5.376714271453709900, -2.227107972241102000, 4.370956789862821100E-015 ) ) ;
#125 = CARTESIAN_POINT ( 'NONE',  ( 3.149606299212601300, 1.011811023622058500, 0.6016018737474778700 ) ) ;
#126 = PERSON_AND_ORGANIZATION_ROLE ( 'design_owner' ) ;
#127 = CARTESIAN_POINT ( 'NONE',  ( 3.870887817835409800, -0.01337461852157562800, 0.7094615126951484600 ) ) ;
#128 = EDGE_CURVE ( 'NONE', #57, #57, #211, .T. ) ;
#129 = ORIENTED_EDGE ( 'NONE', *, *, #307, .F. ) ;
#130 = EDGE_CURVE ( 'NONE', #251, #75, #188, .T. ) ;
#131 = ADVANCED_FACE ( 'NONE', ( #219, #97 ), #18, .T. ) ;
#132 = DIRECTION ( 'NONE',  ( 0.7071067811865470200, -0.7071067811865480200, 1.166097647267057800E-015 ) ) ;
#133 = AXIS2_PLACEMENT_3D ( 'NONE', #246, #42, #304 ) ;
#134 = FACE_BOUND ( 'NONE', #118, .T. ) ;
#135 = EDGE_CURVE ( 'NONE', #287, #287, #161, .T. ) ;
#136 = FACE_OUTER_BOUND ( 'NONE', #100, .T. ) ;
#137 = CARTESIAN_POINT ( 'NONE',  ( 3.870887817835412000, 0.4084564995672763100, -0.7174137837965576200 ) ) ;
#138 = APPROVAL_PERSON_ORGANIZATION ( #276, #180, #262 ) ;
#139 = ADVANCED_BREP_SHAPE_REPRESENTATION ( '581244020', ( #169, #119 ), #244 ) ;
#140 = COORDINATED_UNIVERSAL_TIME_OFFSET ( 5, 0, .BEHIND. ) ;
#141 = APPROVAL_STATUS ( 'not_yet_approved' ) ;
#142 = PRODUCT_DEFINITION ( 'UNKNOWN', '', #148, #82 ) ;
#143 = CARTESIAN_POINT ( 'NONE',  ( -2.342590335063087600E-015, -6.740015369968470900E-016, -1.011811023622056800 ) ) ;
#144 = CC_DESIGN_PERSON_AND_ORGANIZATION_ASSIGNMENT ( #14, #263, ( #142 ) ) ;
#145 = PERSON ( 'UNSPECIFIED', 'UNSPECIFIED', 'UNSPECIFIED', ('UNSPECIFIED'), ('UNSPECIFIED'), ('UNSPECIFIED') ) ;
#146 = APPROVAL_DATE_TIME ( #311, #235 ) ;
#147 = ADVANCED_FACE ( 'NONE', ( #194 ), #90, .F. ) ;
#148 = PRODUCT_DEFINITION_FORMATION_WITH_SPECIFIED_SOURCE ( 'ANY', '', #121, .NOT_KNOWN. ) ;
#149 = PERSON_AND_ORGANIZATION_ROLE ( 'classification_officer' ) ;
#150 = CC_DESIGN_APPROVAL ( #180, ( #148 ) ) ;
#151 = CARTESIAN_POINT ( 'NONE',  ( 3.797353480105741600, 0.6389072750173604400, -1.122177970361462100 ) ) ;
#152 = CARTESIAN_POINT ( 'NONE',  ( 3.678085745211130900, 0.5212672053316254100, -0.9155547250250667400 ) ) ;
#153 = DIRECTION ( 'NONE',  ( -2.315244922591511800E-015, -6.661338147750877100E-016, -1.000000000000000000 ) ) ;
#154 = CARTESIAN_POINT ( 'NONE',  ( 3.870887817835411100, 0.7095875692374293800, -5.537145128015373000E-016 ) ) ;
#155 = CARTESIAN_POINT ( 'NONE',  ( 4.033667304528499600, -0.01639301491944559700, -0.8695734494123357200 ) ) ;
#156 = LOCAL_TIME ( 14, 18, 18.00000000000000000, #109 ) ;
#157 =( LENGTH_UNIT ( ) NAMED_UNIT ( * ) SI_UNIT ( $, .METRE. ) );
#158 = ADVANCED_FACE ( 'NONE', ( #4, #112 ), #105, .T. ) ;
#159 = LOCAL_TIME ( 14, 18, 18.00000000000000000, #215 ) ;
#160 = CARTESIAN_POINT ( 'NONE',  ( 3.678085745211129500, 0.9055670054126100400, -0.5384313814944367000 ) ) ;
#161 = CIRCLE ( 'NONE', #236, 1.240157480314960900 ) ;
#162 = CARTESIAN_POINT ( 'NONE',  ( 3.678085745211126000, 0.5212672053316312900, 0.9155547250250659600 ) ) ;
#163 = APPLICATION_PROTOCOL_DEFINITION ( 'international standard', 'config_control_design', 1994, #199 ) ;
#164 = AXIS2_PLACEMENT_3D ( 'NONE', #176, #294, #58 ) ;
#165 = CARTESIAN_POINT ( 'NONE',  ( 4.033667304528497900, 0.8697279545127973900, -0.5171222242790173300 ) ) ;
#166 = DIRECTION ( 'NONE',  ( 1.000000000000000000, 1.115953679732483300E-016, 2.315244922591533100E-015 ) ) ;
#167 =( BOUNDED_CURVE ( )  B_SPLINE_CURVE ( 3, ( #96, #203, #21, #290 ),
 .UNSPECIFIED., .F., .F. ) 
 B_SPLINE_CURVE_WITH_KNOTS ( ( 4, 4 ),
 ( 1.570796326794889200, 4.712388980384686100 ),
 .UNSPECIFIED. ) 
 CURVE ( )  GEOMETRIC_REPRESENTATION_ITEM ( )  RATIONAL_B_SPLINE_CURVE ( ( 1.000000000000000000, 0.3333333333333321500, 0.3333333333333321500, 1.000000000000000000 ) ) 
 REPRESENTATION_ITEM ( '' )  );
#168 = CARTESIAN_POINT ( 'NONE',  ( 0.0000000000000000000, 0.0000000000000000000, 0.0000000000000000000 ) ) ;
#169 = MANIFOLD_SOLID_BREP ( '1', #295 ) ;
#170 = DIRECTION ( 'NONE',  ( 2.315244922591511800E-015, 6.661338147750877100E-016, 1.000000000000000000 ) ) ;
#171 = ORIENTED_EDGE ( 'NONE', *, *, #232, .F. ) ;
#172 = UNCERTAINTY_MEASURE_WITH_UNIT (LENGTH_MEASURE( 1.000000000000000100E-005 ), #231, 'distance_accuracy_value', 'NONE');
#173 = CC_DESIGN_PERSON_AND_ORGANIZATION_ASSIGNMENT ( #308, #279, ( #148 ) ) ;
#174 = CALENDAR_DATE ( 2015, 4, 12 ) ;
#175 = ORIENTED_EDGE ( 'NONE', *, *, #130, .F. ) ;
#176 = CARTESIAN_POINT ( 'NONE',  ( 1.574803149606305100, 0.0000000000000000000, 0.0000000000000000000 ) ) ;
#177 = CIRCLE ( 'NONE', #241, 1.240157480314972200 ) ;
#178 = EDGE_CURVE ( 'NONE', #75, #251, #214, .T. ) ;
#179 = CARTESIAN_POINT ( 'NONE',  ( 3.797353480105738000, 1.109936212859820200, 0.6599450784853878600 ) ) ;
#180 = APPROVAL ( #104, 'UNSPECIFIED' ) ;
#181 = CARTESIAN_POINT ( 'NONE',  ( 3.486569547937767400, -0.02337503350533765700, -1.239937169291172300 ) ) ;
#182 = CARTESIAN_POINT ( 'NONE',  ( 4.033667304528497000, 0.8697279545128011600, -4.160607566936349000E-015 ) ) ;
#183 = DIRECTION ( 'NONE',  ( -0.7071067811865470200, 0.7071067811865480200, -1.166097647267057800E-015 ) ) ;
#184 = CARTESIAN_POINT ( 'NONE',  ( 4.033667304528499600, 0.5006373438275936200, -0.8793203964821602000 ) ) ;
#185 = CARTESIAN_POINT ( 'NONE',  ( 3.797353480105742000, -0.02092056579604414600, -1.109739035334145200 ) ) ;
#186 = LOCAL_TIME ( 14, 18, 18.00000000000000000, #140 ) ;
#187 = ORIENTED_EDGE ( 'NONE', *, *, #259, .T. ) ;
#188 = CIRCLE ( 'NONE', #257, 1.011811023622047200 ) ;
#189 = ADVANCED_FACE ( 'NONE', ( #12, #16 ), #312, .F. ) ;
#190 = EDGE_LOOP ( 'NONE', ( #227 ) ) ;
#191 = VERTEX_POINT ( 'NONE', #108 ) ;
#192 = ORIENTED_EDGE ( 'NONE', *, *, #130, .T. ) ;
#193 = CALENDAR_DATE ( 2015, 4, 12 ) ;
#194 = FACE_OUTER_BOUND ( 'NONE', #28, .T. ) ;
#195 = VERTEX_POINT ( 'NONE', #254 ) ;
#196 =( NAMED_UNIT ( * ) PLANE_ANGLE_UNIT ( ) SI_UNIT ( $, .RADIAN. ) );
#197 = CARTESIAN_POINT ( 'NONE',  ( 3.149606299212605700, 0.0000000000000000000, 0.0000000000000000000 ) ) ;
#198 = CARTESIAN_POINT ( 'NONE',  ( 3.486569547937762100, 1.240157480314978200, 0.7373719464219994400 ) ) ;
#199 = APPLICATION_CONTEXT ( 'configuration controlled 3d designs of mechanical parts and assemblies' ) ;
#200 = APPROVAL_ROLE ( '' ) ;
#201 = PRODUCT_DEFINITION_SHAPE ( 'NONE', 'NONE',  #142 ) ;
#202 = CC_DESIGN_PERSON_AND_ORGANIZATION_ASSIGNMENT ( #255, #126, ( #121 ) ) ;
#203 = CARTESIAN_POINT ( 'NONE',  ( 2.122226203562799500, -2.480314960629921700, 1.240157480314974600 ) ) ;
#204 = ORIENTED_EDGE ( 'NONE', *, *, #8, .T. ) ;
#205 = CARTESIAN_POINT ( 'NONE',  ( 4.263160285333158100, -1.113553986120547700, 2.404026234424551500E-014 ) ) ;
#206 = DIMENSIONAL_EXPONENTS ( 1.000000000000000000, 0.0000000000000000000, 0.0000000000000000000, 0.0000000000000000000, 0.0000000000000000000, 0.0000000000000000000, 0.0000000000000000000 ) ;
#207 = AXIS2_PLACEMENT_3D ( 'NONE', #45, #292, #273 ) ;
#208 = CIRCLE ( 'NONE', #226, 1.240157480314960900 ) ;
#209 = ORIENTED_EDGE ( 'NONE', *, *, #274, .F. ) ;
#210 = CARTESIAN_POINT ( 'NONE',  ( 3.678085745211127700, 0.9055670054126132600, 0.5384313814944332600 ) ) ;
#211 = CIRCLE ( 'NONE', #280, 1.011811023622056800 ) ;
#212 = CC_DESIGN_SECURITY_CLASSIFICATION ( #62, ( #148 ) ) ;
#213 = EDGE_CURVE ( 'NONE', #191, #68, #167, .T. ) ;
#214 =( BOUNDED_CURVE ( )  B_SPLINE_CURVE ( 3, ( #225, #222, #88, #107 ),
 .UNSPECIFIED., .F., .F. ) 
 B_SPLINE_CURVE_WITH_KNOTS ( ( 4, 4 ),
 ( 1.570796326794897000, 4.712388980384686100 ),
 .UNSPECIFIED. ) 
 CURVE ( )  GEOMETRIC_REPRESENTATION_ITEM ( )  RATIONAL_B_SPLINE_CURVE ( ( 1.000000000000000000, 0.3333333333333347000, 0.3333333333333347000, 1.000000000000000000 ) ) 
 REPRESENTATION_ITEM ( '' )  );
#215 = COORDINATED_UNIVERSAL_TIME_OFFSET ( 5, 0, .BEHIND. ) ;
#216 = CYLINDRICAL_SURFACE ( 'NONE', #113, 1.240157480314960900 ) ;
#217 = CARTESIAN_POINT ( 'NONE',  ( 3.149606299212605700, -2.185478394931410600E-015, -1.011811023622045000 ) ) ;
#218 = DIRECTION ( 'NONE',  ( 0.7071067811865482400, 0.7071067811865470200, 2.108153122477335200E-015 ) ) ;
#219 = FACE_OUTER_BOUND ( 'NONE', #9, .T. ) ;
#220 = CARTESIAN_POINT ( 'NONE',  ( 3.149606299212604800, 0.5824239415247752800, -1.022970534452649400 ) ) ;
#221 = CARTESIAN_POINT ( 'NONE',  ( 3.149606299212600400, 0.5824239415247816100, 1.022970534452645600 ) ) ;
#222 = CARTESIAN_POINT ( 'NONE',  ( 2.311394602126893200, -2.023622047244087300, 1.011811023622043200 ) ) ;
#223 = PERSON_AND_ORGANIZATION_ROLE ( 'design_supplier' ) ;
#224 = EDGE_LOOP ( 'NONE', ( #187 ) ) ;
#225 = CARTESIAN_POINT ( 'NONE',  ( 3.149606299212605700, -2.185478394931410600E-015, 1.011811023622067000 ) ) ;
#226 = AXIS2_PLACEMENT_3D ( 'NONE', #248, #296, #284 ) ;
#227 = ORIENTED_EDGE ( 'NONE', *, *, #135, .T. ) ;
#228 = DIRECTION ( 'NONE',  ( -2.159966973978883500E-015, 2.220446049250375200E-016, -1.000000000000000000 ) ) ;
#229 = CARTESIAN_POINT ( 'NONE',  ( 0.0000000000000000000, 0.0000000000000000000, 0.0000000000000000000 ) ) ;
#230 = ORIENTED_EDGE ( 'NONE', *, *, #213, .F. ) ;
#231 =( CONVERSION_BASED_UNIT ( 'INCH', #245 ) LENGTH_UNIT ( ) NAMED_UNIT ( #206 ) );
#232 = EDGE_CURVE ( 'NONE', #68, #191, #208, .T. ) ;
#233 = CARTESIAN_POINT ( 'NONE',  ( 3.678085745211126900, -0.01706852510978353100, 0.9054061335900832600 ) ) ;
#234 = CIRCLE ( 'NONE', #1, 1.011811023622047200 ) ;
#235 = APPROVAL ( #141, 'UNSPECIFIED' ) ;
#236 = AXIS2_PLACEMENT_3D ( 'NONE', #101, #183, #71 ) ;
#237 = CARTESIAN_POINT ( 'NONE',  ( 4.033667304528496100, 0.8697279545128047100, 0.5171222242790090000 ) ) ;
#238 = DIRECTION ( 'NONE',  ( 0.7071067811865480200, 0.7071067811865469100, 2.108153122477333600E-015 ) ) ;
#239 = CARTESIAN_POINT ( 'NONE',  ( 3.486569547937767400, 0.7138659205459299000, -1.253835479971145300 ) ) ;
#240 = CARTESIAN_POINT ( 'NONE',  ( 4.033667304528495200, 0.5006373438276060500, 0.8793203964821568700 ) ) ;
#241 = AXIS2_PLACEMENT_3D ( 'NONE', #13, #297, #153 ) ;
#242 = CARTESIAN_POINT ( 'NONE',  ( 0.0000000000000000000, 0.6200787401574831000, 0.0000000000000000000 ) ) ;
#243 = DIRECTION ( 'NONE',  ( -1.000000000000000000, -1.115953679732483300E-016, -2.315244922591533100E-015 ) ) ;
#244 =( GEOMETRIC_REPRESENTATION_CONTEXT ( 3 ) GLOBAL_UNCERTAINTY_ASSIGNED_CONTEXT ( ( #172 ) ) GLOBAL_UNIT_ASSIGNED_CONTEXT ( ( #231, #196, #20 ) ) REPRESENTATION_CONTEXT ( 'NONE', 'WORKASPACE' ) );
#245 = LENGTH_MEASURE_WITH_UNIT ( LENGTH_MEASURE( 0.02539999999999999900 ), #157 );
#246 = CARTESIAN_POINT ( 'NONE',  ( 3.149606299212605700, 0.0000000000000000000, 0.0000000000000000000 ) ) ;
#247 = CARTESIAN_POINT ( 'NONE',  ( 6.253638035523624500, -1.350184208171160800, 6.985398654352430900E-015 ) ) ;
#248 = CARTESIAN_POINT ( 'NONE',  ( 3.149606299212605700, 4.370956789862821100E-015, 0.0000000000000000000 ) ) ;
#249 = CARTESIAN_POINT ( 'NONE',  ( 3.424525521188367200, 0.5824239415247819400, 1.022970534452647000 ) ) ;
#250 = CARTESIAN_POINT ( 'NONE',  ( 5.815176153488671700, -1.788646090206128300, 1.092739197465705300E-014 ) ) ;
#251 = VERTEX_POINT ( 'NONE', #217 ) ;
#252 = CC_DESIGN_DATE_AND_TIME_ASSIGNMENT ( #310, #283, ( #142 ) ) ;
#253 = CARTESIAN_POINT ( 'NONE',  ( 3.797353480105736300, 0.6389072750173765400, 1.122177970361456100 ) ) ;
#254 = CARTESIAN_POINT ( 'NONE',  ( -2.871268309513122300E-015, -8.261108332840731900E-016, -1.240157480314972200 ) ) ;
#255 = PERSON_AND_ORGANIZATION ( #145, #305 ) ;
#256 = DIRECTION ( 'NONE',  ( -2.315244922591512200E-015, -6.661338147750877100E-016, -1.000000000000000000 ) ) ;
#257 = AXIS2_PLACEMENT_3D ( 'NONE', #31, #132, #218 ) ;
#258 = DIRECTION ( 'NONE',  ( 0.7071067811865470200, -0.7071067811865480200, 1.166097647267057800E-015 ) ) ;
#259 = EDGE_CURVE ( 'NONE', #195, #195, #177, .T. ) ;
#260 = CARTESIAN_POINT ( 'NONE',  ( 3.870887817835412900, -0.01337461852158007200, -0.7094615126951450100 ) ) ;
#261 = APPLICATION_CONTEXT ( 'configuration controlled 3d designs of mechanical parts and assemblies' ) ;
#262 = APPROVAL_ROLE ( '' ) ;
#263 = PERSON_AND_ORGANIZATION_ROLE ( 'creator' ) ;
#264 = EDGE_LOOP ( 'NONE', ( #171, #85 ) ) ;
#265 = CARTESIAN_POINT ( 'NONE',  ( 3.149606299212605700, -2.458663194297837100E-015, -1.240157480314959500 ) ) ;
#266 = ORIENTED_EDGE ( 'NONE', *, *, #307, .T. ) ;
#267 = CARTESIAN_POINT ( 'NONE',  ( 3.149606299212605300, 0.7138659205459291200, -1.253835479971145700 ) ) ;
#268 = CARTESIAN_POINT ( 'NONE',  ( 3.149606299212604800, 1.011811023622054800, -0.6016018737474840800 ) ) ;
#269 = CARTESIAN_POINT ( 'NONE',  ( 3.797353480105737100, -0.02092056579602831800, 1.109739035334148700 ) ) ;
#270 = DIRECTION ( 'NONE',  ( 0.7071067811865482400, 0.7071067811865471300, 2.108153122477334800E-015 ) ) ;
#271 = ADVANCED_FACE ( 'NONE', ( #87, #136 ), #216, .T. ) ;
#272 = ADVANCED_FACE ( 'NONE', ( #298 ), #103, .T. ) ;
#273 = DIRECTION ( 'NONE',  ( 0.7071067811865482400, 0.7071067811865470200, 2.108153122477336000E-015 ) ) ;
#274 = EDGE_CURVE ( 'NONE', #68, #191, #302, .T. ) ;
#275 = DIRECTION ( 'NONE',  ( -1.000000000000000000, -1.115953679732452300E-016, 2.315244922591511800E-015 ) ) ;
#276 = PERSON_AND_ORGANIZATION ( #145, #305 ) ;
#277 = CC_DESIGN_PERSON_AND_ORGANIZATION_ASSIGNMENT ( #49, #149, ( #62 ) ) ;
#278 = CARTESIAN_POINT ( 'NONE',  ( 3.424525521188372100, 0.5824239415247757200, -1.022970534452649200 ) ) ;
#279 = PERSON_AND_ORGANIZATION_ROLE ( 'creator' ) ;
#280 = AXIS2_PLACEMENT_3D ( 'NONE', #168, #166, #256 ) ;
#281 = APPLICATION_PROTOCOL_DEFINITION ( 'international standard', 'config_control_design', 1994, #261 ) ;
#282 = CARTESIAN_POINT ( 'NONE',  ( 3.149606299212600800, -0.01907105908212719500, 1.011631277802639100 ) ) ;
#283 = DATE_TIME_ROLE ( 'creation_date' ) ;
#284 = DIRECTION ( 'NONE',  ( 0.7071067811865480200, 0.7071067811865469100, 2.108153122477335200E-015 ) ) ;
#285 = CARTESIAN_POINT ( 'NONE',  ( 3.149606299212602600, 1.240157480314972200, -8.849568537311649000E-015 ) ) ;
#286 = AXIS2_PLACEMENT_3D ( 'NONE', #242, #275, #170 ) ;
#287 = VERTEX_POINT ( 'NONE', #247 ) ;
#288 = CARTESIAN_POINT ( 'NONE',  ( 3.424525521188368100, 1.011811023622057200, -2.534304308208127500E-015 ) ) ;
#289 = CARTESIAN_POINT ( 'NONE',  ( 3.678085745211129100, 0.9055670054126114800, -1.612305610346439500E-015 ) ) ;
#290 = CARTESIAN_POINT ( 'NONE',  ( 3.149606299212605700, -2.458663194297837100E-015, -1.240157480314959500 ) ) ;
#291 = CARTESIAN_POINT ( 'NONE',  ( 3.797353480105739800, 1.109936212859810700, -0.6599450784854007400 ) ) ;
#292 = DIRECTION ( 'NONE',  ( 0.7071067811865470200, -0.7071067811865480200, 1.166097647267057800E-015 ) ) ;
#293 = CARTESIAN_POINT ( 'NONE',  ( 3.424525521188371200, -0.01907105908213351000, -1.011631277802638600 ) ) ;
#294 = DIRECTION ( 'NONE',  ( 1.000000000000000000, 1.115953679732483300E-016, 2.315244922591533100E-015 ) ) ;
#295 = CLOSED_SHELL ( 'NONE', ( #271, #272, #131, #158, #116, #189, #74, #147 ) ) ;
#296 = DIRECTION ( 'NONE',  ( 0.7071067811865470200, -0.7071067811865480200, 1.166097647267057800E-015 ) ) ;
#297 = DIRECTION ( 'NONE',  ( 1.000000000000000000, 1.115953679732483300E-016, 2.315244922591533100E-015 ) ) ;
#298 = FACE_OUTER_BOUND ( 'NONE', #264, .T. ) ;
#299 = CARTESIAN_POINT ( 'NONE',  ( 3.149606299212605700, -0.01907105908213353400, -1.011631277802638800 ) ) ;
#300 = CC_DESIGN_APPROVAL ( #235, ( #62 ) ) ;
#301 = LOCAL_TIME ( 14, 18, 18.00000000000000000, #56 ) ;
#302 = CIRCLE ( 'NONE', #133, 1.240157480314960600 ) ;
#303 = CARTESIAN_POINT ( 'NONE',  ( 3.486569547937762100, 0.7138659205459476600, 1.253835479971137100 ) ) ;
#304 = DIRECTION ( 'NONE',  ( 0.0000000000000000000, 1.000000000000000000, 6.661338147750986600E-016 ) ) ;
#305 = ORGANIZATION ( 'UNSPECIFIED', 'UNSPECIFIED', '' ) ;
#306 = CARTESIAN_POINT ( 'NONE',  ( 3.149606299212603900, 1.240157480314967100, -0.7373719464220158700 ) ) ;
#307 = EDGE_CURVE ( 'NONE', #15, #15, #234, .T. ) ;
#308 = PERSON_AND_ORGANIZATION ( #145, #305 ) ;
#309 = PRODUCT_RELATED_PRODUCT_CATEGORY ( 'detail', '', ( #121 ) ) ;
#310 = DATE_AND_TIME ( #36, #44 ) ;
#311 = DATE_AND_TIME ( #174, #186 ) ;
#312 = CYLINDRICAL_SURFACE ( 'NONE', #207, 1.011811023622047200 ) ;
ENDSEC;
END-ISO-10303-21;
