ISO-10303-21;
HEADER;
FILE_DESCRIPTION (( 'STEP AP203' ),
    '1' );
FILE_NAME ('581244080.STEP',
    '2017-07-27T18:45:22',
    ( '' ),
    ( '' ),
    'SwSTEP 2.0',
    'SolidWorks 2017',
    '' );
FILE_SCHEMA (( 'CONFIG_CONTROL_DESIGN' ));
ENDSEC;

DATA;
#1 = CARTESIAN_POINT ( 'NONE',  ( 7.646688265393388300, -0.06070088065828573700, -3.219900331683082800 ) ) ;
#2 = DATE_AND_TIME ( #248, #99 ) ;
#3 = CARTESIAN_POINT ( 'NONE',  ( 9.067405614254413500, 1.300067769050690800, 2.283441537531409900 ) ) ;
#4 = EDGE_LOOP ( 'NONE', ( #46 ) ) ;
#5 = CARTESIAN_POINT ( 'NONE',  ( 8.827993800110705900, 3.523607024951751000, 2.095063741223452100 ) ) ;
#6 = VERTEX_POINT ( 'NONE', #151 ) ;
#7 = LOCAL_TIME ( 14, 45, 22.00000000000000000, #230 ) ;
#8 = APPROVAL_STATUS ( 'not_yet_approved' ) ;
#9 = AXIS2_PLACEMENT_3D ( 'NONE', #224, #97, #72 ) ;
#10 = EDGE_LOOP ( 'NONE', ( #83, #136 ) ) ;
#11 = EDGE_LOOP ( 'NONE', ( #214 ) ) ;
#12 = CC_DESIGN_PERSON_AND_ORGANIZATION_ASSIGNMENT ( #95, #84, ( #277 ) ) ;
#13 = AXIS2_PLACEMENT_3D ( 'NONE', #206, #62, #256 ) ;
#14 = CARTESIAN_POINT ( 'NONE',  ( 6.771653543307084400, -5.858922601020386500E-015, 3.937007874015748100 ) ) ;
#15 = DIRECTION ( 'NONE',  ( 1.000000000000000000, 2.799616768164300000E-017, 0.0000000000000000000 ) ) ;
#16 = CYLINDRICAL_SURFACE ( 'NONE', #232, 3.220472440944881900 ) ;
#17 = FACE_BOUND ( 'NONE', #130, .T. ) ;
#18 = ADVANCED_FACE ( 'NONE', ( #36, #17 ), #69, .T. ) ;
#19 = CARTESIAN_POINT ( 'NONE',  ( 6.771653543307083500, 3.220472440944887700, -1.914826197375228100 ) ) ;
#20 = CARTESIAN_POINT ( 'NONE',  ( 7.841378142434591900, 3.937007874015750800, -2.340863321974603600 ) ) ;
#21 = CARTESIAN_POINT ( 'NONE',  ( 8.827993800110705900, 2.028277063547172100, 3.562469747179193300 ) ) ;
#22 = VERTEX_POINT ( 'NONE', #65 ) ;
#23 = PLANE ( 'NONE',  #32 ) ;
#24 = CARTESIAN_POINT ( 'NONE',  ( 9.578196417325813200, 2.761041125437414800, 1.641657854853984600 ) ) ;
#25 = PRODUCT_RELATED_PRODUCT_CATEGORY ( 'detail', '', ( #163 ) ) ;
#26 = PERSON_AND_ORGANIZATION_ROLE ( 'classification_officer' ) ;
#27 = CARTESIAN_POINT ( 'NONE',  ( 9.067405614254413500, 2.258531640607806000, -1.342876125270556100 ) ) ;
#28 = APPLICATION_CONTEXT ( 'configuration controlled 3d designs of mechanical parts and assemblies' ) ;
#29 = CARTESIAN_POINT ( 'NONE',  ( 8.453739873372454000, 2.882310546410534100, 3.103714687614867700E-015 ) ) ;
#30 = DIRECTION ( 'NONE',  ( 0.7071067811865470200, -0.7071067811865480200, 2.019483917365790000E-032 ) ) ;
#31 = CC_DESIGN_DATE_AND_TIME_ASSIGNMENT ( #183, #209, ( #177 ) ) ;
#32 = AXIS2_PLACEMENT_3D ( 'NONE', #138, #150, #121 ) ;
#33 = UNCERTAINTY_MEASURE_WITH_UNIT (LENGTH_MEASURE( 1.000000000000000100E-005 ), #112, 'distance_accuracy_value', 'NONE');
#34 = EDGE_LOOP ( 'NONE', ( #223 ) ) ;
#35 = CIRCLE ( 'NONE', #80, 3.220472440944881900 ) ;
#36 = FACE_OUTER_BOUND ( 'NONE', #92, .T. ) ;
#37 = CC_DESIGN_DATE_AND_TIME_ASSIGNMENT ( #165, #53, ( #156 ) ) ;
#38 = CARTESIAN_POINT ( 'NONE',  ( 6.771653543307084400, -0.07420645557247782000, 3.936308473940193200 ) ) ;
#39 = CIRCLE ( 'NONE', #169, 3.220472440944881900 ) ;
#40 =( NAMED_UNIT ( * ) PLANE_ANGLE_UNIT ( ) SI_UNIT ( $, .RADIAN. ) );
#41 = CARTESIAN_POINT ( 'NONE',  ( 6.771653543307088800, -1.365923996832131600E-015, -6.837622712340857600E-032 ) ) ;
#42 = ORIENTED_EDGE ( 'NONE', *, *, #285, .T. ) ;
#43 = CARTESIAN_POINT ( 'NONE',  ( 7.841378142434591000, -0.07420645557247784700, 3.936308473940193700 ) ) ;
#44 = DIRECTION ( 'NONE',  ( 1.000000000000000000, 2.799616768164300000E-017, 0.0000000000000000000 ) ) ;
#45 = CARTESIAN_POINT ( 'NONE',  ( 8.453739873372454000, -0.05432705657511274100, 2.881798510804195200 ) ) ;
#46 = ORIENTED_EDGE ( 'NONE', *, *, #199, .F. ) ;
#47 = DIRECTION ( 'NONE',  ( 0.7071067811865479100, 0.7071067811865470200, 0.0000000000000000000 ) ) ;
#48 = CC_DESIGN_PERSON_AND_ORGANIZATION_ASSIGNMENT ( #132, #311, ( #163 ) ) ;
#49 = DIRECTION ( 'NONE',  ( 0.0000000000000000000, 0.0000000000000000000, -1.000000000000000000 ) ) ;
#50 = CARTESIAN_POINT ( 'NONE',  ( -9.016088647080305000E-017, 3.220472440944881500, 0.0000000000000000000 ) ) ;
#51 = DIRECTION ( 'NONE',  ( 0.7071067811865470200, -0.7071067811865480200, 2.019483917365790000E-032 ) ) ;
#52 = APPROVAL_PERSON_ORGANIZATION ( #74, #109, #76 ) ;
#53 = DATE_TIME_ROLE ( 'creation_date' ) ;
#54 = CARTESIAN_POINT ( 'NONE',  ( 6.771653543307084400, -1.030488581664967300E-014, 3.220472440944881500 ) ) ;
#55 = CARTESIAN_POINT ( 'NONE',  ( 6.771653543307084400, 3.937007874015748100, 2.535496419119644400E-015 ) ) ;
#56 = AXIS2_PLACEMENT_3D ( 'NONE', #181, #125, #176 ) ;
#57 = ORIENTED_EDGE ( 'NONE', *, *, #199, .T. ) ;
#58 = ADVANCED_FACE ( 'NONE', ( #103, #296 ), #249, .T. ) ;
#59 = CIRCLE ( 'NONE', #204, 3.937007874015748100 ) ;
#60 = COORDINATED_UNIVERSAL_TIME_OFFSET ( 5, 0, .BEHIND. ) ;
#61 = AXIS2_PLACEMENT_3D ( 'NONE', #257, #30, #283 ) ;
#62 = DIRECTION ( 'NONE',  ( 0.0000000000000000000, 0.0000000000000000000, 1.000000000000000000 ) ) ;
#63 = FACE_BOUND ( 'NONE', #227, .T. ) ;
#64 = PERSON_AND_ORGANIZATION ( #218, #298 ) ;
#65 = CARTESIAN_POINT ( 'NONE',  ( 6.771653543307086100, -1.558167566935985800E-015, -3.937007874015748100 ) ) ;
#66 =( BOUNDED_CURVE ( )  B_SPLINE_CURVE ( 3, ( #14, #215, #122, #307 ),
 .UNSPECIFIED., .F., .T. ) 
 B_SPLINE_CURVE_WITH_KNOTS ( ( 4, 4 ),
 ( 1.570796326794898100, 4.712388980384689700 ),
 .UNSPECIFIED. ) 
 CURVE ( )  GEOMETRIC_REPRESENTATION_ITEM ( )  RATIONAL_B_SPLINE_CURVE ( ( 1.000000000000000000, 0.3333333333333339800, 0.3333333333333339800, 1.000000000000000000 ) ) 
 REPRESENTATION_ITEM ( '' )  );
#67 = CALENDAR_DATE ( 2017, 27, 7 ) ;
#68 = CARTESIAN_POINT ( 'NONE',  ( 4.103726818730780000, -6.440944881889747900, 3.220472440944862000 ) ) ;
#69 = PLANE ( 'NONE',  #115 ) ;
#70 = CARTESIAN_POINT ( 'NONE',  ( 6.771653543307084400, 3.220472440944885100, 3.496417836704105700E-015 ) ) ;
#71 = AXIS2_PLACEMENT_3D ( 'NONE', #244, #228, #221 ) ;
#72 = DIRECTION ( 'NONE',  ( 0.0000000000000000000, 1.000000000000000000, 0.0000000000000000000 ) ) ;
#73 = CARTESIAN_POINT ( 'NONE',  ( 7.841378142434591900, 2.266241017606132500, -3.980430095146442000 ) ) ;
#74 = PERSON_AND_ORGANIZATION ( #218, #298 ) ;
#75 = CARTESIAN_POINT ( 'NONE',  ( 8.453739873372452300, 2.882310546410535900, -1.713762140320781900 ) ) ;
#76 = APPROVAL_ROLE ( '' ) ;
#77 = DIRECTION ( 'NONE',  ( 0.7071067811865479100, 0.7071067811865470200, 0.0000000000000000000 ) ) ;
#78 = CLOSED_SHELL ( 'NONE', ( #58, #197, #173, #250, #18, #105, #127, #245 ) ) ;
#79 = DIRECTION ( 'NONE',  ( 0.0000000000000000000, 1.000000000000000000, 0.0000000000000000000 ) ) ;
#80 = AXIS2_PLACEMENT_3D ( 'NONE', #118, #158, #77 ) ;
#81 = AXIS2_PLACEMENT_3D ( 'NONE', #207, #44, #236 ) ;
#82 = ORIENTED_EDGE ( 'NONE', *, *, #87, .T. ) ;
#83 = ORIENTED_EDGE ( 'NONE', *, *, #205, .F. ) ;
#84 = PERSON_AND_ORGANIZATION_ROLE ( 'creator' ) ;
#85 = CC_DESIGN_PERSON_AND_ORGANIZATION_ASSIGNMENT ( #275, #26, ( #177 ) ) ;
#86 = EDGE_CURVE ( 'NONE', #237, #237, #159, .T. ) ;
#87 = EDGE_CURVE ( 'NONE', #310, #268, #196, .T. ) ;
#88 = FACE_OUTER_BOUND ( 'NONE', #10, .T. ) ;
#89 = PERSON_AND_ORGANIZATION ( #218, #298 ) ;
#90 = ORIENTED_EDGE ( 'NONE', *, *, #234, .T. ) ;
#91 = CARTESIAN_POINT ( 'NONE',  ( 8.827993800110704100, -0.06641449459059603500, 3.522981064552804100 ) ) ;
#92 = EDGE_LOOP ( 'NONE', ( #299 ) ) ;
#93 = APPROVAL_ROLE ( '' ) ;
#94 = APPLICATION_CONTEXT ( 'configuration controlled 3d designs of mechanical parts and assemblies' ) ;
#95 = PERSON_AND_ORGANIZATION ( #218, #298 ) ;
#96 = EDGE_CURVE ( 'NONE', #268, #310, #200, .T. ) ;
#97 = DIRECTION ( 'NONE',  ( 1.000000000000000000, 0.0000000000000000000, 0.0000000000000000000 ) ) ;
#98 = PERSON_AND_ORGANIZATION ( #218, #298 ) ;
#99 = LOCAL_TIME ( 14, 45, 22.00000000000000000, #180 ) ;
#100 = CARTESIAN_POINT ( 'NONE',  ( 7.646688265393388300, -0.06070088065829271800, 3.219900331683082300 ) ) ;
#101 = CARTESIAN_POINT ( 'NONE',  ( 8.453739873372452300, 2.882310546410532700, 1.713762140320787900 ) ) ;
#102 = CARTESIAN_POINT ( 'NONE',  ( 9.067405614254411700, 2.258531640607804600, 2.446363764139404300E-015 ) ) ;
#103 = FACE_OUTER_BOUND ( 'NONE', #34, .T. ) ;
#104 = FACE_OUTER_BOUND ( 'NONE', #175, .T. ) ;
#105 = ADVANCED_FACE ( 'NONE', ( #284, #137 ), #201, .F. ) ;
#106 = DIRECTION ( 'NONE',  ( 0.0000000000000000000, 0.0000000000000000000, 1.000000000000000000 ) ) ;
#107 = APPLICATION_PROTOCOL_DEFINITION ( 'international standard', 'config_control_design', 1994, #28 ) ;
#108 =( BOUNDED_SURFACE ( )  B_SPLINE_SURFACE ( 3, 3, ( 
 ( #133, #208, #27, #102, #143, #3, #301 ),
 ( #111, #238, #75, #29, #101, #242, #45 ),
 ( #1, #289, #144, #166, #141, #210, #100 ),
 ( #241, #217, #19, #70, #174, #270, #212 ) ),
 .UNSPECIFIED., .F., .F., .T. ) 
 B_SPLINE_SURFACE_WITH_KNOTS ( ( 4, 4 ),
 ( 4, 3, 4 ),
 ( 0.0000000000000000000, 1.000000000000000000 ),
 ( 0.0000000000000000000, 0.5000000000000000000, 1.000000000000000000 ),
 .UNSPECIFIED. ) 
 GEOMETRIC_REPRESENTATION_ITEM ( )  RATIONAL_B_SPLINE_SURFACE ( (
 ( 1.000000000000000000, 0.8002741005225372200, 0.8002741005225372200, 1.000000000000000000, 0.8002741005225372200, 0.8002741005225372200, 1.000000000000000000),
 ( 0.9482053969659238700, 0.7588242211675201300, 0.7588242211675201300, 0.9482053969659238700, 0.7588242211675201300, 0.7588242211675201300, 0.9482053969659238700),
 ( 0.9482053969659238700, 0.7588242211675201300, 0.7588242211675201300, 0.9482053969659238700, 0.7588242211675201300, 0.7588242211675201300, 0.9482053969659238700),
 ( 1.000000000000000000, 0.8002741005225372200, 0.8002741005225372200, 1.000000000000000000, 0.8002741005225372200, 0.8002741005225372200, 1.000000000000000000) ) ) 
 REPRESENTATION_ITEM ( '' )  SURFACE ( )  );
#109 = APPROVAL ( #216, 'UNSPECIFIED' ) ;
#110 = LOCAL_TIME ( 14, 45, 22.00000000000000000, #60 ) ;
#111 = CARTESIAN_POINT ( 'NONE',  ( 8.453739873372454000, -0.05432705657510653700, -2.881798510804195200 ) ) ;
#112 =( CONVERSION_BASED_UNIT ( 'INCH', #309 ) LENGTH_UNIT ( ) NAMED_UNIT ( #253 ) );
#113 = EDGE_CURVE ( 'NONE', #22, #6, #123, .T. ) ;
#114 = CYLINDRICAL_SURFACE ( 'NONE', #186, 3.937007874015748100 ) ;
#115 = AXIS2_PLACEMENT_3D ( 'NONE', #231, #266, #106 ) ;
#116 = CARTESIAN_POINT ( 'NONE',  ( 6.771653543307082600, 2.266241017606127600, 3.980430095146444600 ) ) ;
#117 = APPROVAL_STATUS ( 'not_yet_approved' ) ;
#118 = CARTESIAN_POINT ( 'NONE',  ( 11.55993568362545100, -4.788282140318370800, -5.109383845401543500E-032 ) ) ;
#119 = ORIENTED_EDGE ( 'NONE', *, *, #96, .F. ) ;
#120 = CARTESIAN_POINT ( 'NONE',  ( 9.578196417325813200, 2.761041125437415600, 1.775701195881771200E-015 ) ) ;
#121 = DIRECTION ( 'NONE',  ( 0.7071067811865479100, 0.7071067811865469100, 0.0000000000000000000 ) ) ;
#122 = CARTESIAN_POINT ( 'NONE',  ( 3.510129430133112700, -7.874015748031482100, -3.937007874015746400 ) ) ;
#123 = CIRCLE ( 'NONE', #194, 3.937007874015747300 ) ;
#124 = CARTESIAN_POINT ( 'NONE',  ( 8.827993800110704100, -0.06641449459059149700, -3.522981064552805000 ) ) ;
#125 = DIRECTION ( 'NONE',  ( -0.7071067811865470200, 0.7071067811865480200, -2.019483917365790000E-032 ) ) ;
#126 =( LENGTH_UNIT ( ) NAMED_UNIT ( * ) SI_UNIT ( $, .METRE. ) );
#127 = ADVANCED_FACE ( 'NONE', ( #260, #188 ), #16, .F. ) ;
#128 = CALENDAR_DATE ( 2017, 27, 7 ) ;
#129 = LOCAL_TIME ( 14, 45, 22.00000000000000000, #203 ) ;
#130 = EDGE_LOOP ( 'NONE', ( #57 ) ) ;
#131 = DIRECTION ( 'NONE',  ( 0.0000000000000000000, 0.0000000000000000000, -1.000000000000000000 ) ) ;
#132 = PERSON_AND_ORGANIZATION ( #218, #298 ) ;
#133 = CARTESIAN_POINT ( 'NONE',  ( 9.067405614254411700, -0.04256979747334000600, -2.258130417838982900 ) ) ;
#134 = DIRECTION ( 'NONE',  ( 0.7071067811865480200, 0.7071067811865471300, 0.0000000000000000000 ) ) ;
#135 = CARTESIAN_POINT ( 'NONE',  ( 9.578196417325813200, 1.589324901039968600, 2.791493322165536900 ) ) ;
#136 = ORIENTED_EDGE ( 'NONE', *, *, #234, .F. ) ;
#137 = FACE_OUTER_BOUND ( 'NONE', #294, .T. ) ;
#138 = CARTESIAN_POINT ( 'NONE',  ( 12.95187816627614400, -3.396339657667669400, -4.821284857568425000E-016 ) ) ;
#139 = APPROVAL_PERSON_ORGANIZATION ( #64, #295, #93 ) ;
#140 = CARTESIAN_POINT ( 'NONE',  ( 6.771653543307082600, 3.937007874015749900, -2.340863321974603100 ) ) ;
#141 = CARTESIAN_POINT ( 'NONE',  ( 7.646688265393388300, 3.220472440944884200, 1.914826197375235600 ) ) ;
#142 = CARTESIAN_POINT ( 'NONE',  ( 13.83715358524197100, -2.511064238701853100, -5.109383845401543500E-032 ) ) ;
#143 = CARTESIAN_POINT ( 'NONE',  ( 9.067405614254413500, 2.258531640607803300, 1.342876125270561200 ) ) ;
#144 = CARTESIAN_POINT ( 'NONE',  ( 7.646688265393388300, 3.220472440944888600, -1.914826197375228500 ) ) ;
#145 = APPROVAL_PERSON_ORGANIZATION ( #98, #293, #191 ) ;
#146 = ORIENTED_EDGE ( 'NONE', *, *, #247, .F. ) ;
#147 = EDGE_CURVE ( 'NONE', #168, #168, #35, .T. ) ;
#148 = MANIFOLD_SOLID_BREP ( '1', #78 ) ;
#149 =( GEOMETRIC_REPRESENTATION_CONTEXT ( 3 ) GLOBAL_UNCERTAINTY_ASSIGNED_CONTEXT ( ( #33 ) ) GLOBAL_UNIT_ASSIGNED_CONTEXT ( ( #112, #40, #178 ) ) REPRESENTATION_CONTEXT ( 'NONE', 'WORKASPACE' ) );
#150 = DIRECTION ( 'NONE',  ( 0.7071067811865470200, -0.7071067811865480200, 0.0000000000000000000 ) ) ;
#151 = CARTESIAN_POINT ( 'NONE',  ( 6.771653543307084400, -5.858922601020386500E-015, 3.937007874015748100 ) ) ;
#152 = CARTESIAN_POINT ( 'NONE',  ( 3.385826771653543500, 0.0000000000000000000, 0.0000000000000000000 ) ) ;
#153 = CARTESIAN_POINT ( 'NONE',  ( 8.827993800110705900, 2.028277063547176500, -3.562469747179191500 ) ) ;
#154 = PERSON_AND_ORGANIZATION_ROLE ( 'creator' ) ;
#155 = ORIENTED_EDGE ( 'NONE', *, *, #113, .F. ) ;
#156 = PRODUCT_DEFINITION ( 'UNKNOWN', '', #277, #276 ) ;
#157 = VERTEX_POINT ( 'NONE', #288 ) ;
#158 = DIRECTION ( 'NONE',  ( -0.7071067811865470200, 0.7071067811865480200, 1.509050577595330000E-032 ) ) ;
#159 = CIRCLE ( 'NONE', #56, 3.937007874015747300 ) ;
#160 = CARTESIAN_POINT ( 'NONE',  ( 7.841378142434591000, -0.07420645557247274000, -3.936308473940193700 ) ) ;
#161 = CARTESIAN_POINT ( 'NONE',  ( 8.827993800110704100, 3.523607024951751500, 2.279385669713619600E-015 ) ) ;
#162 = DIRECTION ( 'NONE',  ( 1.000000000000000000, 0.0000000000000000000, 0.0000000000000000000 ) ) ;
#163 = PRODUCT ( '581244080', '581244080', '', ( #287 ) ) ;
#164 = SHAPE_DEFINITION_REPRESENTATION ( #273, #281 ) ;
#165 = DATE_AND_TIME ( #261, #7 ) ;
#166 = CARTESIAN_POINT ( 'NONE',  ( 7.646688265393388300, 3.220472440944885900, 3.496417836704106100E-015 ) ) ;
#167 = ORIENTED_EDGE ( 'NONE', *, *, #147, .F. ) ;
#168 = VERTEX_POINT ( 'NONE', #142 ) ;
#169 = AXIS2_PLACEMENT_3D ( 'NONE', #229, #291, #184 ) ;
#170 = CIRCLE ( 'NONE', #9, 3.937007874015748100 ) ;
#171 = AXIS2_PLACEMENT_3D ( 'NONE', #192, #312, #47 ) ;
#172 = ORIENTED_EDGE ( 'NONE', *, *, #113, .T. ) ;
#173 = ADVANCED_FACE ( 'NONE', ( #88, #274 ), #114, .T. ) ;
#174 = CARTESIAN_POINT ( 'NONE',  ( 6.771653543307083500, 3.220472440944883700, 1.914826197375235000 ) ) ;
#175 = EDGE_LOOP ( 'NONE', ( #82, #225 ) ) ;
#176 = DIRECTION ( 'NONE',  ( 0.7071067811865480200, 0.7071067811865471300, 0.0000000000000000000 ) ) ;
#177 = SECURITY_CLASSIFICATION ( '', '', #264 ) ;
#178 =( NAMED_UNIT ( * ) SI_UNIT ( $, .STERADIAN. ) SOLID_ANGLE_UNIT ( ) );
#179 = EDGE_LOOP ( 'NONE', ( #255, #146 ) ) ;
#180 = COORDINATED_UNIVERSAL_TIME_OFFSET ( 5, 0, .BEHIND. ) ;
#181 = CARTESIAN_POINT ( 'NONE',  ( 11.55993568362544000, -4.788282140318359300, 6.837622712340872900E-032 ) ) ;
#182 = FACE_OUTER_BOUND ( 'NONE', #11, .T. ) ;
#183 = DATE_AND_TIME ( #308, #129 ) ;
#184 = DIRECTION ( 'NONE',  ( 0.0000000000000000000, 1.000000000000000000, 0.0000000000000000000 ) ) ;
#185 = CARTESIAN_POINT ( 'NONE',  ( 6.771653543307082600, 2.266241017606132500, -3.980430095146442000 ) ) ;
#186 = AXIS2_PLACEMENT_3D ( 'NONE', #152, #300, #131 ) ;
#187 = APPLICATION_PROTOCOL_DEFINITION ( 'international standard', 'config_control_design', 1994, #94 ) ;
#188 = FACE_OUTER_BOUND ( 'NONE', #179, .T. ) ;
#189 = CARTESIAN_POINT ( 'NONE',  ( 6.771653543307084400, -1.030488581664967300E-014, 3.220472440944881500 ) ) ;
#190 = VERTEX_POINT ( 'NONE', #50 ) ;
#191 = APPROVAL_ROLE ( '' ) ;
#192 = CARTESIAN_POINT ( 'NONE',  ( 6.771653543307093200, -5.736880786694953000E-015, 5.109383845401496400E-032 ) ) ;
#193 = ORIENTED_EDGE ( 'NONE', *, *, #87, .F. ) ;
#194 = AXIS2_PLACEMENT_3D ( 'NONE', #41, #51, #134 ) ;
#195 = CARTESIAN_POINT ( 'NONE',  ( 9.578196417325813200, 2.761041125437417000, -1.641657854853981100 ) ) ;
#196 = CIRCLE ( 'NONE', #171, 3.220472440944881900 ) ;
#197 = ADVANCED_FACE ( 'NONE', ( #226 ), #282, .T. ) ;
#198 = PERSON_AND_ORGANIZATION_ROLE ( 'design_supplier' ) ;
#199 = EDGE_CURVE ( 'NONE', #190, #190, #292, .T. ) ;
#200 =( BOUNDED_CURVE ( )  B_SPLINE_CURVE ( 3, ( #54, #68, #265, #267 ),
 .UNSPECIFIED., .F., .T. ) 
 B_SPLINE_CURVE_WITH_KNOTS ( ( 4, 4 ),
 ( 1.570796326794899700, 4.712388980384688800 ),
 .UNSPECIFIED. ) 
 CURVE ( )  GEOMETRIC_REPRESENTATION_ITEM ( )  RATIONAL_B_SPLINE_CURVE ( ( 1.000000000000000000, 0.3333333333333347000, 0.3333333333333347000, 1.000000000000000000 ) ) 
 REPRESENTATION_ITEM ( '' )  );
#201 = CYLINDRICAL_SURFACE ( 'NONE', #71, 3.220472440944881900 ) ;
#202 = CC_DESIGN_APPROVAL ( #295, ( #156 ) ) ;
#203 = COORDINATED_UNIVERSAL_TIME_OFFSET ( 5, 0, .BEHIND. ) ;
#204 = AXIS2_PLACEMENT_3D ( 'NONE', #246, #162, #49 ) ;
#205 = EDGE_CURVE ( 'NONE', #22, #6, #170, .T. ) ;
#206 = CARTESIAN_POINT ( 'NONE',  ( 0.0000000000000000000, 0.0000000000000000000, 0.0000000000000000000 ) ) ;
#207 = CARTESIAN_POINT ( 'NONE',  ( 0.0000000000000000000, -2.797412345512204400E-016, 0.0000000000000000000 ) ) ;
#208 = CARTESIAN_POINT ( 'NONE',  ( 9.067405614254413500, 1.300067769050695700, -2.283441537531406800 ) ) ;
#209 = DATE_TIME_ROLE ( 'classification_date' ) ;
#210 = CARTESIAN_POINT ( 'NONE',  ( 7.646688265393388300, 1.853785152401810700, 3.255991817829798900 ) ) ;
#211 = CC_DESIGN_APPROVAL ( #109, ( #177 ) ) ;
#212 = CARTESIAN_POINT ( 'NONE',  ( 6.771653543307084400, -0.06070088065829270400, 3.219900331683080500 ) ) ;
#213 = APPROVAL_DATE_TIME ( #272, #293 ) ;
#214 = ORIENTED_EDGE ( 'NONE', *, *, #86, .F. ) ;
#215 = CARTESIAN_POINT ( 'NONE',  ( 3.510129430133111000, -7.874015748031487400, 3.937007874015735700 ) ) ;
#216 = APPROVAL_STATUS ( 'not_yet_approved' ) ;
#217 = CARTESIAN_POINT ( 'NONE',  ( 6.771653543307083500, 1.853785152401817200, -3.255991817829794000 ) ) ;
#218 = PERSON ( 'UNSPECIFIED', 'UNSPECIFIED', 'UNSPECIFIED', ('UNSPECIFIED'), ('UNSPECIFIED'), ('UNSPECIFIED') ) ;
#219 = CARTESIAN_POINT ( 'NONE',  ( 9.578196417325813200, -0.05204131720457314700, 2.760550633054993200 ) ) ;
#220 = EDGE_LOOP ( 'NONE', ( #42 ) ) ;
#221 = DIRECTION ( 'NONE',  ( 0.7071067811865479100, 0.7071067811865470200, 0.0000000000000000000 ) ) ;
#222 = DATE_AND_TIME ( #67, #110 ) ;
#223 = ORIENTED_EDGE ( 'NONE', *, *, #86, .T. ) ;
#224 = CARTESIAN_POINT ( 'NONE',  ( 6.771653543307087000, 0.0000000000000000000, 0.0000000000000000000 ) ) ;
#225 = ORIENTED_EDGE ( 'NONE', *, *, #247, .T. ) ;
#226 = FACE_OUTER_BOUND ( 'NONE', #271, .T. ) ;
#227 = EDGE_LOOP ( 'NONE', ( #263 ) ) ;
#228 = DIRECTION ( 'NONE',  ( 0.7071067811865470200, -0.7071067811865480200, -1.509050577595330000E-032 ) ) ;
#229 = CARTESIAN_POINT ( 'NONE',  ( 6.771653543307087000, -9.016088647080323500E-017, 0.0000000000000000000 ) ) ;
#230 = COORDINATED_UNIVERSAL_TIME_OFFSET ( 5, 0, .BEHIND. ) ;
#231 = CARTESIAN_POINT ( 'NONE',  ( 0.0000000000000000000, 1.968503937007874100, -4.821284857568425000E-016 ) ) ;
#232 = AXIS2_PLACEMENT_3D ( 'NONE', #240, #15, #79 ) ;
#233 = CARTESIAN_POINT ( 'NONE',  ( 7.841378142434591900, 2.266241017606128500, 3.980430095146445500 ) ) ;
#234 = EDGE_CURVE ( 'NONE', #6, #22, #66, .T. ) ;
#235 = CARTESIAN_POINT ( 'NONE',  ( 8.827993800110705900, 3.523607024951752800, -2.095063741223447600 ) ) ;
#236 = DIRECTION ( 'NONE',  ( -2.799616768164300000E-017, 1.000000000000000000, 0.0000000000000000000 ) ) ;
#237 = VERTEX_POINT ( 'NONE', #304 ) ;
#238 = CARTESIAN_POINT ( 'NONE',  ( 8.453739873372452300, 1.659130637981590400, -2.914100253192581900 ) ) ;
#239 = CC_DESIGN_SECURITY_CLASSIFICATION ( #177, ( #277 ) ) ;
#240 = CARTESIAN_POINT ( 'NONE',  ( 3.385826771653543500, -1.849510605110118300E-016, 0.0000000000000000000 ) ) ;
#241 = CARTESIAN_POINT ( 'NONE',  ( 6.771653543307084400, -0.06070088065828572300, -3.219900331683081400 ) ) ;
#242 = CARTESIAN_POINT ( 'NONE',  ( 8.453739873372452300, 1.659130637981584200, 2.914100253192585500 ) ) ;
#243 = CARTESIAN_POINT ( 'NONE',  ( 7.841378142434591900, 3.937007874015747700, 2.340863321974608400 ) ) ;
#244 = CARTESIAN_POINT ( 'NONE',  ( 9.165794613466260900, -2.394141070159177400, 0.0000000000000000000 ) ) ;
#245 = ADVANCED_FACE ( 'NONE', ( #104 ), #108, .F. ) ;
#246 = CARTESIAN_POINT ( 'NONE',  ( 0.0000000000000000000, 0.0000000000000000000, 0.0000000000000000000 ) ) ;
#247 = EDGE_CURVE ( 'NONE', #268, #310, #39, .T. ) ;
#248 = CALENDAR_DATE ( 2017, 27, 7 ) ;
#249 = CYLINDRICAL_SURFACE ( 'NONE', #61, 3.937007874015747300 ) ;
#250 = ADVANCED_FACE ( 'NONE', ( #182, #63 ), #23, .T. ) ;
#251 = CC_DESIGN_PERSON_AND_ORGANIZATION_ASSIGNMENT ( #89, #154, ( #156 ) ) ;
#252 = LOCAL_TIME ( 14, 45, 22.00000000000000000, #278 ) ;
#253 = DIMENSIONAL_EXPONENTS ( 1.000000000000000000, 0.0000000000000000000, 0.0000000000000000000, 0.0000000000000000000, 0.0000000000000000000, 0.0000000000000000000, 0.0000000000000000000 ) ;
#254 = CARTESIAN_POINT ( 'NONE',  ( 6.771653543307084400, -0.07420645557247274000, -3.936308473940193200 ) ) ;
#255 = ORIENTED_EDGE ( 'NONE', *, *, #96, .T. ) ;
#256 = DIRECTION ( 'NONE',  ( 1.000000000000000000, 0.0000000000000000000, 0.0000000000000000000 ) ) ;
#257 = CARTESIAN_POINT ( 'NONE',  ( 9.165794613466260900, -2.394141070159177400, 0.0000000000000000000 ) ) ;
#258 = CARTESIAN_POINT ( 'NONE',  ( 9.578196417325813200, 1.589324901039972100, -2.791493322165535100 ) ) ;
#259 = PERSON_AND_ORGANIZATION ( #218, #298 ) ;
#260 = FACE_OUTER_BOUND ( 'NONE', #4, .T. ) ;
#261 = CALENDAR_DATE ( 2017, 27, 7 ) ;
#262 = CARTESIAN_POINT ( 'NONE',  ( 6.771653543307082600, 3.937007874015747300, 2.340863321974608000 ) ) ;
#263 = ORIENTED_EDGE ( 'NONE', *, *, #147, .T. ) ;
#264 = SECURITY_CLASSIFICATION_LEVEL ( 'unclassified' ) ;
#265 = CARTESIAN_POINT ( 'NONE',  ( 4.103726818730782700, -6.440944881889740800, -3.220472440944874400 ) ) ;
#266 = DIRECTION ( 'NONE',  ( -1.000000000000000000, 0.0000000000000000000, 0.0000000000000000000 ) ) ;
#267 = CARTESIAN_POINT ( 'NONE',  ( 6.771653543307088800, -2.490463074311593900E-015, -3.220472440944881500 ) ) ;
#268 = VERTEX_POINT ( 'NONE', #189 ) ;
#269 = ORIENTED_EDGE ( 'NONE', *, *, #205, .T. ) ;
#270 = CARTESIAN_POINT ( 'NONE',  ( 6.771653543307083500, 1.853785152401810300, 3.255991817829798000 ) ) ;
#271 = EDGE_LOOP ( 'NONE', ( #155, #269 ) ) ;
#272 = DATE_AND_TIME ( #128, #252 ) ;
#273 = PRODUCT_DEFINITION_SHAPE ( 'NONE', 'NONE',  #156 ) ;
#274 = FACE_OUTER_BOUND ( 'NONE', #220, .T. ) ;
#275 = PERSON_AND_ORGANIZATION ( #218, #298 ) ;
#276 = DESIGN_CONTEXT ( 'detailed design', #94, 'design' ) ;
#277 = PRODUCT_DEFINITION_FORMATION_WITH_SPECIFIED_SOURCE ( 'ANY', '', #163, .NOT_KNOWN. ) ;
#278 = COORDINATED_UNIVERSAL_TIME_OFFSET ( 5, 0, .BEHIND. ) ;
#279 = CARTESIAN_POINT ( 'NONE',  ( 6.771653543307088800, -2.490463074311593900E-015, -3.220472440944881500 ) ) ;
#280 = CARTESIAN_POINT ( 'NONE',  ( 7.841378142434591000, 3.937007874015749000, 2.544033444099845200E-015 ) ) ;
#281 = ADVANCED_BREP_SHAPE_REPRESENTATION ( '581244080', ( #148, #13 ), #149 ) ;
#282 =( BOUNDED_SURFACE ( )  B_SPLINE_SURFACE ( 3, 3, ( 
 ( #306, #258, #195, #120, #24, #135, #219 ),
 ( #124, #153, #235, #161, #5, #21, #91 ),
 ( #160, #73, #20, #280, #243, #233, #43 ),
 ( #254, #185, #140, #55, #262, #116, #38 ) ),
 .UNSPECIFIED., .F., .F., .T. ) 
 B_SPLINE_SURFACE_WITH_KNOTS ( ( 4, 4 ),
 ( 4, 3, 4 ),
 ( 0.0000000000000000000, 1.000000000000000000 ),
 ( 0.0000000000000000000, 0.5000000000000000000, 1.000000000000000000 ),
 .UNSPECIFIED. ) 
 GEOMETRIC_REPRESENTATION_ITEM ( )  RATIONAL_B_SPLINE_SURFACE ( (
 ( 1.000000000000000000, 0.8002741005225374500, 0.8002741005225374500, 1.000000000000000000, 0.8002741005225374500, 0.8002741005225374500, 1.000000000000000000),
 ( 0.9482053969659239900, 0.7588242211675203500, 0.7588242211675203500, 0.9482053969659239900, 0.7588242211675203500, 0.7588242211675203500, 0.9482053969659239900),
 ( 0.9482053969659239900, 0.7588242211675203500, 0.7588242211675203500, 0.9482053969659239900, 0.7588242211675203500, 0.7588242211675203500, 0.9482053969659239900),
 ( 1.000000000000000000, 0.8002741005225374500, 0.8002741005225374500, 1.000000000000000000, 0.8002741005225374500, 0.8002741005225374500, 1.000000000000000000) ) ) 
 REPRESENTATION_ITEM ( '' )  SURFACE ( )  );
#283 = DIRECTION ( 'NONE',  ( 0.7071067811865480200, 0.7071067811865471300, 0.0000000000000000000 ) ) ;
#284 = FACE_OUTER_BOUND ( 'NONE', #303, .T. ) ;
#285 = EDGE_CURVE ( 'NONE', #157, #157, #59, .T. ) ;
#286 = APPROVAL_DATE_TIME ( #222, #295 ) ;
#287 = MECHANICAL_CONTEXT ( 'NONE', #28, 'mechanical' ) ;
#288 = CARTESIAN_POINT ( 'NONE',  ( 0.0000000000000000000, 0.0000000000000000000, -3.937007874015748100 ) ) ;
#289 = CARTESIAN_POINT ( 'NONE',  ( 7.646688265393388300, 1.853785152401818300, -3.255991817829795300 ) ) ;
#290 = EDGE_LOOP ( 'NONE', ( #90, #172 ) ) ;
#291 = DIRECTION ( 'NONE',  ( -1.000000000000000000, -2.799616768164300000E-017, -0.0000000000000000000 ) ) ;
#292 = CIRCLE ( 'NONE', #81, 3.220472440944881900 ) ;
#293 = APPROVAL ( #8, 'UNSPECIFIED' ) ;
#294 = EDGE_LOOP ( 'NONE', ( #193, #119 ) ) ;
#295 = APPROVAL ( #117, 'UNSPECIFIED' ) ;
#296 = FACE_OUTER_BOUND ( 'NONE', #290, .T. ) ;
#297 = APPROVAL_DATE_TIME ( #2, #109 ) ;
#298 = ORGANIZATION ( 'UNSPECIFIED', 'UNSPECIFIED', '' ) ;
#299 = ORIENTED_EDGE ( 'NONE', *, *, #285, .F. ) ;
#300 = DIRECTION ( 'NONE',  ( 1.000000000000000000, 0.0000000000000000000, 0.0000000000000000000 ) ) ;
#301 = CARTESIAN_POINT ( 'NONE',  ( 9.067405614254411700, -0.04256979747334490400, 2.258130417838982900 ) ) ;
#302 = CC_DESIGN_APPROVAL ( #293, ( #277 ) ) ;
#303 = EDGE_LOOP ( 'NONE', ( #167 ) ) ;
#304 = CARTESIAN_POINT ( 'NONE',  ( 14.34382064892681000, -2.004397175016992900, 6.837622712340872900E-032 ) ) ;
#305 = CC_DESIGN_PERSON_AND_ORGANIZATION_ASSIGNMENT ( #259, #198, ( #277 ) ) ;
#306 = CARTESIAN_POINT ( 'NONE',  ( 9.578196417325813200, -0.05204131720456960100, -2.760550633054993600 ) ) ;
#307 = CARTESIAN_POINT ( 'NONE',  ( 6.771653543307086100, -1.558167566935985800E-015, -3.937007874015748100 ) ) ;
#308 = CALENDAR_DATE ( 2017, 27, 7 ) ;
#309 = LENGTH_MEASURE_WITH_UNIT ( LENGTH_MEASURE( 0.02539999999999999900 ), #126 );
#310 = VERTEX_POINT ( 'NONE', #279 ) ;
#311 = PERSON_AND_ORGANIZATION_ROLE ( 'design_owner' ) ;
#312 = DIRECTION ( 'NONE',  ( 0.7071067811865470200, -0.7071067811865480200, -1.509050577595330000E-032 ) ) ;
ENDSEC;
END-ISO-10303-21;
