ISO-10303-21;
HEADER;
FILE_DESCRIPTION (( 'STEP AP203' ),
    '1' );
FILE_NAME ('581244100.STEP',
    '2017-07-27T18:57:33',
    ( '' ),
    ( '' ),
    'SwSTEP 2.0',
    'SolidWorks 2017',
    '' );
FILE_SCHEMA (( 'CONFIG_CONTROL_DESIGN' ));
ENDSEC;

DATA;
#1 = FACE_OUTER_BOUND ( 'NONE', #211, .T. ) ;
#2 = APPROVAL_DATE_TIME ( #205, #231 ) ;
#3 = DIRECTION ( 'NONE',  ( 0.0000000000000000000, 0.0000000000000000000, 1.000000000000000000 ) ) ;
#4 = EDGE_CURVE ( 'NONE', #76, #200, #258, .T. ) ;
#5 = DIRECTION ( 'NONE',  ( 0.7071067811865481300, 0.7071067811865471300, 0.0000000000000000000 ) ) ;
#6 = EDGE_CURVE ( 'NONE', #155, #155, #84, .T. ) ;
#7 = CARTESIAN_POINT ( 'NONE',  ( 10.64694316932427200, 2.074927436008763100, 3.644406551364315100 ) ) ;
#8 = ADVANCED_FACE ( 'NONE', ( #184, #203 ), #212, .T. ) ;
#9 = CARTESIAN_POINT ( 'NONE',  ( 10.64694316932427200, -0.06794202796617347700, 3.604009629037521600 ) ) ;
#10 = LOCAL_TIME ( 14, 57, 33.00000000000000000, #202 ) ;
#11 = CARTESIAN_POINT ( 'NONE',  ( 9.637635351521604200, -0.07591320405063617400, -4.026843568840821100 ) ) ;
#12 = FACE_OUTER_BOUND ( 'NONE', #221, .T. ) ;
#13 = CARTESIAN_POINT ( 'NONE',  ( 8.543307086614172300, 2.253612797886852200E-014, 4.921259842519685200 ) ) ;
#14 = CARTESIAN_POINT ( 'NONE',  ( 14.58433746131812500, -6.041030374703971100, 0.0000000000000000000 ) ) ;
#15 = DIRECTION ( 'NONE',  ( -0.7071067811865470200, 0.7071067811865480200, -0.0000000000000000000 ) ) ;
#16 = CC_DESIGN_SECURITY_CLASSIFICATION ( #196, ( #19 ) ) ;
#17 = ORIENTED_EDGE ( 'NONE', *, *, #207, .T. ) ;
#18 = EDGE_LOOP ( 'NONE', ( #309 ) ) ;
#19 = PRODUCT_DEFINITION_FORMATION_WITH_SPECIFIED_SOURCE ( 'ANY', '', #56, .NOT_KNOWN. ) ;
#20 = DIRECTION ( 'NONE',  ( 0.0000000000000000000, 0.0000000000000000000, -1.000000000000000000 ) ) ;
#21 =( BOUNDED_CURVE ( )  B_SPLINE_CURVE ( 3, ( #190, #178, #139, #282 ),
 .UNSPECIFIED., .F., .T. ) 
 B_SPLINE_CURVE_WITH_KNOTS ( ( 4, 4 ),
 ( 1.570796326794892100, 4.712388980384690600 ),
 .UNSPECIFIED. ) 
 CURVE ( )  GEOMETRIC_REPRESENTATION_ITEM ( )  RATIONAL_B_SPLINE_CURVE ( ( 1.000000000000000000, 0.3333333333333315900, 0.3333333333333315900, 1.000000000000000000 ) ) 
 REPRESENTATION_ITEM ( '' )  );
#22 = DIRECTION ( 'NONE',  ( 0.7071067811865479100, 0.7071067811865470200, 0.0000000000000000000 ) ) ;
#23 = DESIGN_CONTEXT ( 'detailed design', #270, 'design' ) ;
#24 = ORIENTED_EDGE ( 'NONE', *, *, #171, .F. ) ;
#25 = CARTESIAN_POINT ( 'NONE',  ( 11.56382227396614200, -3.020515187351984200, 0.0000000000000000000 ) ) ;
#26 = EDGE_CURVE ( 'NONE', #216, #305, #296, .T. ) ;
#27 = ORIENTED_EDGE ( 'NONE', *, *, #193, .T. ) ;
#28 = CARTESIAN_POINT ( 'NONE',  ( 8.543307086614174000, -8.962583242903149700E-017, 0.0000000000000000000 ) ) ;
#29 = DIRECTION ( 'NONE',  ( 0.7071067811865470200, -0.7071067811865480200, 0.0000000000000000000 ) ) ;
#30 = DIRECTION ( 'NONE',  ( -1.000000000000000000, -2.225313923457879900E-017, -0.0000000000000000000 ) ) ;
#31 = CALENDAR_DATE ( 2017, 27, 7 ) ;
#32 = CC_DESIGN_DATE_AND_TIME_ASSIGNMENT ( #149, #306, ( #196 ) ) ;
#33 = DIRECTION ( 'NONE',  ( 0.0000000000000000000, 1.000000000000000000, 0.0000000000000000000 ) ) ;
#34 = CARTESIAN_POINT ( 'NONE',  ( 12.05148567913758000, 3.451301406796768700, -2.052072318567481600 ) ) ;
#35 = CARTESIAN_POINT ( 'NONE',  ( 0.0000000000000000000, 0.0000000000000000000, 0.0000000000000000000 ) ) ;
#36 = EDGE_LOOP ( 'NONE', ( #17 ) ) ;
#37 = DIRECTION ( 'NONE',  ( 0.7071067811865470200, -0.7071067811865480200, 0.0000000000000000000 ) ) ;
#38 = CALENDAR_DATE ( 2017, 27, 7 ) ;
#39 = AXIS2_PLACEMENT_3D ( 'NONE', #46, #64, #44 ) ;
#40 = CALENDAR_DATE ( 2017, 27, 7 ) ;
#41 = CARTESIAN_POINT ( 'NONE',  ( 0.0000000000000000000, 0.0000000000000000000, 0.0000000000000000000 ) ) ;
#42 = CARTESIAN_POINT ( 'NONE',  ( 8.543307086614165200, 3.212654907628136800E-015, -4.921259842519685200 ) ) ;
#43 = CC_DESIGN_PERSON_AND_ORGANIZATION_ASSIGNMENT ( #181, #299, ( #19 ) ) ;
#44 = DIRECTION ( 'NONE',  ( 0.7071067811865474600, 0.7071067811865474600, 0.0000000000000000000 ) ) ;
#45 = CC_DESIGN_PERSON_AND_ORGANIZATION_ASSIGNMENT ( #269, #303, ( #196 ) ) ;
#46 = CARTESIAN_POINT ( 'NONE',  ( 16.32426556463149600, -4.301102271390630200, -6.026606071960512100E-016 ) ) ;
#47 = CARTESIAN_POINT ( 'NONE',  ( 10.64694316932427200, 3.604649986525644900, -2.143250207271588000 ) ) ;
#48 = EDGE_LOOP ( 'NONE', ( #128, #27 ) ) ;
#49 = DIRECTION ( 'NONE',  ( 1.000000000000000000, 0.0000000000000000000, 0.0000000000000000000 ) ) ;
#50 = CARTESIAN_POINT ( 'NONE',  ( 8.543307086614165200, 4.921259842519679000, -2.926079152468258600 ) ) ;
#51 = MANIFOLD_SOLID_BREP ( '1', #240 ) ;
#52 = DIRECTION ( 'NONE',  ( 0.0000000000000000000, 0.0000000000000000000, -1.000000000000000000 ) ) ;
#53 = CARTESIAN_POINT ( 'NONE',  ( 8.543307086614168700, -5.463695987328526400E-015, 0.0000000000000000000 ) ) ;
#54 = ADVANCED_FACE ( 'NONE', ( #172 ), #185, .F. ) ;
#55 = CARTESIAN_POINT ( 'NONE',  ( 11.56382227396614200, -3.020515187351984200, 0.0000000000000000000 ) ) ;
#56 = PRODUCT ( '581244100', '581244100', '', ( #237 ) ) ;
#57 = CARTESIAN_POINT ( 'NONE',  ( 11.11373240761869300, 4.404508781189687000, -2.618829676529315500 ) ) ;
#58 = CARTESIAN_POINT ( 'NONE',  ( 8.543307086614163400, -0.07591320405063772800, 4.026843568840818400 ) ) ;
#59 = AXIS2_PLACEMENT_3D ( 'NONE', #55, #37, #89 ) ;
#60 = CARTESIAN_POINT ( 'NONE',  ( 8.543307086614170500, -8.195543980992789300E-015, 0.0000000000000000000 ) ) ;
#61 = DIRECTION ( 'NONE',  ( 1.000000000000000000, 0.0000000000000000000, 0.0000000000000000000 ) ) ;
#62 = CC_DESIGN_PERSON_AND_ORGANIZATION_ASSIGNMENT ( #143, #267, ( #56 ) ) ;
#63 = DIRECTION ( 'NONE',  ( 0.7071067811865479100, 0.7071067811865470200, 0.0000000000000000000 ) ) ;
#64 = DIRECTION ( 'NONE',  ( 0.7071067811865475700, -0.7071067811865475700, -2.465190328815662400E-032 ) ) ;
#65 = CARTESIAN_POINT ( 'NONE',  ( 8.543307086614165200, -0.09275806946556663900, 4.920385592425241800 ) ) ;
#66 = CARTESIAN_POINT ( 'NONE',  ( 8.543307086614163400, -3.485119706987023000E-016, 4.027559055118110200 ) ) ;
#67 = APPROVAL ( #285, 'UNSPECIFIED' ) ;
#68 = CARTESIAN_POINT ( 'NONE',  ( 18.06419366794483800, -2.561174168077263100, 0.0000000000000000000 ) ) ;
#69 = DIRECTION ( 'NONE',  ( -0.7071067811865470200, 0.7071067811865480200, -0.0000000000000000000 ) ) ;
#70 = EDGE_CURVE ( 'NONE', #305, #216, #159, .T. ) ;
#71 = CARTESIAN_POINT ( 'NONE',  ( 14.58433746131814200, -6.041030374703989700, 0.0000000000000000000 ) ) ;
#72 = CC_DESIGN_APPROVAL ( #67, ( #19 ) ) ;
#73 = CIRCLE ( 'NONE', #261, 4.921259842519685200 ) ;
#74 = COORDINATED_UNIVERSAL_TIME_OFFSET ( 5, 0, .BEHIND. ) ;
#75 = DIRECTION ( 'NONE',  ( -1.000000000000000000, 0.0000000000000000000, 0.0000000000000000000 ) ) ;
#76 = VERTEX_POINT ( 'NONE', #42 ) ;
#77 = PRODUCT_DEFINITION ( 'UNKNOWN', '', #19, #23 ) ;
#78 = CC_DESIGN_PERSON_AND_ORGANIZATION_ASSIGNMENT ( #244, #280, ( #77 ) ) ;
#79 = CARTESIAN_POINT ( 'NONE',  ( 12.05148567913758000, 1.986656126299964700, -3.489366652706920000 ) ) ;
#80 =( NAMED_UNIT ( * ) PLANE_ANGLE_UNIT ( ) SI_UNIT ( $, .RADIAN. ) );
#81 = CARTESIAN_POINT ( 'NONE',  ( 8.543307086614165200, 3.167841991413621200E-015, -4.027559055118110200 ) ) ;
#82 = ADVANCED_BREP_SHAPE_REPRESENTATION ( '581244100', ( #51, #122 ), #259 ) ;
#83 = CARTESIAN_POINT ( 'NONE',  ( 8.543307086614165200, 3.167841991413621200E-015, -4.027559055118110200 ) ) ;
#84 = CIRCLE ( 'NONE', #288, 4.027559055118110200 ) ;
#85 = CARTESIAN_POINT ( 'NONE',  ( 12.05148567913757800, -0.06505164650570899300, -3.450688291318745100 ) ) ;
#86 = CARTESIAN_POINT ( 'NONE',  ( 17.43225178082144600, -3.193116055200691400, 0.0000000000000000000 ) ) ;
#87 = CARTESIAN_POINT ( 'NONE',  ( 12.05148567913757800, 3.451301406796773100, -6.983286433804272800E-015 ) ) ;
#88 = CARTESIAN_POINT ( 'NONE',  ( 12.05148567913758000, 3.451301406796777500, 2.052072318567467900 ) ) ;
#89 = DIRECTION ( 'NONE',  ( 0.7071067811865479100, 0.7071067811865470200, 0.0000000000000000000 ) ) ;
#90 = EDGE_LOOP ( 'NONE', ( #179, #311 ) ) ;
#91 = CARTESIAN_POINT ( 'NONE',  ( 9.880462835523552200, 4.921259842519681600, -2.926079152468259900 ) ) ;
#92 = CARTESIAN_POINT ( 'NONE',  ( 12.05148567913758000, 1.986656126299979100, 3.489366652706912000 ) ) ;
#93 = LOCAL_TIME ( 14, 57, 33.00000000000000000, #232 ) ;
#94 = CARTESIAN_POINT ( 'NONE',  ( 11.41440044673532800, 1.625879373763891700, 2.855697668575341900 ) ) ;
#95 = CC_DESIGN_PERSON_AND_ORGANIZATION_ASSIGNMENT ( #105, #289, ( #19 ) ) ;
#96 = CARTESIAN_POINT ( 'NONE',  ( 11.41440044673532800, 2.824545071322476900, 1.679415985515623900 ) ) ;
#97 = CARTESIAN_POINT ( 'NONE',  ( 11.41440044673533000, 2.824545071322476900, 5.676833095045289700E-016 ) ) ;
#98 = CARTESIAN_POINT ( 'NONE',  ( 12.05148567913757800, -0.06505164650569503200, 3.450688291318745500 ) ) ;
#99 =( BOUNDED_SURFACE ( )  B_SPLINE_SURFACE ( 3, 3, ( 
 ( #85, #79, #34, #87, #88, #92, #98 ),
 ( #183, #283, #57, #127, #119, #266, #102 ),
 ( #204, #148, #91, #304, #133, #265, #245 ),
 ( #189, #161, #50, #301, #173, #187, #65 ) ),
 .UNSPECIFIED., .F., .F., .F. ) 
 B_SPLINE_SURFACE_WITH_KNOTS ( ( 4, 4 ),
 ( 4, 3, 4 ),
 ( 0.0000000000000000000, 1.000000000000000000 ),
 ( 0.0000000000000000000, 0.5000000000000000000, 1.000000000000000000 ),
 .UNSPECIFIED. ) 
 GEOMETRIC_REPRESENTATION_ITEM ( )  RATIONAL_B_SPLINE_SURFACE ( (
 ( 1.000000000000000000, 0.8002741005225383300, 0.8002741005225383300, 1.000000000000000000, 0.8002741005225383300, 0.8002741005225383300, 1.000000000000000000),
 ( 0.9482053969659239900, 0.7588242211675212400, 0.7588242211675212400, 0.9482053969659239900, 0.7588242211675212400, 0.7588242211675212400, 0.9482053969659239900),
 ( 0.9482053969659239900, 0.7588242211675212400, 0.7588242211675212400, 0.9482053969659239900, 0.7588242211675212400, 0.7588242211675212400, 0.9482053969659239900),
 ( 1.000000000000000000, 0.8002741005225383300, 0.8002741005225383300, 1.000000000000000000, 0.8002741005225383300, 0.8002741005225383300, 1.000000000000000000) ) ) 
 REPRESENTATION_ITEM ( '' )  SURFACE ( )  );
#100 = CARTESIAN_POINT ( 'NONE',  ( 11.41440044673532800, 2.824545071322477300, -1.679415985515622500 ) ) ;
#101 = ADVANCED_FACE ( 'NONE', ( #219, #199 ), #138, .T. ) ;
#102 = CARTESIAN_POINT ( 'NONE',  ( 11.11373240761869300, -0.08301811823821769700, 4.403726330691007700 ) ) ;
#103 = CARTESIAN_POINT ( 'NONE',  ( 8.543307086614165200, 4.027559055118110200, 2.394703178380020300 ) ) ;
#104 = DATE_AND_TIME ( #170, #93 ) ;
#105 = PERSON_AND_ORGANIZATION ( #262, #224 ) ;
#106 = DIMENSIONAL_EXPONENTS ( 1.000000000000000000, 0.0000000000000000000, 0.0000000000000000000, 0.0000000000000000000, 0.0000000000000000000, 0.0000000000000000000, 0.0000000000000000000 ) ;
#107 = PLANE ( 'NONE',  #198 ) ;
#108 = AXIS2_PLACEMENT_3D ( 'NONE', #60, #144, #295 ) ;
#109 = EDGE_LOOP ( 'NONE', ( #120, #235 ) ) ;
#110 = FACE_OUTER_BOUND ( 'NONE', #243, .T. ) ;
#111 = AXIS2_PLACEMENT_3D ( 'NONE', #41, #49, #52 ) ;
#112 = CARTESIAN_POINT ( 'NONE',  ( 10.64694316932427200, 2.074927436008763900, -3.644406551364312900 ) ) ;
#113 = EDGE_CURVE ( 'NONE', #200, #76, #21, .T. ) ;
#114 = CARTESIAN_POINT ( 'NONE',  ( 10.64694316932427200, -0.06794202796617200600, -3.604009629037521200 ) ) ;
#115 = CARTESIAN_POINT ( 'NONE',  ( 10.64694316932427200, 3.604649986525644500, 7.213497591481438400E-016 ) ) ;
#116 = CYLINDRICAL_SURFACE ( 'NONE', #174, 4.027559055118110200 ) ;
#117 = CARTESIAN_POINT ( 'NONE',  ( 8.543307086614165200, 2.318364561011073500, 4.071979987334809300 ) ) ;
#118 = CARTESIAN_POINT ( 'NONE',  ( 4.271653543307087000, -1.846835334901259800E-016, 0.0000000000000000000 ) ) ;
#119 = CARTESIAN_POINT ( 'NONE',  ( 11.11373240761869300, 4.404508781189697700, 2.618829676529298200 ) ) ;
#120 = ORIENTED_EDGE ( 'NONE', *, *, #113, .T. ) ;
#121 = CARTESIAN_POINT ( 'NONE',  ( 11.41440044673532800, 1.625879373763893000, -2.855697668575341500 ) ) ;
#122 = AXIS2_PLACEMENT_3D ( 'NONE', #35, #176, #241 ) ;
#123 = CARTESIAN_POINT ( 'NONE',  ( 0.0000000000000000000, 0.0000000000000000000, -4.921259842519685200 ) ) ;
#124 = EDGE_LOOP ( 'NONE', ( #254 ) ) ;
#125 = FACE_OUTER_BOUND ( 'NONE', #90, .T. ) ;
#126 = CARTESIAN_POINT ( 'NONE',  ( 8.543307086614174000, 0.0000000000000000000, 0.0000000000000000000 ) ) ;
#127 = CARTESIAN_POINT ( 'NONE',  ( 11.11373240761869300, 4.404508781189691500, -8.912654079329659400E-015 ) ) ;
#128 = ORIENTED_EDGE ( 'NONE', *, *, #70, .T. ) ;
#129 = FACE_OUTER_BOUND ( 'NONE', #36, .T. ) ;
#130 = EDGE_LOOP ( 'NONE', ( #234, #229 ) ) ;
#131 = ORIENTED_EDGE ( 'NONE', *, *, #6, .F. ) ;
#132 = PRODUCT_DEFINITION_SHAPE ( 'NONE', 'NONE',  #77 ) ;
#133 = CARTESIAN_POINT ( 'NONE',  ( 9.880462835523552200, 4.921259842519694100, 2.926079152468240400 ) ) ;
#134 =( CONVERSION_BASED_UNIT ( 'INCH', #273 ) LENGTH_UNIT ( ) NAMED_UNIT ( #106 ) );
#135 = EDGE_CURVE ( 'NONE', #308, #308, #168, .T. ) ;
#136 = APPROVAL_DATE_TIME ( #272, #67 ) ;
#137 = AXIS2_PLACEMENT_3D ( 'NONE', #28, #30, #33 ) ;
#138 = PLANE ( 'NONE',  #39 ) ;
#139 = CARTESIAN_POINT ( 'NONE',  ( 4.466401945146669700, -9.842519685039416500, -4.921259842519691400 ) ) ;
#140 = EDGE_LOOP ( 'NONE', ( #271 ) ) ;
#141 = CARTESIAN_POINT ( 'NONE',  ( -8.962583242903194000E-017, 4.027559055118110200, 0.0000000000000000000 ) ) ;
#142 = CC_DESIGN_APPROVAL ( #292, ( #77 ) ) ;
#143 = PERSON_AND_ORGANIZATION ( #262, #224 ) ;
#144 = DIRECTION ( 'NONE',  ( 0.7071067811865470200, -0.7071067811865480200, 0.0000000000000000000 ) ) ;
#145 = DIRECTION ( 'NONE',  ( -2.225313923457880200E-017, 1.000000000000000000, 0.0000000000000000000 ) ) ;
#146 = AXIS2_PLACEMENT_3D ( 'NONE', #14, #15, #22 ) ;
#147 = EDGE_LOOP ( 'NONE', ( #24, #226 ) ) ;
#148 = CARTESIAN_POINT ( 'NONE',  ( 9.880462835523552200, 2.832801272007663000, -4.975537618933050700 ) ) ;
#149 = DATE_AND_TIME ( #40, #286 ) ;
#150 = COORDINATED_UNIVERSAL_TIME_OFFSET ( 5, 0, .BEHIND. ) ;
#151 = DIRECTION ( 'NONE',  ( 1.000000000000000000, 2.225313923457879900E-017, 0.0000000000000000000 ) ) ;
#152 = ADVANCED_FACE ( 'NONE', ( #110, #162 ), #107, .T. ) ;
#153 = APPROVAL_PERSON_ORGANIZATION ( #298, #67, #287 ) ;
#154 = APPROVAL_DATE_TIME ( #104, #292 ) ;
#155 = VERTEX_POINT ( 'NONE', #86 ) ;
#156 = DIRECTION ( 'NONE',  ( 1.000000000000000000, 2.225313923457879900E-017, 0.0000000000000000000 ) ) ;
#157 = SHAPE_DEFINITION_REPRESENTATION ( #132, #82 ) ;
#158 =( LENGTH_UNIT ( ) NAMED_UNIT ( * ) SI_UNIT ( $, .METRE. ) );
#159 = CIRCLE ( 'NONE', #108, 4.027559055118110200 ) ;
#160 = PERSON_AND_ORGANIZATION ( #262, #224 ) ;
#161 = CARTESIAN_POINT ( 'NONE',  ( 8.543307086614165200, 2.832801272007662100, -4.975537618933048900 ) ) ;
#162 = FACE_BOUND ( 'NONE', #18, .T. ) ;
#163 = CARTESIAN_POINT ( 'NONE',  ( 11.41440044673533000, -0.05323826750027340500, 2.824043297615258700 ) ) ;
#164 = FACE_OUTER_BOUND ( 'NONE', #222, .T. ) ;
#165 = PRODUCT_RELATED_PRODUCT_CATEGORY ( 'detail', '', ( #56 ) ) ;
#166 = CARTESIAN_POINT ( 'NONE',  ( 0.0000000000000000000, -2.797412345512204400E-016, 0.0000000000000000000 ) ) ;
#167 = PERSON_AND_ORGANIZATION ( #262, #224 ) ;
#168 = CIRCLE ( 'NONE', #307, 4.027559055118110200 ) ;
#169 = COORDINATED_UNIVERSAL_TIME_OFFSET ( 5, 0, .BEHIND. ) ;
#170 = CALENDAR_DATE ( 2017, 27, 7 ) ;
#171 = EDGE_CURVE ( 'NONE', #76, #200, #73, .T. ) ;
#172 = FACE_OUTER_BOUND ( 'NONE', #48, .T. ) ;
#173 = CARTESIAN_POINT ( 'NONE',  ( 8.543307086614165200, 4.921259842519690500, 2.926079152468239000 ) ) ;
#174 = AXIS2_PLACEMENT_3D ( 'NONE', #25, #264, #5 ) ;
#175 = UNCERTAINTY_MEASURE_WITH_UNIT (LENGTH_MEASURE( 1.000000000000000100E-005 ), #134, 'distance_accuracy_value', 'NONE');
#176 = DIRECTION ( 'NONE',  ( 0.0000000000000000000, 0.0000000000000000000, 1.000000000000000000 ) ) ;
#177 = ORIENTED_EDGE ( 'NONE', *, *, #135, .F. ) ;
#178 = CARTESIAN_POINT ( 'NONE',  ( 4.466401945146676800, -9.842519685039397000, 4.921259842519728700 ) ) ;
#179 = ORIENTED_EDGE ( 'NONE', *, *, #70, .F. ) ;
#180 = ADVANCED_FACE ( 'NONE', ( #12, #263 ), #251, .F. ) ;
#181 = PERSON_AND_ORGANIZATION ( #262, #224 ) ;
#182 = EDGE_CURVE ( 'NONE', #312, #312, #214, .T. ) ;
#183 = CARTESIAN_POINT ( 'NONE',  ( 11.11373240761869300, -0.08301811823823548900, -4.403726330691006800 ) ) ;
#184 = FACE_OUTER_BOUND ( 'NONE', #140, .T. ) ;
#185 =( BOUNDED_SURFACE ( )  B_SPLINE_SURFACE ( 3, 3, ( 
 ( #191, #121, #100, #97, #96, #94, #163 ),
 ( #114, #112, #47, #115, #247, #7, #9 ),
 ( #11, #230, #228, #223, #218, #215, #206 ),
 ( #197, #195, #255, #252, #103, #117, #58 ) ),
 .UNSPECIFIED., .F., .F., .T. ) 
 B_SPLINE_SURFACE_WITH_KNOTS ( ( 4, 4 ),
 ( 4, 3, 4 ),
 ( 0.0000000000000000000, 1.000000000000000000 ),
 ( 0.0000000000000000000, 0.5000000000000000000, 1.000000000000000000 ),
 .UNSPECIFIED. ) 
 GEOMETRIC_REPRESENTATION_ITEM ( )  RATIONAL_B_SPLINE_SURFACE ( (
 ( 1.000000000000000000, 0.8002741005225377800, 0.8002741005225377800, 1.000000000000000000, 0.8002741005225377800, 0.8002741005225377800, 1.000000000000000000),
 ( 0.9482053969659238700, 0.7588242211675205700, 0.7588242211675205700, 0.9482053969659238700, 0.7588242211675205700, 0.7588242211675205700, 0.9482053969659238700),
 ( 0.9482053969659238700, 0.7588242211675205700, 0.7588242211675205700, 0.9482053969659238700, 0.7588242211675205700, 0.7588242211675205700, 0.9482053969659238700),
 ( 1.000000000000000000, 0.8002741005225377800, 0.8002741005225377800, 1.000000000000000000, 0.8002741005225377800, 0.8002741005225377800, 1.000000000000000000) ) ) 
 REPRESENTATION_ITEM ( '' )  SURFACE ( )  );
#186 = CARTESIAN_POINT ( 'NONE',  ( 5.206767918837179800, -8.055118110236229300, 4.027559055118110200 ) ) ;
#187 = CARTESIAN_POINT ( 'NONE',  ( 8.543307086614165200, 2.832801272007681600, 4.975537618933037400 ) ) ;
#188 = ORIENTED_EDGE ( 'NONE', *, *, #171, .T. ) ;
#189 = CARTESIAN_POINT ( 'NONE',  ( 8.543307086614165200, -0.09275806946558655400, -4.920385592425241800 ) ) ;
#190 = CARTESIAN_POINT ( 'NONE',  ( 8.543307086614172300, 2.253612797886852200E-014, 4.921259842519685200 ) ) ;
#191 = CARTESIAN_POINT ( 'NONE',  ( 11.41440044673533000, -0.05323826750027228100, -2.824043297615258700 ) ) ;
#192 = LOCAL_TIME ( 14, 57, 33.00000000000000000, #74 ) ;
#193 = EDGE_CURVE ( 'NONE', #216, #305, #217, .T. ) ;
#194 = DATE_AND_TIME ( #209, #192 ) ;
#195 = CARTESIAN_POINT ( 'NONE',  ( 8.543307086614165200, 2.318364561011074800, -4.071979987334807500 ) ) ;
#196 = SECURITY_CLASSIFICATION ( '', '', #300 ) ;
#197 = CARTESIAN_POINT ( 'NONE',  ( 8.543307086614163400, -0.07591320405063611800, -4.026843568840817500 ) ) ;
#198 = AXIS2_PLACEMENT_3D ( 'NONE', #242, #75, #3 ) ;
#199 = FACE_BOUND ( 'NONE', #238, .T. ) ;
#200 = VERTEX_POINT ( 'NONE', #13 ) ;
#201 = ADVANCED_FACE ( 'NONE', ( #164, #125 ), #116, .F. ) ;
#202 = COORDINATED_UNIVERSAL_TIME_OFFSET ( 5, 0, .BEHIND. ) ;
#203 = FACE_OUTER_BOUND ( 'NONE', #109, .T. ) ;
#204 = CARTESIAN_POINT ( 'NONE',  ( 9.880462835523546900, -0.09275806946558658200, -4.920385592425243500 ) ) ;
#205 = DATE_AND_TIME ( #38, #10 ) ;
#206 = CARTESIAN_POINT ( 'NONE',  ( 9.637635351521604200, -0.07591320405063778400, 4.026843568840821100 ) ) ;
#207 = EDGE_CURVE ( 'NONE', #253, #253, #281, .T. ) ;
#208 = DIRECTION ( 'NONE',  ( 0.0000000000000000000, 1.000000000000000000, 0.0000000000000000000 ) ) ;
#209 = CALENDAR_DATE ( 2017, 27, 7 ) ;
#210 = APPROVAL_PERSON_ORGANIZATION ( #160, #231, #250 ) ;
#211 = EDGE_LOOP ( 'NONE', ( #275, #188 ) ) ;
#212 = CYLINDRICAL_SURFACE ( 'NONE', #59, 4.921259842519685200 ) ;
#213 = LOCAL_TIME ( 14, 57, 33.00000000000000000, #150 ) ;
#214 = CIRCLE ( 'NONE', #146, 4.921259842519685200 ) ;
#215 = CARTESIAN_POINT ( 'NONE',  ( 9.637635351521604200, 2.318364561011075200, 4.071979987334811900 ) ) ;
#216 = VERTEX_POINT ( 'NONE', #268 ) ;
#217 = CIRCLE ( 'NONE', #137, 4.027559055118110200 ) ;
#218 = CARTESIAN_POINT ( 'NONE',  ( 9.637635351521604200, 4.027559055118113700, 2.394703178380022600 ) ) ;
#219 = FACE_OUTER_BOUND ( 'NONE', #124, .T. ) ;
#220 = APPLICATION_PROTOCOL_DEFINITION ( 'international standard', 'config_control_design', 1994, #276 ) ;
#221 = EDGE_LOOP ( 'NONE', ( #177 ) ) ;
#222 = EDGE_LOOP ( 'NONE', ( #131 ) ) ;
#223 = CARTESIAN_POINT ( 'NONE',  ( 9.637635351521604200, 4.027559055118113700, 8.067200089501519800E-016 ) ) ;
#224 = ORGANIZATION ( 'UNSPECIFIED', 'UNSPECIFIED', '' ) ;
#225 = DIRECTION ( 'NONE',  ( 1.000000000000000000, 0.0000000000000000000, 0.0000000000000000000 ) ) ;
#226 = ORIENTED_EDGE ( 'NONE', *, *, #113, .F. ) ;
#227 = ADVANCED_FACE ( 'NONE', ( #257, #129 ), #233, .T. ) ;
#228 = CARTESIAN_POINT ( 'NONE',  ( 9.637635351521604200, 4.027559055118113700, -2.394703178380020300 ) ) ;
#229 = ORIENTED_EDGE ( 'NONE', *, *, #193, .F. ) ;
#230 = CARTESIAN_POINT ( 'NONE',  ( 9.637635351521604200, 2.318364561011076100, -4.071979987334811000 ) ) ;
#231 = APPROVAL ( #310, 'UNSPECIFIED' ) ;
#232 = COORDINATED_UNIVERSAL_TIME_OFFSET ( 5, 0, .BEHIND. ) ;
#233 = CYLINDRICAL_SURFACE ( 'NONE', #236, 4.921259842519685200 ) ;
#234 = ORIENTED_EDGE ( 'NONE', *, *, #26, .T. ) ;
#235 = ORIENTED_EDGE ( 'NONE', *, *, #4, .T. ) ;
#236 = AXIS2_PLACEMENT_3D ( 'NONE', #256, #61, #20 ) ;
#237 = MECHANICAL_CONTEXT ( 'NONE', #276, 'mechanical' ) ;
#238 = EDGE_LOOP ( 'NONE', ( #294 ) ) ;
#239 = CC_DESIGN_APPROVAL ( #231, ( #196 ) ) ;
#240 = CLOSED_SHELL ( 'NONE', ( #8, #297, #227, #101, #152, #201, #180, #54 ) ) ;
#241 = DIRECTION ( 'NONE',  ( 1.000000000000000000, 0.0000000000000000000, 0.0000000000000000000 ) ) ;
#242 = CARTESIAN_POINT ( 'NONE',  ( 0.0000000000000000000, 2.460629921259842600, -6.026606071960512100E-016 ) ) ;
#243 = EDGE_LOOP ( 'NONE', ( #249 ) ) ;
#244 = PERSON_AND_ORGANIZATION ( #262, #224 ) ;
#245 = CARTESIAN_POINT ( 'NONE',  ( 9.880462835523546900, -0.09275806946556666700, 4.920385592425243500 ) ) ;
#246 = APPROVAL_PERSON_ORGANIZATION ( #167, #292, #278 ) ;
#247 = CARTESIAN_POINT ( 'NONE',  ( 10.64694316932427200, 3.604649986525643600, 2.143250207271589300 ) ) ;
#248 = AXIS2_PLACEMENT_3D ( 'NONE', #118, #151, #291 ) ;
#249 = ORIENTED_EDGE ( 'NONE', *, *, #207, .F. ) ;
#250 = APPROVAL_ROLE ( '' ) ;
#251 = CYLINDRICAL_SURFACE ( 'NONE', #248, 4.027559055118110200 ) ;
#252 = CARTESIAN_POINT ( 'NONE',  ( 8.543307086614163400, 4.027559055118111100, 8.067200089501519800E-016 ) ) ;
#253 = VERTEX_POINT ( 'NONE', #123 ) ;
#254 = ORIENTED_EDGE ( 'NONE', *, *, #182, .F. ) ;
#255 = CARTESIAN_POINT ( 'NONE',  ( 8.543307086614165200, 4.027559055118111100, -2.394703178380018600 ) ) ;
#256 = CARTESIAN_POINT ( 'NONE',  ( 4.271653543307087000, 0.0000000000000000000, 0.0000000000000000000 ) ) ;
#257 = FACE_OUTER_BOUND ( 'NONE', #147, .T. ) ;
#258 = CIRCLE ( 'NONE', #279, 4.921259842519685200 ) ;
#259 =( GEOMETRIC_REPRESENTATION_CONTEXT ( 3 ) GLOBAL_UNCERTAINTY_ASSIGNED_CONTEXT ( ( #175 ) ) GLOBAL_UNIT_ASSIGNED_CONTEXT ( ( #134, #80, #290 ) ) REPRESENTATION_CONTEXT ( 'NONE', 'WORKASPACE' ) );
#260 = DIRECTION ( 'NONE',  ( 0.7071067811865481300, 0.7071067811865471300, 0.0000000000000000000 ) ) ;
#261 = AXIS2_PLACEMENT_3D ( 'NONE', #126, #225, #208 ) ;
#262 = PERSON ( 'UNSPECIFIED', 'UNSPECIFIED', 'UNSPECIFIED', ('UNSPECIFIED'), ('UNSPECIFIED'), ('UNSPECIFIED') ) ;
#263 = FACE_OUTER_BOUND ( 'NONE', #130, .T. ) ;
#264 = DIRECTION ( 'NONE',  ( 0.7071067811865470200, -0.7071067811865480200, 0.0000000000000000000 ) ) ;
#265 = CARTESIAN_POINT ( 'NONE',  ( 9.880462835523552200, 2.832801272007682900, 4.975537618933040000 ) ) ;
#266 = CARTESIAN_POINT ( 'NONE',  ( 11.11373240761869300, 2.535346329433987300, 4.453087183973980100 ) ) ;
#267 = PERSON_AND_ORGANIZATION_ROLE ( 'design_owner' ) ;
#268 = CARTESIAN_POINT ( 'NONE',  ( 8.543307086614163400, -3.485119706987023000E-016, 4.027559055118110200 ) ) ;
#269 = PERSON_AND_ORGANIZATION ( #262, #224 ) ;
#270 = APPLICATION_CONTEXT ( 'configuration controlled 3d designs of mechanical parts and assemblies' ) ;
#271 = ORIENTED_EDGE ( 'NONE', *, *, #182, .T. ) ;
#272 = DATE_AND_TIME ( #31, #213 ) ;
#273 = LENGTH_MEASURE_WITH_UNIT ( LENGTH_MEASURE( 0.02539999999999999900 ), #158 );
#274 = APPLICATION_PROTOCOL_DEFINITION ( 'international standard', 'config_control_design', 1994, #270 ) ;
#275 = ORIENTED_EDGE ( 'NONE', *, *, #4, .F. ) ;
#276 = APPLICATION_CONTEXT ( 'configuration controlled 3d designs of mechanical parts and assemblies' ) ;
#277 = APPROVAL_STATUS ( 'not_yet_approved' ) ;
#278 = APPROVAL_ROLE ( '' ) ;
#279 = AXIS2_PLACEMENT_3D ( 'NONE', #53, #29, #63 ) ;
#280 = PERSON_AND_ORGANIZATION_ROLE ( 'creator' ) ;
#281 = CIRCLE ( 'NONE', #111, 4.921259842519685200 ) ;
#282 = CARTESIAN_POINT ( 'NONE',  ( 8.543307086614165200, 3.212654907628136800E-015, -4.921259842519685200 ) ) ;
#283 = CARTESIAN_POINT ( 'NONE',  ( 11.11373240761869300, 2.535346329433969500, -4.453087183973989800 ) ) ;
#284 = DATE_TIME_ROLE ( 'creation_date' ) ;
#285 = APPROVAL_STATUS ( 'not_yet_approved' ) ;
#286 = LOCAL_TIME ( 14, 57, 33.00000000000000000, #169 ) ;
#287 = APPROVAL_ROLE ( '' ) ;
#288 = AXIS2_PLACEMENT_3D ( 'NONE', #71, #69, #260 ) ;
#289 = PERSON_AND_ORGANIZATION_ROLE ( 'creator' ) ;
#290 =( NAMED_UNIT ( * ) SI_UNIT ( $, .STERADIAN. ) SOLID_ANGLE_UNIT ( ) );
#291 = DIRECTION ( 'NONE',  ( 0.0000000000000000000, 1.000000000000000000, 0.0000000000000000000 ) ) ;
#292 = APPROVAL ( #277, 'UNSPECIFIED' ) ;
#293 = CARTESIAN_POINT ( 'NONE',  ( 5.206767918837179800, -8.055118110236225700, -4.027559055118115500 ) ) ;
#294 = ORIENTED_EDGE ( 'NONE', *, *, #6, .T. ) ;
#295 = DIRECTION ( 'NONE',  ( 0.7071067811865481300, 0.7071067811865471300, 0.0000000000000000000 ) ) ;
#296 =( BOUNDED_CURVE ( )  B_SPLINE_CURVE ( 3, ( #66, #186, #293, #83 ),
 .UNSPECIFIED., .F., .T. ) 
 B_SPLINE_CURVE_WITH_KNOTS ( ( 4, 4 ),
 ( 1.570796326794896600, 4.712388980384690600 ),
 .UNSPECIFIED. ) 
 CURVE ( )  GEOMETRIC_REPRESENTATION_ITEM ( )  RATIONAL_B_SPLINE_CURVE ( ( 1.000000000000000000, 0.3333333333333330400, 0.3333333333333330400, 1.000000000000000000 ) ) 
 REPRESENTATION_ITEM ( '' )  );
#297 = ADVANCED_FACE ( 'NONE', ( #1 ), #99, .T. ) ;
#298 = PERSON_AND_ORGANIZATION ( #262, #224 ) ;
#299 = PERSON_AND_ORGANIZATION_ROLE ( 'design_supplier' ) ;
#300 = SECURITY_CLASSIFICATION_LEVEL ( 'unclassified' ) ;
#301 = CARTESIAN_POINT ( 'NONE',  ( 8.543307086614165200, 4.921259842519685200, -9.954171126914158700E-015 ) ) ;
#302 = CC_DESIGN_DATE_AND_TIME_ASSIGNMENT ( #194, #284, ( #77 ) ) ;
#303 = PERSON_AND_ORGANIZATION_ROLE ( 'classification_officer' ) ;
#304 = CARTESIAN_POINT ( 'NONE',  ( 9.880462835523546900, 4.921259842519687800, -9.971245176874562000E-015 ) ) ;
#305 = VERTEX_POINT ( 'NONE', #81 ) ;
#306 = DATE_TIME_ROLE ( 'classification_date' ) ;
#307 = AXIS2_PLACEMENT_3D ( 'NONE', #166, #156, #145 ) ;
#308 = VERTEX_POINT ( 'NONE', #141 ) ;
#309 = ORIENTED_EDGE ( 'NONE', *, *, #135, .T. ) ;
#310 = APPROVAL_STATUS ( 'not_yet_approved' ) ;
#311 = ORIENTED_EDGE ( 'NONE', *, *, #26, .F. ) ;
#312 = VERTEX_POINT ( 'NONE', #68 ) ;
ENDSEC;
END-ISO-10303-21;
