ISO-10303-21;
HEADER;
FILE_DESCRIPTION (( 'STEP AP203' ),
    '1' );
FILE_NAME ('581244120.STEP',
    '2017-07-27T18:59:35',
    ( '' ),
    ( '' ),
    'SwSTEP 2.0',
    'SolidWorks 2017',
    '' );
FILE_SCHEMA (( 'CONFIG_CONTROL_DESIGN' ));
ENDSEC;

DATA;
#1 = PRODUCT_DEFINITION_FORMATION_WITH_SPECIFIED_SOURCE ( 'ANY', '', #58, .NOT_KNOWN. ) ;
#2 = AXIS2_PLACEMENT_3D ( 'NONE', #92, #101, #134 ) ;
#3 = VERTEX_POINT ( 'NONE', #244 ) ;
#4 = DIRECTION ( 'NONE',  ( 0.7071067811865470200, -0.7071067811865480200, -2.430885817712560000E-032 ) ) ;
#5 = EDGE_LOOP ( 'NONE', ( #117 ) ) ;
#6 = DIRECTION ( 'NONE',  ( 0.7071067811865481300, 0.7071067811865469100, 0.0000000000000000000 ) ) ;
#7 = ORGANIZATION ( 'UNSPECIFIED', 'UNSPECIFIED', '' ) ;
#8 = DIRECTION ( 'NONE',  ( 0.0000000000000000000, 0.0000000000000000000, -1.000000000000000000 ) ) ;
#9 = LOCAL_TIME ( 14, 59, 35.00000000000000000, #215 ) ;
#10 = DATE_AND_TIME ( #161, #114 ) ;
#11 = MANIFOLD_SOLID_BREP ( '1', #150 ) ;
#12 = EDGE_LOOP ( 'NONE', ( #137 ) ) ;
#13 = CARTESIAN_POINT ( 'NONE',  ( 16.86944102668597300, -6.987551262906436900, 1.608974951968506900E-031 ) ) ;
#14 = DESIGN_CONTEXT ( 'detailed design', #151, 'design' ) ;
#15 = ORIENTED_EDGE ( 'NONE', *, *, #54, .T. ) ;
#16 = SECURITY_CLASSIFICATION ( '', '', #189 ) ;
#17 = CARTESIAN_POINT ( 'NONE',  ( 13.37566539523275600, -3.493775631453216700, 0.0000000000000000000 ) ) ;
#18 = CARTESIAN_POINT ( 'NONE',  ( 19.06175043686079100, -4.795241852731614100, -7.593523650670236700E-016 ) ) ;
#19 = CARTESIAN_POINT ( 'NONE',  ( 13.49952352838966400, 2.048639797440521300, -3.598234892271380500 ) ) ;
#20 = DIRECTION ( 'NONE',  ( 0.0000000000000000000, 1.000000000000000000, 0.0000000000000000000 ) ) ;
#21 = DIRECTION ( 'NONE',  ( -1.000000000000000000, 1.870341499763360100E-017, -0.0000000000000000000 ) ) ;
#22 = DIRECTION ( 'NONE',  ( -0.7071067811865470200, 0.7071067811865480200, -3.256411456573710300E-032 ) ) ;
#23 = PERSON_AND_ORGANIZATION ( #147, #7 ) ;
#24 = AXIS2_PLACEMENT_3D ( 'NONE', #59, #83, #131 ) ;
#25 = AXIS2_PLACEMENT_3D ( 'NONE', #219, #123, #281 ) ;
#26 = DIRECTION ( 'NONE',  ( 0.7071067811865481300, 0.7071067811865470200, 0.0000000000000000000 ) ) ;
#27 = EDGE_CURVE ( 'NONE', #240, #80, #33, .T. ) ;
#28 = CARTESIAN_POINT ( 'NONE',  ( 9.491614933838471300E-017, 5.074803149606300000, 0.0000000000000000000 ) ) ;
#29 = CARTESIAN_POINT ( 'NONE',  ( 9.881889763779540200, -7.841654838129624800E-015, -6.200787401574801900 ) ) ;
#30 = CARTESIAN_POINT ( 'NONE',  ( 9.881889763779540200, -7.794196763460433900E-015, 5.074803149606300000 ) ) ;
#31 = CIRCLE ( 'NONE', #181, 6.200787401574803700 ) ;
#32 = CARTESIAN_POINT ( 'NONE',  ( 13.49952352838966400, 3.558982010688831500, 2.116096974906786600 ) ) ;
#33 = CIRCLE ( 'NONE', #87, 5.074803149606300000 ) ;
#34 = ADVANCED_FACE ( 'NONE', ( #108, #42 ), #226, .T. ) ;
#35 = CARTESIAN_POINT ( 'NONE',  ( 13.49952352838966400, 3.558982010688830600, -2.116096974906787900 ) ) ;
#36 = CC_DESIGN_PERSON_AND_ORGANIZATION_ASSIGNMENT ( #158, #149, ( #58 ) ) ;
#37 = CARTESIAN_POINT ( 'NONE',  ( 9.881889763779542000, 5.074803149606298200, -3.017372822025270900 ) ) ;
#38 = CARTESIAN_POINT ( 'NONE',  ( 12.53251235479939600, -0.08560828352728033800, -4.541122592208561000 ) ) ;
#39 = APPROVAL_ROLE ( '' ) ;
#40 = EDGE_LOOP ( 'NONE', ( #201 ) ) ;
#41 = DIRECTION ( 'NONE',  ( 0.7071067811865470200, -0.7071067811865480200, 3.256411456573710300E-032 ) ) ;
#42 = FACE_OUTER_BOUND ( 'NONE', #65, .T. ) ;
#43 = FACE_OUTER_BOUND ( 'NONE', #227, .T. ) ;
#44 = CARTESIAN_POINT ( 'NONE',  ( 13.49952352838966400, -0.06708125787669475000, 3.558349766007888400 ) ) ;
#45 = CARTESIAN_POINT ( 'NONE',  ( 9.881889763779540200, 6.200787401574800100, -3.686859732110010500 ) ) ;
#46 = CARTESIAN_POINT ( 'NONE',  ( 21.25405984703563100, -2.602932442556785000, 1.608974951968506900E-031 ) ) ;
#47 = PRODUCT_DEFINITION_SHAPE ( 'NONE', 'NONE',  #173 ) ;
#48 = FACE_OUTER_BOUND ( 'NONE', #277, .T. ) ;
#49 = DATE_AND_TIME ( #248, #218 ) ;
#50 = CARTESIAN_POINT ( 'NONE',  ( 13.49952352838966400, 2.048639797440522600, 3.598234892271380000 ) ) ;
#51 = CARTESIAN_POINT ( 'NONE',  ( 11.26076477205488900, 5.074803149606297300, 3.017372822025266000 ) ) ;
#52 = CARTESIAN_POINT ( 'NONE',  ( 9.881889763779536700, 7.649174382259936200E-015, -1.608974951968508600E-031 ) ) ;
#53 = PLANE ( 'NONE',  #293 ) ;
#54 = EDGE_CURVE ( 'NONE', #256, #3, #180, .T. ) ;
#55 = FACE_OUTER_BOUND ( 'NONE', #210, .T. ) ;
#56 = CARTESIAN_POINT ( 'NONE',  ( 11.26076477205488800, 5.074803149606297300, -1.221786585096940500E-015 ) ) ;
#57 = PLANE ( 'NONE',  #238 ) ;
#58 = PRODUCT ( '581244120', '581244120', '', ( #142 ) ) ;
#59 = CARTESIAN_POINT ( 'NONE',  ( 4.940944881889763900, 1.873286919448027900E-016, 0.0000000000000000000 ) ) ;
#60 = CARTESIAN_POINT ( 'NONE',  ( 11.26076477205488900, 5.074803149606295500, -3.017372822025268700 ) ) ;
#61 = CIRCLE ( 'NONE', #192, 6.200787401574803700 ) ;
#62 = CARTESIAN_POINT ( 'NONE',  ( 11.26076477205488900, 2.921184671694296900, -5.130774392643765200 ) ) ;
#63 = DIRECTION ( 'NONE',  ( 0.7071067811865475700, -0.7071067811865475700, -7.395570986446985700E-032 ) ) ;
#64 = CARTESIAN_POINT ( 'NONE',  ( 12.53251235479939600, -0.08560828352727811700, 4.541122592208561000 ) ) ;
#65 = EDGE_LOOP ( 'NONE', ( #174, #15 ) ) ;
#66 = CARTESIAN_POINT ( 'NONE',  ( 0.0000000000000000000, 0.0000000000000000000, 0.0000000000000000000 ) ) ;
#67 = CYLINDRICAL_SURFACE ( 'NONE', #24, 5.074803149606300000 ) ;
#68 = DATE_AND_TIME ( #85, #175 ) ;
#69 = ADVANCED_FACE ( 'NONE', ( #250 ), #209, .F. ) ;
#70 = CARTESIAN_POINT ( 'NONE',  ( 11.26076477205488800, -0.09565212123292619900, -5.073901622908906000 ) ) ;
#71 = CARTESIAN_POINT ( 'NONE',  ( 12.53251235479939400, 2.614449134912306200, 4.592023504113978300 ) ) ;
#72 = PERSON_AND_ORGANIZATION ( #147, #7 ) ;
#73 = EDGE_CURVE ( 'NONE', #216, #216, #90, .T. ) ;
#74 = DIRECTION ( 'NONE',  ( 0.0000000000000000000, 0.0000000000000000000, 1.000000000000000000 ) ) ;
#75 = CARTESIAN_POINT ( 'NONE',  ( 12.53251235479939400, 4.541929455162804900, 2.700537162437026200 ) ) ;
#76 = APPROVAL_STATUS ( 'not_yet_approved' ) ;
#77 = COORDINATED_UNIVERSAL_TIME_OFFSET ( 5, 0, .BEHIND. ) ;
#78 = DIRECTION ( 'NONE',  ( 0.7071067811865474600, 0.7071067811865474600, 0.0000000000000000000 ) ) ;
#79 =( BOUNDED_CURVE ( )  B_SPLINE_CURVE ( 3, ( #97, #94, #113, #109 ),
 .UNSPECIFIED., .F., .T. ) 
 B_SPLINE_CURVE_WITH_KNOTS ( ( 4, 4 ),
 ( 1.570796326794896800, 4.712388980384687900 ),
 .UNSPECIFIED. ) 
 CURVE ( )  GEOMETRIC_REPRESENTATION_ITEM ( )  RATIONAL_B_SPLINE_CURVE ( ( 1.000000000000000000, 0.3333333333333339800, 0.3333333333333339800, 1.000000000000000000 ) ) 
 REPRESENTATION_ITEM ( '' )  );
#80 = VERTEX_POINT ( 'NONE', #203 ) ;
#81 = CARTESIAN_POINT ( 'NONE',  ( 12.53251235479939400, 4.541929455162804000, -2.700537162437028000 ) ) ;
#82 = CARTESIAN_POINT ( 'NONE',  ( 12.53251235479939400, 2.614449134912304000, -4.592023504113979200 ) ) ;
#83 = DIRECTION ( 'NONE',  ( 1.000000000000000000, -1.870341499763360100E-017, 0.0000000000000000000 ) ) ;
#84 = ADVANCED_FACE ( 'NONE', ( #283, #110 ), #260, .F. ) ;
#85 = CALENDAR_DATE ( 2017, 27, 7 ) ;
#86 = CARTESIAN_POINT ( 'NONE',  ( 11.26076477205488900, 2.921184671694298600, 5.130774392643763400 ) ) ;
#87 = AXIS2_PLACEMENT_3D ( 'NONE', #229, #21, #20 ) ;
#88 = CARTESIAN_POINT ( 'NONE',  ( 20.45786874695941600, -3.399123542632955400, -1.201087283948521900E-031 ) ) ;
#89 = DATE_TIME_ROLE ( 'classification_date' ) ;
#90 = CIRCLE ( 'NONE', #153, 5.074803149606299100 ) ;
#91 = PERSON_AND_ORGANIZATION ( #147, #7 ) ;
#92 = CARTESIAN_POINT ( 'NONE',  ( 0.0000000000000000000, 0.0000000000000000000, 0.0000000000000000000 ) ) ;
#93 = VERTEX_POINT ( 'NONE', #28 ) ;
#94 = CARTESIAN_POINT ( 'NONE',  ( 4.744989285530536400, -12.40157480314958400, 6.200787401574800100 ) ) ;
#95 = EDGE_LOOP ( 'NONE', ( #309, #307 ) ) ;
#96 = CARTESIAN_POINT ( 'NONE',  ( 9.881889763779542000, 2.921184671694299100, -5.130774392643769700 ) ) ;
#97 = CARTESIAN_POINT ( 'NONE',  ( 9.881889763779545500, -1.063977354745709800E-015, 6.200787401574801900 ) ) ;
#98 = CARTESIAN_POINT ( 'NONE',  ( 9.881889763779540200, -0.09565212123292626800, -5.073901622908908700 ) ) ;
#99 = CARTESIAN_POINT ( 'NONE',  ( 11.26076477205488800, -0.09565212123292374200, 5.073901622908906000 ) ) ;
#100 = CARTESIAN_POINT ( 'NONE',  ( 0.0000000000000000000, 0.0000000000000000000, -6.200787401574803700 ) ) ;
#101 = DIRECTION ( 'NONE',  ( 0.0000000000000000000, 0.0000000000000000000, 1.000000000000000000 ) ) ;
#102 = CC_DESIGN_APPROVAL ( #270, ( #173 ) ) ;
#103 = PERSON_AND_ORGANIZATION_ROLE ( 'classification_officer' ) ;
#104 =( LENGTH_UNIT ( ) NAMED_UNIT ( * ) SI_UNIT ( $, .METRE. ) );
#105 =( CONVERSION_BASED_UNIT ( 'INCH', #166 ) LENGTH_UNIT ( ) NAMED_UNIT ( #228 ) );
#106 =( NAMED_UNIT ( * ) PLANE_ANGLE_UNIT ( ) SI_UNIT ( $, .RADIAN. ) );
#107 = ORIENTED_EDGE ( 'NONE', *, *, #212, .F. ) ;
#108 = FACE_OUTER_BOUND ( 'NONE', #5, .T. ) ;
#109 = CARTESIAN_POINT ( 'NONE',  ( 9.881889763779540200, -7.841654838129624800E-015, -6.200787401574801900 ) ) ;
#110 = FACE_OUTER_BOUND ( 'NONE', #146, .T. ) ;
#111 = AXIS2_PLACEMENT_3D ( 'NONE', #52, #41, #257 ) ;
#112 = ADVANCED_FACE ( 'NONE', ( #48, #259 ), #57, .T. ) ;
#113 = CARTESIAN_POINT ( 'NONE',  ( 4.744989285530532000, -12.40157480314959500, -6.200787401574777000 ) ) ;
#114 = LOCAL_TIME ( 14, 59, 35.00000000000000000, #77 ) ;
#115 =( NAMED_UNIT ( * ) SI_UNIT ( $, .STERADIAN. ) SOLID_ANGLE_UNIT ( ) );
#116 = CALENDAR_DATE ( 2017, 27, 7 ) ;
#117 = ORIENTED_EDGE ( 'NONE', *, *, #251, .T. ) ;
#118 = CARTESIAN_POINT ( 'NONE',  ( 13.37566539523275600, -3.493775631453216700, 0.0000000000000000000 ) ) ;
#119 = APPROVAL_DATE_TIME ( #10, #270 ) ;
#120 = ORIENTED_EDGE ( 'NONE', *, *, #262, .T. ) ;
#121 = CARTESIAN_POINT ( 'NONE',  ( 9.881889763779542000, 2.921184671694301300, 5.130774392643767000 ) ) ;
#122 = CARTESIAN_POINT ( 'NONE',  ( 9.881889763779542000, 5.074803149606300900, 3.017372822025269100 ) ) ;
#123 = DIRECTION ( 'NONE',  ( 1.000000000000000000, -1.870341499763360100E-017, 0.0000000000000000000 ) ) ;
#124 = CIRCLE ( 'NONE', #140, 5.074803149606300900 ) ;
#125 = DIRECTION ( 'NONE',  ( 0.7071067811865470200, -0.7071067811865480200, -2.430885817712560000E-032 ) ) ;
#126 = DATE_AND_TIME ( #143, #9 ) ;
#127 = APPLICATION_PROTOCOL_DEFINITION ( 'international standard', 'config_control_design', 1994, #130 ) ;
#128 =( BOUNDED_SURFACE ( )  B_SPLINE_SURFACE ( 3, 3, ( 
 ( #239, #268, #263, #288, #287, #278, #280 ),
 ( #152, #269, #235, #272, #276, #282, #284 ),
 ( #285, #286, #291, #295, #296, #297, #300 ),
 ( #302, #304, #45, #305, #312, #247, #258 ) ),
 .UNSPECIFIED., .F., .F., .F. ) 
 B_SPLINE_SURFACE_WITH_KNOTS ( ( 4, 4 ),
 ( 4, 3, 4 ),
 ( 0.0000000000000000000, 1.000000000000000000 ),
 ( 0.0000000000000000000, 0.5000000000000000000, 1.000000000000000000 ),
 .UNSPECIFIED. ) 
 GEOMETRIC_REPRESENTATION_ITEM ( )  RATIONAL_B_SPLINE_SURFACE ( (
 ( 1.000000000000000000, 0.8002741005225374500, 0.8002741005225374500, 1.000000000000000000, 0.8002741005225374500, 0.8002741005225374500, 1.000000000000000000),
 ( 0.9482053969659244300, 0.7588242211675206800, 0.7588242211675206800, 0.9482053969659244300, 0.7588242211675206800, 0.7588242211675206800, 0.9482053969659244300),
 ( 0.9482053969659244300, 0.7588242211675206800, 0.7588242211675206800, 0.9482053969659244300, 0.7588242211675206800, 0.7588242211675206800, 0.9482053969659244300),
 ( 1.000000000000000000, 0.8002741005225374500, 0.8002741005225374500, 1.000000000000000000, 0.8002741005225374500, 0.8002741005225374500, 1.000000000000000000) ) ) 
 REPRESENTATION_ITEM ( '' )  SURFACE ( )  );
#129 = ORIENTED_EDGE ( 'NONE', *, *, #202, .F. ) ;
#130 = APPLICATION_CONTEXT ( 'configuration controlled 3d designs of mechanical parts and assemblies' ) ;
#131 = DIRECTION ( 'NONE',  ( 0.0000000000000000000, 1.000000000000000000, 0.0000000000000000000 ) ) ;
#132 = ADVANCED_FACE ( 'NONE', ( #294, #55 ), #67, .F. ) ;
#133 = AXIS2_PLACEMENT_3D ( 'NONE', #237, #199, #265 ) ;
#134 = DIRECTION ( 'NONE',  ( 1.000000000000000000, 0.0000000000000000000, 0.0000000000000000000 ) ) ;
#135 = CARTESIAN_POINT ( 'NONE',  ( 9.881889763779540200, -0.09565212123292381200, 5.073901622908908700 ) ) ;
#136 = VERTEX_POINT ( 'NONE', #100 ) ;
#137 = ORIENTED_EDGE ( 'NONE', *, *, #73, .T. ) ;
#138 = DIRECTION ( 'NONE',  ( 1.000000000000000000, 0.0000000000000000000, 0.0000000000000000000 ) ) ;
#139 = EDGE_CURVE ( 'NONE', #93, #93, #195, .T. ) ;
#140 = AXIS2_PLACEMENT_3D ( 'NONE', #266, #4, #6 ) ;
#141 = UNCERTAINTY_MEASURE_WITH_UNIT (LENGTH_MEASURE( 1.000000000000000100E-005 ), #105, 'distance_accuracy_value', 'NONE');
#142 = MECHANICAL_CONTEXT ( 'NONE', #130, 'mechanical' ) ;
#143 = CALENDAR_DATE ( 2017, 27, 7 ) ;
#144 = ORIENTED_EDGE ( 'NONE', *, *, #27, .F. ) ;
#145 = CARTESIAN_POINT ( 'NONE',  ( 5.677785181898298300, -10.14960629921257000, 5.074803149606284000 ) ) ;
#146 = EDGE_LOOP ( 'NONE', ( #107, #193 ) ) ;
#147 = PERSON ( 'UNSPECIFIED', 'UNSPECIFIED', 'UNSPECIFIED', ('UNSPECIFIED'), ('UNSPECIFIED'), ('UNSPECIFIED') ) ;
#148 = COORDINATED_UNIVERSAL_TIME_OFFSET ( 5, 0, .BEHIND. ) ;
#149 = PERSON_AND_ORGANIZATION_ROLE ( 'design_owner' ) ;
#150 = CLOSED_SHELL ( 'NONE', ( #34, #194, #252, #289, #112, #84, #132, #69 ) ) ;
#151 = APPLICATION_CONTEXT ( 'configuration controlled 3d designs of mechanical parts and assemblies' ) ;
#152 = CARTESIAN_POINT ( 'NONE',  ( 13.12062566824522800, -0.1046028289801913800, -5.548695176670663400 ) ) ;
#153 = AXIS2_PLACEMENT_3D ( 'NONE', #249, #246, #264 ) ;
#154 = ORIENTED_EDGE ( 'NONE', *, *, #251, .F. ) ;
#155 = APPROVAL ( #76, 'UNSPECIFIED' ) ;
#156 = CC_DESIGN_PERSON_AND_ORGANIZATION_ASSIGNMENT ( #23, #188, ( #1 ) ) ;
#157 = APPLICATION_PROTOCOL_DEFINITION ( 'international standard', 'config_control_design', 1994, #151 ) ;
#158 = PERSON_AND_ORGANIZATION ( #147, #7 ) ;
#159 = APPROVAL_STATUS ( 'not_yet_approved' ) ;
#160 = CARTESIAN_POINT ( 'NONE',  ( 12.53251235479939600, 4.541929455162804900, -1.102268235374128900E-015 ) ) ;
#161 = CALENDAR_DATE ( 2017, 27, 7 ) ;
#162 = EDGE_CURVE ( 'NONE', #3, #256, #79, .T. ) ;
#163 = APPROVAL_ROLE ( '' ) ;
#164 = CC_DESIGN_DATE_AND_TIME_ASSIGNMENT ( #310, #183, ( #173 ) ) ;
#165 = ORIENTED_EDGE ( 'NONE', *, *, #202, .T. ) ;
#166 = LENGTH_MEASURE_WITH_UNIT ( LENGTH_MEASURE( 0.02539999999999999900 ), #104 );
#167 = APPROVAL_DATE_TIME ( #126, #155 ) ;
#168 = APPROVAL_PERSON_ORGANIZATION ( #91, #298, #185 ) ;
#169 = PERSON_AND_ORGANIZATION ( #147, #7 ) ;
#170 = PERSON_AND_ORGANIZATION_ROLE ( 'creator' ) ;
#171 = APPROVAL_PERSON_ORGANIZATION ( #223, #155, #39 ) ;
#172 = PERSON_AND_ORGANIZATION ( #147, #7 ) ;
#173 = PRODUCT_DEFINITION ( 'UNKNOWN', '', #1, #14 ) ;
#174 = ORIENTED_EDGE ( 'NONE', *, *, #162, .T. ) ;
#175 = LOCAL_TIME ( 14, 59, 35.00000000000000000, #207 ) ;
#176 = ORIENTED_EDGE ( 'NONE', *, *, #262, .F. ) ;
#177 = EDGE_LOOP ( 'NONE', ( #196, #165 ) ) ;
#178 = CARTESIAN_POINT ( 'NONE',  ( 9.881889763779540200, -7.794196763460433900E-015, -5.074803149606300000 ) ) ;
#179 = DIRECTION ( 'NONE',  ( 0.0000000000000000000, 0.0000000000000000000, -1.000000000000000000 ) ) ;
#180 = CIRCLE ( 'NONE', #111, 6.200787401574803700 ) ;
#181 = AXIS2_PLACEMENT_3D ( 'NONE', #66, #186, #179 ) ;
#182 = APPROVAL_PERSON_ORGANIZATION ( #261, #270, #163 ) ;
#183 = DATE_TIME_ROLE ( 'creation_date' ) ;
#184 = APPROVAL_STATUS ( 'not_yet_approved' ) ;
#185 = APPROVAL_ROLE ( '' ) ;
#186 = DIRECTION ( 'NONE',  ( 1.000000000000000000, 0.0000000000000000000, 0.0000000000000000000 ) ) ;
#187 = PERSON_AND_ORGANIZATION_ROLE ( 'creator' ) ;
#188 = PERSON_AND_ORGANIZATION_ROLE ( 'design_supplier' ) ;
#189 = SECURITY_CLASSIFICATION_LEVEL ( 'unclassified' ) ;
#190 = CC_DESIGN_PERSON_AND_ORGANIZATION_ASSIGNMENT ( #169, #170, ( #173 ) ) ;
#191 = AXIS2_PLACEMENT_3D ( 'NONE', #17, #125, #253 ) ;
#192 = AXIS2_PLACEMENT_3D ( 'NONE', #13, #22, #26 ) ;
#193 = ORIENTED_EDGE ( 'NONE', *, *, #271, .F. ) ;
#194 = ADVANCED_FACE ( 'NONE', ( #236 ), #128, .T. ) ;
#195 = CIRCLE ( 'NONE', #25, 5.074803149606300000 ) ;
#196 = ORIENTED_EDGE ( 'NONE', *, *, #54, .F. ) ;
#197 = COORDINATED_UNIVERSAL_TIME_OFFSET ( 5, 0, .BEHIND. ) ;
#198 = CC_DESIGN_APPROVAL ( #298, ( #1 ) ) ;
#199 = DIRECTION ( 'NONE',  ( 1.000000000000000000, 0.0000000000000000000, 0.0000000000000000000 ) ) ;
#200 = FACE_OUTER_BOUND ( 'NONE', #206, .T. ) ;
#201 = ORIENTED_EDGE ( 'NONE', *, *, #139, .F. ) ;
#202 = EDGE_CURVE ( 'NONE', #256, #3, #273, .T. ) ;
#203 = CARTESIAN_POINT ( 'NONE',  ( 9.881889763779540200, -7.794196763460433900E-015, -5.074803149606300000 ) ) ;
#204 = CC_DESIGN_DATE_AND_TIME_ASSIGNMENT ( #68, #89, ( #16 ) ) ;
#205 = DIRECTION ( 'NONE',  ( 0.7071067811865470200, -0.7071067811865480200, 3.256411456573710300E-032 ) ) ;
#206 = EDGE_LOOP ( 'NONE', ( #129, #231 ) ) ;
#207 = COORDINATED_UNIVERSAL_TIME_OFFSET ( 5, 0, .BEHIND. ) ;
#208 = APPROVAL_DATE_TIME ( #49, #298 ) ;
#209 =( BOUNDED_SURFACE ( )  B_SPLINE_SURFACE ( 3, 3, ( 
 ( #243, #19, #35, #299, #32, #50, #44 ),
 ( #38, #82, #81, #160, #75, #71, #64 ),
 ( #70, #62, #60, #56, #51, #86, #99 ),
 ( #98, #96, #37, #308, #122, #121, #135 ) ),
 .UNSPECIFIED., .F., .F., .F. ) 
 B_SPLINE_SURFACE_WITH_KNOTS ( ( 4, 4 ),
 ( 4, 3, 4 ),
 ( 0.0000000000000000000, 1.000000000000000000 ),
 ( 0.0000000000000000000, 0.5000000000000000000, 1.000000000000000000 ),
 .UNSPECIFIED. ) 
 GEOMETRIC_REPRESENTATION_ITEM ( )  RATIONAL_B_SPLINE_SURFACE ( (
 ( 1.000000000000000000, 0.8002741005225372200, 0.8002741005225372200, 1.000000000000000000, 0.8002741005225372200, 0.8002741005225372200, 1.000000000000000000),
 ( 0.9482053969659244300, 0.7588242211675205700, 0.7588242211675205700, 0.9482053969659244300, 0.7588242211675205700, 0.7588242211675205700, 0.9482053969659244300),
 ( 0.9482053969659244300, 0.7588242211675205700, 0.7588242211675205700, 0.9482053969659244300, 0.7588242211675205700, 0.7588242211675205700, 0.9482053969659244300),
 ( 1.000000000000000000, 0.8002741005225372200, 0.8002741005225372200, 1.000000000000000000, 0.8002741005225372200, 0.8002741005225372200, 1.000000000000000000) ) ) 
 REPRESENTATION_ITEM ( '' )  SURFACE ( )  );
#210 = EDGE_LOOP ( 'NONE', ( #211, #144 ) ) ;
#211 = ORIENTED_EDGE ( 'NONE', *, *, #271, .T. ) ;
#212 = EDGE_CURVE ( 'NONE', #80, #240, #124, .T. ) ;
#213 = VERTEX_POINT ( 'NONE', #46 ) ;
#214 = ORIENTED_EDGE ( 'NONE', *, *, #139, .T. ) ;
#215 = COORDINATED_UNIVERSAL_TIME_OFFSET ( 5, 0, .BEHIND. ) ;
#216 = VERTEX_POINT ( 'NONE', #88 ) ;
#217 = PRODUCT_RELATED_PRODUCT_CATEGORY ( 'detail', '', ( #58 ) ) ;
#218 = LOCAL_TIME ( 14, 59, 35.00000000000000000, #148 ) ;
#219 = CARTESIAN_POINT ( 'NONE',  ( 0.0000000000000000000, 2.797412345512207900E-016, 0.0000000000000000000 ) ) ;
#220 = CARTESIAN_POINT ( 'NONE',  ( 9.881889763779540200, -7.794196763460433900E-015, 5.074803149606300000 ) ) ;
#221 = SHAPE_DEFINITION_REPRESENTATION ( #47, #254 ) ;
#222 = CC_DESIGN_SECURITY_CLASSIFICATION ( #16, ( #1 ) ) ;
#223 = PERSON_AND_ORGANIZATION ( #147, #7 ) ;
#224 = CARTESIAN_POINT ( 'NONE',  ( 0.0000000000000000000, 3.100393700787401800, -7.593523650670236700E-016 ) ) ;
#225 = DIRECTION ( 'NONE',  ( 0.7071067811865481300, 0.7071067811865470200, 0.0000000000000000000 ) ) ;
#226 = CYLINDRICAL_SURFACE ( 'NONE', #301, 6.200787401574803700 ) ;
#227 = EDGE_LOOP ( 'NONE', ( #154 ) ) ;
#228 = DIMENSIONAL_EXPONENTS ( 1.000000000000000000, 0.0000000000000000000, 0.0000000000000000000, 0.0000000000000000000, 0.0000000000000000000, 0.0000000000000000000, 0.0000000000000000000 ) ;
#229 = CARTESIAN_POINT ( 'NONE',  ( 9.881889763779527800, 9.491614933838478700E-017, 0.0000000000000000000 ) ) ;
#230 = CARTESIAN_POINT ( 'NONE',  ( 4.940944881889763900, 0.0000000000000000000, 0.0000000000000000000 ) ) ;
#231 = ORIENTED_EDGE ( 'NONE', *, *, #162, .F. ) ;
#232 = DIRECTION ( 'NONE',  ( -1.000000000000000000, 0.0000000000000000000, 0.0000000000000000000 ) ) ;
#233 = CARTESIAN_POINT ( 'NONE',  ( 5.677785181898296500, -10.14960629921257300, -5.074803149606280400 ) ) ;
#234 = EDGE_LOOP ( 'NONE', ( #214 ) ) ;
#235 = CARTESIAN_POINT ( 'NONE',  ( 13.12062566824522700, 5.549681064299002200, -3.299725392426938100 ) ) ;
#236 = FACE_OUTER_BOUND ( 'NONE', #177, .T. ) ;
#237 = CARTESIAN_POINT ( 'NONE',  ( 9.881889763779527800, 0.0000000000000000000, 0.0000000000000000000 ) ) ;
#238 = AXIS2_PLACEMENT_3D ( 'NONE', #224, #232, #74 ) ;
#239 = CARTESIAN_POINT ( 'NONE',  ( 14.30219479035901700, -0.08196507459720489600, -4.347867247061616400 ) ) ;
#240 = VERTEX_POINT ( 'NONE', #220 ) ;
#241 = CC_DESIGN_PERSON_AND_ORGANIZATION_ASSIGNMENT ( #172, #187, ( #1 ) ) ;
#242 = AXIS2_PLACEMENT_3D ( 'NONE', #230, #138, #8 ) ;
#243 = CARTESIAN_POINT ( 'NONE',  ( 13.49952352838966400, -0.06708125787669648500, -3.558349766007888400 ) ) ;
#244 = CARTESIAN_POINT ( 'NONE',  ( 9.881889763779545500, -1.063977354745709800E-015, 6.200787401574801900 ) ) ;
#245 = ORIENTED_EDGE ( 'NONE', *, *, #73, .F. ) ;
#246 = DIRECTION ( 'NONE',  ( -0.7071067811865470200, 0.7071067811865480200, 2.430885817712560000E-032 ) ) ;
#247 = CARTESIAN_POINT ( 'NONE',  ( 9.881889763779540200, 3.569329602729661000, 6.269177399855642800 ) ) ;
#248 = CALENDAR_DATE ( 2017, 27, 7 ) ;
#249 = CARTESIAN_POINT ( 'NONE',  ( 16.86944102668595100, -6.987551262906417400, -1.201087283948521900E-031 ) ) ;
#250 = FACE_OUTER_BOUND ( 'NONE', #95, .T. ) ;
#251 = EDGE_CURVE ( 'NONE', #213, #213, #61, .T. ) ;
#252 = ADVANCED_FACE ( 'NONE', ( #200, #267 ), #279, .T. ) ;
#253 = DIRECTION ( 'NONE',  ( 0.7071067811865481300, 0.7071067811865469100, 0.0000000000000000000 ) ) ;
#254 = ADVANCED_BREP_SHAPE_REPRESENTATION ( '581244120', ( #11, #2 ), #255 ) ;
#255 =( GEOMETRIC_REPRESENTATION_CONTEXT ( 3 ) GLOBAL_UNCERTAINTY_ASSIGNED_CONTEXT ( ( #141 ) ) GLOBAL_UNIT_ASSIGNED_CONTEXT ( ( #105, #106, #115 ) ) REPRESENTATION_CONTEXT ( 'NONE', 'WORKASPACE' ) );
#256 = VERTEX_POINT ( 'NONE', #29 ) ;
#257 = DIRECTION ( 'NONE',  ( 0.7071067811865481300, 0.7071067811865470200, 0.0000000000000000000 ) ) ;
#258 = CARTESIAN_POINT ( 'NONE',  ( 9.881889763779540200, -0.1168751675266415500, 6.199685846455803800 ) ) ;
#259 = FACE_BOUND ( 'NONE', #234, .T. ) ;
#260 = CYLINDRICAL_SURFACE ( 'NONE', #191, 5.074803149606300900 ) ;
#261 = PERSON_AND_ORGANIZATION ( #147, #7 ) ;
#262 = EDGE_CURVE ( 'NONE', #136, #136, #31, .T. ) ;
#263 = CARTESIAN_POINT ( 'NONE',  ( 14.30219479035901700, 4.348639772563928800, -2.585611121395029200 ) ) ;
#264 = DIRECTION ( 'NONE',  ( 0.7071067811865479100, 0.7071067811865471300, 0.0000000000000000000 ) ) ;
#265 = DIRECTION ( 'NONE',  ( 0.0000000000000000000, 1.000000000000000000, 0.0000000000000000000 ) ) ;
#266 = CARTESIAN_POINT ( 'NONE',  ( 9.881889763779536700, 7.649174382259936200E-015, 1.201087283948530400E-031 ) ) ;
#267 = FACE_OUTER_BOUND ( 'NONE', #311, .T. ) ;
#268 = CARTESIAN_POINT ( 'NONE',  ( 14.30219479035901700, 2.503186719137950000, -4.396601982410723900 ) ) ;
#269 = CARTESIAN_POINT ( 'NONE',  ( 13.12062566824522700, 3.194536375086791700, -5.610889851807229400 ) ) ;
#270 = APPROVAL ( #159, 'UNSPECIFIED' ) ;
#271 = EDGE_CURVE ( 'NONE', #240, #80, #292, .T. ) ;
#272 = CARTESIAN_POINT ( 'NONE',  ( 13.12062566824522800, 5.549681064299005800, -6.300324435388206900E-015 ) ) ;
#273 = CIRCLE ( 'NONE', #133, 6.200787401574803700 ) ;
#274 = CC_DESIGN_PERSON_AND_ORGANIZATION_ASSIGNMENT ( #72, #103, ( #16 ) ) ;
#275 = FACE_BOUND ( 'NONE', #12, .T. ) ;
#276 = CARTESIAN_POINT ( 'NONE',  ( 13.12062566824522700, 5.549681064299009300, 3.299725392426924800 ) ) ;
#277 = EDGE_LOOP ( 'NONE', ( #176 ) ) ;
#278 = CARTESIAN_POINT ( 'NONE',  ( 14.30219479035901700, 2.503186719137959800, 4.396601982410717600 ) ) ;
#279 = CYLINDRICAL_SURFACE ( 'NONE', #242, 6.200787401574803700 ) ;
#280 = CARTESIAN_POINT ( 'NONE',  ( 14.30219479035901700, -0.08196507459719501500, 4.347867247061616400 ) ) ;
#281 = DIRECTION ( 'NONE',  ( 1.870341499763360100E-017, 1.000000000000000000, 0.0000000000000000000 ) ) ;
#282 = CARTESIAN_POINT ( 'NONE',  ( 13.12062566824522700, 3.194536375086804500, 5.610889851807222300 ) ) ;
#283 = FACE_OUTER_BOUND ( 'NONE', #303, .T. ) ;
#284 = CARTESIAN_POINT ( 'NONE',  ( 13.12062566824522800, -0.1046028289801788100, 5.548695176670663400 ) ) ;
#285 = CARTESIAN_POINT ( 'NONE',  ( 11.56670600740535300, -0.1168751675266554700, -6.199685846455798500 ) ) ;
#286 = CARTESIAN_POINT ( 'NONE',  ( 11.56670600740535800, 3.569329602729645900, -6.269177399855648100 ) ) ;
#287 = CARTESIAN_POINT ( 'NONE',  ( 14.30219479035901700, 4.348639772563934100, 2.585611121395019500 ) ) ;
#288 = CARTESIAN_POINT ( 'NONE',  ( 14.30219479035901700, 4.348639772563931400, -4.934400438556075100E-015 ) ) ;
#289 = ADVANCED_FACE ( 'NONE', ( #43, #275 ), #53, .T. ) ;
#290 = CC_DESIGN_APPROVAL ( #155, ( #16 ) ) ;
#291 = CARTESIAN_POINT ( 'NONE',  ( 11.56670600740535800, 6.200787401574795700, -3.686859732110009200 ) ) ;
#292 =( BOUNDED_CURVE ( )  B_SPLINE_CURVE ( 3, ( #30, #145, #233, #178 ),
 .UNSPECIFIED., .F., .T. ) 
 B_SPLINE_CURVE_WITH_KNOTS ( ( 4, 4 ),
 ( 1.570796326794898100, 4.712388980384687900 ),
 .UNSPECIFIED. ) 
 CURVE ( )  GEOMETRIC_REPRESENTATION_ITEM ( )  RATIONAL_B_SPLINE_CURVE ( ( 1.000000000000000000, 0.3333333333333345900, 0.3333333333333345900, 1.000000000000000000 ) ) 
 REPRESENTATION_ITEM ( '' )  );
#293 = AXIS2_PLACEMENT_3D ( 'NONE', #18, #63, #78 ) ;
#294 = FACE_OUTER_BOUND ( 'NONE', #40, .T. ) ;
#295 = CARTESIAN_POINT ( 'NONE',  ( 11.56670600740535300, 6.200787401574801000, -7.000360483764672900E-015 ) ) ;
#296 = CARTESIAN_POINT ( 'NONE',  ( 11.56670600740535800, 6.200787401574804600, 3.686859732109994500 ) ) ;
#297 = CARTESIAN_POINT ( 'NONE',  ( 11.56670600740535800, 3.569329602729659300, 6.269177399855641000 ) ) ;
#298 = APPROVAL ( #184, 'UNSPECIFIED' ) ;
#299 = CARTESIAN_POINT ( 'NONE',  ( 13.49952352838966400, 3.558982010688831000, -8.717685609087066500E-016 ) ) ;
#300 = CARTESIAN_POINT ( 'NONE',  ( 11.56670600740535300, -0.1168751675266415100, 6.199685846455798500 ) ) ;
#301 = AXIS2_PLACEMENT_3D ( 'NONE', #118, #205, #225 ) ;
#302 = CARTESIAN_POINT ( 'NONE',  ( 9.881889763779540200, -0.1168751675266555700, -6.199685846455803800 ) ) ;
#303 = EDGE_LOOP ( 'NONE', ( #245 ) ) ;
#304 = CARTESIAN_POINT ( 'NONE',  ( 9.881889763779540200, 3.569329602729647700, -6.269177399855651700 ) ) ;
#305 = CARTESIAN_POINT ( 'NONE',  ( 9.881889763779540200, 6.200787401574803700, -7.017434533725076200E-015 ) ) ;
#306 = LOCAL_TIME ( 14, 59, 35.00000000000000000, #197 ) ;
#307 = ORIENTED_EDGE ( 'NONE', *, *, #27, .T. ) ;
#308 = CARTESIAN_POINT ( 'NONE',  ( 9.881889763779540200, 5.074803149606300000, -1.221786585096940500E-015 ) ) ;
#309 = ORIENTED_EDGE ( 'NONE', *, *, #212, .T. ) ;
#310 = DATE_AND_TIME ( #116, #306 ) ;
#311 = EDGE_LOOP ( 'NONE', ( #120 ) ) ;
#312 = CARTESIAN_POINT ( 'NONE',  ( 9.881889763779540200, 6.200787401574808100, 3.686859732109996300 ) ) ;
ENDSEC;
END-ISO-10303-21;
