ISO-10303-21;
HEADER;
FILE_DESCRIPTION (( 'STEP AP203' ),
    '1' );
FILE_NAME ('581243010.STEP',
    '2015-12-04T19:25:05',
    ( '' ),
    ( '' ),
    'SwSTEP 2.0',
    'SolidWorks 2015',
    '' );
FILE_SCHEMA (( 'CONFIG_CONTROL_DESIGN' ));
ENDSEC;

DATA;
#1 = VERTEX_POINT ( 'NONE', #226 ) ;
#2 = EDGE_LOOP ( 'NONE', ( #292 ) ) ;
#3 = CALENDAR_DATE ( 2015, 4, 12 ) ;
#4 = CC_DESIGN_APPROVAL ( #104, ( #296 ) ) ;
#5 = CARTESIAN_POINT ( 'NONE',  ( 0.0000000000000000000, 0.0000000000000000000, 0.0000000000000000000 ) ) ;
#6 = DIRECTION ( 'NONE',  ( -3.901681134622986800E-018, -4.180489455276763600E-016, -1.000000000000000000 ) ) ;
#7 = PERSON_AND_ORGANIZATION ( #45, #158 ) ;
#8 = CIRCLE ( 'NONE', #125, 0.5157480314960626300 ) ;
#9 = PRODUCT_RELATED_PRODUCT_CATEGORY ( 'detail', '', ( #180 ) ) ;
#10 = APPROVAL_ROLE ( '' ) ;
#11 = EDGE_LOOP ( 'NONE', ( #160 ) ) ;
#12 = EDGE_LOOP ( 'NONE', ( #300 ) ) ;
#13 = CIRCLE ( 'NONE', #278, 0.5157480314960626300 ) ;
#14 = PERSON_AND_ORGANIZATION_ROLE ( 'design_owner' ) ;
#15 = CIRCLE ( 'NONE', #236, 0.6299212598425211200 ) ;
#16 = DIRECTION ( 'NONE',  ( -1.000000000000000000, -4.212382714408232400E-017, -3.901681134623086100E-018 ) ) ;
#17 =( LENGTH_UNIT ( ) NAMED_UNIT ( * ) SI_UNIT ( $, .METRE. ) );
#18 = EDGE_LOOP ( 'NONE', ( #60 ) ) ;
#19 = ORIENTED_EDGE ( 'NONE', *, *, #116, .T. ) ;
#20 = CARTESIAN_POINT ( 'NONE',  ( 0.1528445273192446100, 3.740157480314970000, 1.259842519685040500 ) ) ;
#21 = CARTESIAN_POINT ( 'NONE',  ( 2.371967708832030800E-017, 0.9251968503936994800, 3.867776208605964900E-016 ) ) ;
#22 = PERSON_AND_ORGANIZATION_ROLE ( 'classification_officer' ) ;
#23 =( GEOMETRIC_REPRESENTATION_CONTEXT ( 3 ) GLOBAL_UNCERTAINTY_ASSIGNED_CONTEXT ( ( #293 ) ) GLOBAL_UNIT_ASSIGNED_CONTEXT ( ( #73, #138, #211 ) ) REPRESENTATION_CONTEXT ( 'NONE', 'WORKASPACE' ) );
#24 = CC_DESIGN_APPROVAL ( #249, ( #214 ) ) ;
#25 = DATE_AND_TIME ( #258, #52 ) ;
#26 = CARTESIAN_POINT ( 'NONE',  ( 1.259842519685054200, 3.740157480314962400, 3.203307593625211900E-018 ) ) ;
#27 = CIRCLE ( 'NONE', #148, 0.6299212598425193400 ) ;
#28 = CIRCLE ( 'NONE', #123, 0.5157480314960626300 ) ;
#29 = DIRECTION ( 'NONE',  ( 4.212382714408243500E-017, 1.000000000000000000, 4.180489455276764100E-016 ) ) ;
#30 = CARTESIAN_POINT ( 'NONE',  ( 0.2197256560246715600, 3.625984251968510400, 1.031496062992126600 ) ) ;
#31 = FACE_OUTER_BOUND ( 'NONE', #237, .T. ) ;
#32 = APPROVAL_PERSON_ORGANIZATION ( #255, #249, #283 ) ;
#33 = FACE_OUTER_BOUND ( 'NONE', #232, .T. ) ;
#34 = PRODUCT_DEFINITION_SHAPE ( 'NONE', 'NONE',  #214 ) ;
#35 = CIRCLE ( 'NONE', #265, 0.5157480314960626300 ) ;
#36 = DATE_TIME_ROLE ( 'creation_date' ) ;
#37 = FACE_OUTER_BOUND ( 'NONE', #172, .T. ) ;
#38 = AXIS2_PLACEMENT_3D ( 'NONE', #5, #230, #294 ) ;
#39 = CLOSED_SHELL ( 'NONE', ( #103, #167, #239, #75, #171, #113, #271, #64 ) ) ;
#40 = APPROVAL_STATUS ( 'not_yet_approved' ) ;
#41 = EDGE_LOOP ( 'NONE', ( #82 ) ) ;
#42 = CARTESIAN_POINT ( 'NONE',  ( 0.6299212598425280000, 2.219393031576014400, 1.259842519685040900 ) ) ;
#43 = LOCAL_TIME ( 14, 25, 5.000000000000000000, #248 ) ;
#44 = VERTEX_POINT ( 'NONE', #91 ) ;
#45 = PERSON ( 'UNSPECIFIED', 'UNSPECIFIED', 'UNSPECIFIED', ('UNSPECIFIED'), ('UNSPECIFIED'), ('UNSPECIFIED') ) ;
#46 = CARTESIAN_POINT ( 'NONE',  ( 0.0000000000000000000, 0.0000000000000000000, 0.0000000000000000000 ) ) ;
#47 = LOCAL_TIME ( 14, 25, 5.000000000000000000, #95 ) ;
#48 = FACE_OUTER_BOUND ( 'NONE', #11, .T. ) ;
#49 = FACE_OUTER_BOUND ( 'NONE', #12, .T. ) ;
#50 = CARTESIAN_POINT ( 'NONE',  ( -0.6299212598425175700, 2.957391693153215600, 1.259842519685040700 ) ) ;
#51 = CALENDAR_DATE ( 2015, 4, 12 ) ;
#52 = LOCAL_TIME ( 14, 25, 5.000000000000000000, #136 ) ;
#53 = FACE_OUTER_BOUND ( 'NONE', #63, .T. ) ;
#54 = SHAPE_DEFINITION_REPRESENTATION ( #34, #187 ) ;
#55 = CYLINDRICAL_SURFACE ( 'NONE', #166, 0.6299212598425193400 ) ;
#56 = CARTESIAN_POINT ( 'NONE',  ( 0.2197256560246699500, 3.625984251968509000, -1.031496062992126600 ) ) ;
#57 = ORIENTED_EDGE ( 'NONE', *, *, #257, .F. ) ;
#58 = CARTESIAN_POINT ( 'NONE',  ( 0.1528445273192421700, 3.740157480314968200, -1.259842519685040500 ) ) ;
#59 = ORIENTED_EDGE ( 'NONE', *, *, #163, .T. ) ;
#60 = ORIENTED_EDGE ( 'NONE', *, *, #149, .T. ) ;
#61 = AXIS2_PLACEMENT_3D ( 'NONE', #267, #157, #242 ) ;
#62 = CARTESIAN_POINT ( 'NONE',  ( 0.1528445273192435300, 3.740157480314967800, 7.522460776501739100E-018 ) ) ;
#63 = EDGE_LOOP ( 'NONE', ( #126 ) ) ;
#64 = ADVANCED_FACE ( 'NONE', ( #170, #279 ), #179, .F. ) ;
#65 = APPROVAL_PERSON_ORGANIZATION ( #7, #156, #10 ) ;
#66 = EDGE_LOOP ( 'NONE', ( #277 ) ) ;
#67 = CARTESIAN_POINT ( 'NONE',  ( 0.8239620601910142600, 2.594488188976384400, 4.117488232120309300E-016 ) ) ;
#68 = EDGE_LOOP ( 'NONE', ( #57 ) ) ;
#69 = APPROVAL_STATUS ( 'not_yet_approved' ) ;
#70 = CARTESIAN_POINT ( 'NONE',  ( 1.259842519685053300, 3.740157480314959300, 1.568484455442408200E-015 ) ) ;
#71 = CARTESIAN_POINT ( 'NONE',  ( -0.5157480314960629600, 1.850393700787392100, 1.031496062992127300 ) ) ;
#72 = CIRCLE ( 'NONE', #114, 0.6299212598425196800 ) ;
#73 =( CONVERSION_BASED_UNIT ( 'INCH', #282 ) LENGTH_UNIT ( ) NAMED_UNIT ( #250 ) );
#74 = APPLICATION_CONTEXT ( 'configuration controlled 3d designs of mechanical parts and assemblies' ) ;
#75 = ADVANCED_FACE ( 'NONE', ( #129, #208 ), #224, .T. ) ;
#76 = DIRECTION ( 'NONE',  ( 1.000000000000000000, 4.212382714408232400E-017, 3.901681134623086100E-018 ) ) ;
#77 = VERTEX_POINT ( 'NONE', #70 ) ;
#78 = EDGE_LOOP ( 'NONE', ( #135 ) ) ;
#79 = FACE_BOUND ( 'NONE', #83, .T. ) ;
#80 = APPROVAL_DATE_TIME ( #269, #104 ) ;
#81 = CARTESIAN_POINT ( 'NONE',  ( -0.6299212598425202300, 1.850393700787402500, 8.005903186089942700E-016 ) ) ;
#82 = ORIENTED_EDGE ( 'NONE', *, *, #116, .F. ) ;
#83 = EDGE_LOOP ( 'NONE', ( #247 ) ) ;
#84 = DIRECTION ( 'NONE',  ( 0.0000000000000000000, 0.0000000000000000000, -1.000000000000000000 ) ) ;
#85 = CARTESIAN_POINT ( 'NONE',  ( 0.8239620601910150300, 2.594488188976385300, 1.031496062992126800 ) ) ;
#86 = PLANE ( 'NONE',  #195 ) ;
#87 = CARTESIAN_POINT ( 'NONE',  ( 0.5157480314960660700, 2.286274160281442000, -1.031496062992125900 ) ) ;
#88 = CARTESIAN_POINT ( 'NONE',  ( 1.259842519685055100, 2.594488188976378200, 1.031496062992127000 ) ) ;
#89 = CARTESIAN_POINT ( 'NONE',  ( 2.371967708832030800E-017, 0.9251968503936994800, 3.867776208605964900E-016 ) ) ;
#90 = CARTESIAN_POINT ( 'NONE',  ( 3.110236220472458100, 3.110236220472426100, -0.6299212598425179000 ) ) ;
#91 = CARTESIAN_POINT ( 'NONE',  ( -0.6299212598425211200, 1.850393700787399000, 7.710972944283725000E-016 ) ) ;
#92 = DIRECTION ( 'NONE',  ( 4.212382714408243500E-017, 1.000000000000000000, 4.180489455276764100E-016 ) ) ;
#93 = CARTESIAN_POINT ( 'NONE',  ( 0.6299212598425213400, 1.850393700787410700, 1.259842519685041100 ) ) ;
#94 = DIRECTION ( 'NONE',  ( 0.0000000000000000000, 1.000000000000000000, 4.180489455276765600E-016 ) ) ;
#95 = COORDINATED_UNIVERSAL_TIME_OFFSET ( 5, 0, .BEHIND. ) ;
#96 = APPROVAL_DATE_TIME ( #206, #156 ) ;
#97 = CARTESIAN_POINT ( 'NONE',  ( 0.5157480314960665200, 2.286274160281443400, 5.417999257659729600E-016 ) ) ;
#98 = CARTESIAN_POINT ( 'NONE',  ( 3.110236220472458100, 3.110236220472426100, -0.5157480314960614100 ) ) ;
#99 = CARTESIAN_POINT ( 'NONE',  ( 4.743935417664061700E-017, 1.850393700787399000, 7.735550463241978900E-016 ) ) ;
#100 = CARTESIAN_POINT ( 'NONE',  ( 0.8908431888964530900, 2.480314960629929700, 1.259842519685040900 ) ) ;
#101 = EDGE_LOOP ( 'NONE', ( #127 ) ) ;
#102 = PERSON_AND_ORGANIZATION ( #45, #158 ) ;
#103 = ADVANCED_FACE ( 'NONE', ( #165, #182 ), #231, .T. ) ;
#104 = APPROVAL ( #40, 'UNSPECIFIED' ) ;
#105 = EDGE_CURVE ( 'NONE', #44, #44, #15, .T. ) ;
#106 = DIRECTION ( 'NONE',  ( 1.000000000000000000, 4.212382714408232400E-017, 3.901681134623086100E-018 ) ) ;
#107 = VERTEX_POINT ( 'NONE', #202 ) ;
#108 = EDGE_LOOP ( 'NONE', ( #162 ) ) ;
#109 = CARTESIAN_POINT ( 'NONE',  ( 1.259842519685054200, 3.740157480314962400, 3.203307593625211900E-018 ) ) ;
#110 = APPROVAL_DATE_TIME ( #205, #249 ) ;
#111 = CARTESIAN_POINT ( 'NONE',  ( 3.110236220472458100, 3.110236220472426100, 1.312366065174407500E-015 ) ) ;
#112 = DIRECTION ( 'NONE',  ( -1.000000000000000000, 0.0000000000000000000, -3.901681134622875000E-018 ) ) ;
#113 = ADVANCED_FACE ( 'NONE', ( #181, #246 ), #128, .F. ) ;
#114 = AXIS2_PLACEMENT_3D ( 'NONE', #263, #189, #94 ) ;
#115 = CARTESIAN_POINT ( 'NONE',  ( 0.8908431888964508700, 2.480314960629927100, -1.259842519685039800 ) ) ;
#116 = EDGE_CURVE ( 'NONE', #213, #213, #35, .T. ) ;
#117 = APPLICATION_PROTOCOL_DEFINITION ( 'international standard', 'config_control_design', 1994, #254 ) ;
#118 = PERSON_AND_ORGANIZATION ( #45, #158 ) ;
#119 = CARTESIAN_POINT ( 'NONE',  ( 1.259842519685051800, 3.625984251968505900, 1.031496062992126600 ) ) ;
#120 = MANIFOLD_SOLID_BREP ( '1', #39 ) ;
#121 = DIRECTION ( 'NONE',  ( 0.0000000000000000000, 0.0000000000000000000, -1.000000000000000000 ) ) ;
#122 = APPROVAL_ROLE ( '' ) ;
#123 = AXIS2_PLACEMENT_3D ( 'NONE', #111, #16, #174 ) ;
#124 = CARTESIAN_POINT ( 'NONE',  ( 0.8908431888964519800, 2.480314960629928000, 4.443447491651077500E-016 ) ) ;
#125 = AXIS2_PLACEMENT_3D ( 'NONE', #216, #210, #204 ) ;
#126 = ORIENTED_EDGE ( 'NONE', *, *, #140, .F. ) ;
#127 = ORIENTED_EDGE ( 'NONE', *, *, #149, .F. ) ;
#128 = CYLINDRICAL_SURFACE ( 'NONE', #275, 0.5157480314960626300 ) ;
#129 = FACE_OUTER_BOUND ( 'NONE', #66, .T. ) ;
#130 = CARTESIAN_POINT ( 'NONE',  ( 2.185039370078759800, 3.110236220472426100, 1.308756301087091000E-015 ) ) ;
#131 = CARTESIAN_POINT ( 'NONE',  ( 0.5157480314960671800, 2.286274160281445100, 1.031496062992127300 ) ) ;
#132 = CIRCLE ( 'NONE', #273, 0.6299212598425193400 ) ;
#133 = CC_DESIGN_SECURITY_CLASSIFICATION ( #296, ( #262 ) ) ;
#134 = CARTESIAN_POINT ( 'NONE',  ( -0.5157480314960630800, 1.850393700787390500, 7.992539160156440200E-016 ) ) ;
#135 = ORIENTED_EDGE ( 'NONE', *, *, #183, .T. ) ;
#136 = COORDINATED_UNIVERSAL_TIME_OFFSET ( 5, 0, .BEHIND. ) ;
#137 = CARTESIAN_POINT ( 'NONE',  ( 3.110236220472458100, 3.683070866141720000, 1.411539484938499800E-015 ) ) ;
#138 =( NAMED_UNIT ( * ) PLANE_ANGLE_UNIT ( ) SI_UNIT ( $, .RADIAN. ) );
#139 = ORIENTED_EDGE ( 'NONE', *, *, #163, .F. ) ;
#140 = EDGE_CURVE ( 'NONE', #191, #191, #28, .T. ) ;
#141 = CARTESIAN_POINT ( 'NONE',  ( 0.6299212598425266700, 2.219393031576011300, -1.259842519685039800 ) ) ;
#142 = CARTESIAN_POINT ( 'NONE',  ( 1.259842519685056900, 2.480314960629921300, 1.259842519685040900 ) ) ;
#143 = CARTESIAN_POINT ( 'NONE',  ( -0.6299212598425183400, 2.957391693153212900, 3.378109751992124100E-016 ) ) ;
#144 = DATE_TIME_ROLE ( 'classification_date' ) ;
#145 = COORDINATED_UNIVERSAL_TIME_OFFSET ( 5, 0, .BEHIND. ) ;
#146 = EDGE_CURVE ( 'NONE', #107, #107, #132, .T. ) ;
#147 = DIRECTION ( 'NONE',  ( 3.901681134622988300E-018, 4.336808689942020200E-016, 1.000000000000000000 ) ) ;
#148 = AXIS2_PLACEMENT_3D ( 'NONE', #252, #253, #155 ) ;
#149 = EDGE_CURVE ( 'NONE', #176, #176, #13, .T. ) ;
#150 = CARTESIAN_POINT ( 'NONE',  ( -0.6299212598425183400, 2.957391693153212900, 3.378109751992124100E-016 ) ) ;
#151 = CARTESIAN_POINT ( 'NONE',  ( -0.5157480314960679600, 2.890510564447771100, 3.644341579368681400E-016 ) ) ;
#152 = CC_DESIGN_DATE_AND_TIME_ASSIGNMENT ( #25, #36, ( #214 ) ) ;
#153 = DIRECTION ( 'NONE',  ( 3.901681134622986800E-018, 5.296865575501705300E-016, 1.000000000000000000 ) ) ;
#154 = CC_DESIGN_PERSON_AND_ORGANIZATION_ASSIGNMENT ( #185, #256, ( #214 ) ) ;
#155 = DIRECTION ( 'NONE',  ( 0.0000000000000000000, 0.0000000000000000000, -1.000000000000000000 ) ) ;
#156 = APPROVAL ( #245, 'UNSPECIFIED' ) ;
#157 = DIRECTION ( 'NONE',  ( -4.212382714408243500E-017, -1.000000000000000000, 4.180489455276763600E-016 ) ) ;
#158 = ORGANIZATION ( 'UNSPECIFIED', 'UNSPECIFIED', '' ) ;
#159 = PERSON_AND_ORGANIZATION_ROLE ( 'creator' ) ;
#160 = ORIENTED_EDGE ( 'NONE', *, *, #146, .T. ) ;
#161 = PERSON_AND_ORGANIZATION_ROLE ( 'design_supplier' ) ;
#162 = ORIENTED_EDGE ( 'NONE', *, *, #257, .T. ) ;
#163 = EDGE_CURVE ( 'NONE', #175, #175, #27, .T. ) ;
#164 = CC_DESIGN_APPROVAL ( #156, ( #262 ) ) ;
#165 = FACE_OUTER_BOUND ( 'NONE', #78, .T. ) ;
#167 = ADVANCED_FACE ( 'NONE', ( #37, #48 ), #188, .T. ) ;
#166 = AXIS2_PLACEMENT_3D ( 'NONE', #194, #106, #84 ) ;
#168 = DIRECTION ( 'NONE',  ( -4.212382714408243500E-017, -1.000000000000000000, -4.180489455276764100E-016 ) ) ;
#169 = DESIGN_CONTEXT ( 'detailed design', #254, 'design' ) ;
#170 = FACE_OUTER_BOUND ( 'NONE', #217, .T. ) ;
#171 = ADVANCED_FACE ( 'NONE', ( #79, #31 ), #86, .T. ) ;
#172 = EDGE_LOOP ( 'NONE', ( #297 ) ) ;
#173 = CARTESIAN_POINT ( 'NONE',  ( -0.5157480314960629600, 1.850393700787389000, -1.031496062992125900 ) ) ;
#174 = DIRECTION ( 'NONE',  ( 0.0000000000000000000, 0.0000000000000000000, -1.000000000000000000 ) ) ;
#175 = VERTEX_POINT ( 'NONE', #90 ) ;
#176 = VERTEX_POINT ( 'NONE', #219 ) ;
#177 = CARTESIAN_POINT ( 'NONE',  ( -0.6299212598425202300, 1.850393700787404300, 1.259842519685041100 ) ) ;
#178 = CARTESIAN_POINT ( 'NONE',  ( -0.5157480314960675200, 2.890510564447772400, 1.031496062992126800 ) ) ;
#179 =( BOUNDED_SURFACE ( )  B_SPLINE_SURFACE ( 3, 3, ( 
 ( #274, #241, #218, #220 ),
 ( #276, #56, #212, #173 ),
 ( #233, #235, #87, #199 ),
 ( #193, #67, #97, #229 ),
 ( #88, #85, #131, #280 ),
 ( #119, #30, #178, #71 ),
 ( #281, #287, #151, #134 ) ),
 .UNSPECIFIED., .T., .F., .F. ) 
 B_SPLINE_SURFACE_WITH_KNOTS ( ( 4, 3, 4 ),
 ( 4, 4 ),
 ( 0.0000000000000000000, 0.5000000000000000000, 1.000000000000000000 ),
 ( 0.0000000000000000000, 1.000000000000000000 ),
 .UNSPECIFIED. ) 
 GEOMETRIC_REPRESENTATION_ITEM ( )  RATIONAL_B_SPLINE_SURFACE ( (
 ( 1.000000000000000000, 0.8047378541243629400, 0.8047378541243629400, 1.000000000000000000),
 ( 0.3333333333333333700, 0.2682459513747876800, 0.2682459513747876800, 0.3333333333333333700),
 ( 0.3333333333333333700, 0.2682459513747876800, 0.2682459513747876800, 0.3333333333333333700),
 ( 1.000000000000000000, 0.8047378541243629400, 0.8047378541243629400, 1.000000000000000000),
 ( 0.3333333333333333700, 0.2682459513747876800, 0.2682459513747876800, 0.3333333333333333700),
 ( 0.3333333333333333700, 0.2682459513747876800, 0.2682459513747876800, 0.3333333333333333700),
 ( 1.000000000000000000, 0.8047378541243629400, 0.8047378541243629400, 1.000000000000000000) ) ) 
 REPRESENTATION_ITEM ( '' )  SURFACE ( )  );
#180 = PRODUCT ( '581243010', '581243010', '', ( #272 ) ) ;
#181 = FACE_OUTER_BOUND ( 'NONE', #101, .T. ) ;
#182 = FACE_OUTER_BOUND ( 'NONE', #2, .T. ) ;
#183 = EDGE_CURVE ( 'NONE', #77, #77, #72, .T. ) ;
#184 = CC_DESIGN_PERSON_AND_ORGANIZATION_ASSIGNMENT ( #102, #22, ( #296 ) ) ;
#185 = PERSON_AND_ORGANIZATION ( #45, #158 ) ;
#186 = CARTESIAN_POINT ( 'NONE',  ( 4.743935417664061700E-017, 1.850393700787399000, 7.735550463241978900E-016 ) ) ;
#187 = ADVANCED_BREP_SHAPE_REPRESENTATION ( '581243010', ( #120, #38 ), #23 ) ;
#188 = CYLINDRICAL_SURFACE ( 'NONE', #290, 0.6299212598425193400 ) ;
#189 = DIRECTION ( 'NONE',  ( -1.000000000000000000, 1.910851281328521300E-017, -3.901681134622938200E-018 ) ) ;
#190 = APPLICATION_PROTOCOL_DEFINITION ( 'international standard', 'config_control_design', 1994, #74 ) ;
#191 = VERTEX_POINT ( 'NONE', #98 ) ;
#192 = CARTESIAN_POINT ( 'NONE',  ( 0.6299212598425272300, 2.219393031576013100, 5.544409206393430900E-016 ) ) ;
#193 = CARTESIAN_POINT ( 'NONE',  ( 1.259842519685054500, 2.594488188976378200, 4.100481566462749700E-016 ) ) ;
#194 = CARTESIAN_POINT ( 'NONE',  ( 2.185039370078759800, 3.110236220472426100, 1.308756301087091000E-015 ) ) ;
#195 = AXIS2_PLACEMENT_3D ( 'NONE', #137, #238, #6 ) ;
#196 = CC_DESIGN_PERSON_AND_ORGANIZATION_ASSIGNMENT ( #259, #161, ( #262 ) ) ;
#197 = CYLINDRICAL_SURFACE ( 'NONE', #266, 0.5157480314960626300 ) ;
#198 = DATE_AND_TIME ( #222, #43 ) ;
#199 = CARTESIAN_POINT ( 'NONE',  ( 0.5157480314960641900, 1.850393700787402100, -1.031496062992125900 ) ) ;
#200 = CALENDAR_DATE ( 2015, 4, 12 ) ;
#201 = LOCAL_TIME ( 14, 25, 5.000000000000000000, #291 ) ;
#202 = CARTESIAN_POINT ( 'NONE',  ( 2.457751895825501400E-018, 2.633379184426305900E-016, 0.6299212598425193400 ) ) ;
#203 = PERSON_AND_ORGANIZATION ( #45, #158 ) ;
#204 = DIRECTION ( 'NONE',  ( 3.901681134622986800E-018, 4.180489455276763100E-016, 1.000000000000000000 ) ) ;
#205 = DATE_AND_TIME ( #200, #288 ) ;
#206 = DATE_AND_TIME ( #3, #47 ) ;
#207 = CARTESIAN_POINT ( 'NONE',  ( 0.6299212598425213400, 1.850393700787408900, 7.087007017759371500E-016 ) ) ;
#208 = FACE_BOUND ( 'NONE', #108, .T. ) ;
#209 = FACE_OUTER_BOUND ( 'NONE', #41, .T. ) ;
#210 = DIRECTION ( 'NONE',  ( 4.212382714408243500E-017, 1.000000000000000000, 4.180489455276764100E-016 ) ) ;
#211 =( NAMED_UNIT ( * ) SI_UNIT ( $, .STERADIAN. ) SOLID_ANGLE_UNIT ( ) );
#212 = CARTESIAN_POINT ( 'NONE',  ( -0.5157480314960685200, 2.890510564447768900, -1.031496062992126200 ) ) ;
#213 = VERTEX_POINT ( 'NONE', #243 ) ;
#214 = PRODUCT_DEFINITION ( 'UNKNOWN', '', #262, #169 ) ;
#215 = CARTESIAN_POINT ( 'NONE',  ( 1.259842519685054900, 2.480314960629920400, -1.259842519685039800 ) ) ;
#216 = CARTESIAN_POINT ( 'NONE',  ( 0.0000000000000000000, 0.0000000000000000000, 0.0000000000000000000 ) ) ;
#217 = EDGE_LOOP ( 'NONE', ( #19 ) ) ;
#218 = CARTESIAN_POINT ( 'NONE',  ( -0.5157480314960679600, 2.890510564447771100, 3.644341579368681400E-016 ) ) ;
#219 = CARTESIAN_POINT ( 'NONE',  ( 4.945163854134775300E-017, 1.850393700787399200, 0.5157480314960634100 ) ) ;
#220 = CARTESIAN_POINT ( 'NONE',  ( -0.5157480314960630800, 1.850393700787390500, 7.992539160156440200E-016 ) ) ;
#221 = CC_DESIGN_PERSON_AND_ORGANIZATION_ASSIGNMENT ( #203, #159, ( #262 ) ) ;
#222 = CALENDAR_DATE ( 2015, 4, 12 ) ;
#223 = DIRECTION ( 'NONE',  ( 1.645885070588181500E-016, 1.000000000000000000, 4.180489455276764100E-016 ) ) ;
#224 = PLANE ( 'NONE',  #61 ) ;
#225 = CARTESIAN_POINT ( 'NONE',  ( 0.1528445273192435300, 3.740157480314967800, 7.522460776501739100E-018 ) ) ;
#226 = CARTESIAN_POINT ( 'NONE',  ( 2.012284364707129500E-018, 2.156079207249037800E-016, 0.5157480314960626300 ) ) ;
#227 = PERSON_AND_ORGANIZATION ( #45, #158 ) ;
#228 = DIRECTION ( 'NONE',  ( 0.0000000000000000000, 0.0000000000000000000, -1.000000000000000000 ) ) ;
#229 = CARTESIAN_POINT ( 'NONE',  ( 0.5157480314960640700, 1.850393700787403200, 7.240192922335755500E-016 ) ) ;
#230 = DIRECTION ( 'NONE',  ( 0.0000000000000000000, 0.0000000000000000000, 1.000000000000000000 ) ) ;
#231 =( BOUNDED_SURFACE ( )  B_SPLINE_SURFACE ( 3, 3, ( 
 ( #109, #225, #150, #81 ),
 ( #289, #58, #268, #261 ),
 ( #215, #115, #141, #270 ),
 ( #298, #124, #192, #207 ),
 ( #142, #100, #42, #93 ),
 ( #284, #20, #50, #177 ),
 ( #26, #62, #143, #286 ) ),
 .UNSPECIFIED., .T., .F., .F. ) 
 B_SPLINE_SURFACE_WITH_KNOTS ( ( 4, 3, 4 ),
 ( 4, 4 ),
 ( 0.0000000000000000000, 0.5000000000000000000, 1.000000000000000000 ),
 ( 0.0000000000000000000, 1.000000000000000000 ),
 .UNSPECIFIED. ) 
 GEOMETRIC_REPRESENTATION_ITEM ( )  RATIONAL_B_SPLINE_SURFACE ( (
 ( 1.000000000000000000, 0.8047378541243640500, 0.8047378541243640500, 1.000000000000000000),
 ( 0.3333333333333333700, 0.2682459513747880700, 0.2682459513747880700, 0.3333333333333333700),
 ( 0.3333333333333333700, 0.2682459513747880700, 0.2682459513747880700, 0.3333333333333333700),
 ( 1.000000000000000000, 0.8047378541243640500, 0.8047378541243640500, 1.000000000000000000),
 ( 0.3333333333333333700, 0.2682459513747880700, 0.2682459513747880700, 0.3333333333333333700),
 ( 0.3333333333333333700, 0.2682459513747880700, 0.2682459513747880700, 0.3333333333333333700),
 ( 1.000000000000000000, 0.8047378541243640500, 0.8047378541243640500, 1.000000000000000000) ) ) 
 REPRESENTATION_ITEM ( '' )  SURFACE ( )  );
#232 = EDGE_LOOP ( 'NONE', ( #59 ) ) ;
#233 = CARTESIAN_POINT ( 'NONE',  ( 1.259842519685053600, 2.594488188976377800, -1.031496062992126200 ) ) ;
#234 = CARTESIAN_POINT ( 'NONE',  ( 1.259842519685053300, 3.110236220472439400, 1.305146536999777300E-015 ) ) ;
#235 = CARTESIAN_POINT ( 'NONE',  ( 0.8239620601910133700, 2.594488188976383600, -1.031496062992126200 ) ) ;
#236 = AXIS2_PLACEMENT_3D ( 'NONE', #186, #223, #112 ) ;
#237 = EDGE_LOOP ( 'NONE', ( #139 ) ) ;
#238 = DIRECTION ( 'NONE',  ( 1.000000000000000000, 4.212382714408231800E-017, -3.901681134623004500E-018 ) ) ;
#239 = ADVANCED_FACE ( 'NONE', ( #33, #49 ), #55, .T. ) ;
#240 = DIRECTION ( 'NONE',  ( 3.901681134622986000E-018, 4.180489455276763100E-016, 1.000000000000000000 ) ) ;
#241 = CARTESIAN_POINT ( 'NONE',  ( 0.2197256560246707600, 3.625984251968509500, 5.410057459386038800E-017 ) ) ;
#242 = DIRECTION ( 'NONE',  ( -3.901681134622986800E-018, -4.180489455276763600E-016, -1.000000000000000000 ) ) ;
#243 = CARTESIAN_POINT ( 'NONE',  ( 1.259842519685053300, 3.110236220472439400, -0.5157480314960614100 ) ) ;
#244 = APPROVAL_PERSON_ORGANIZATION ( #118, #104, #122 ) ;
#245 = APPROVAL_STATUS ( 'not_yet_approved' ) ;
#246 = FACE_OUTER_BOUND ( 'NONE', #68, .T. ) ;
#247 = ORIENTED_EDGE ( 'NONE', *, *, #140, .T. ) ;
#248 = COORDINATED_UNIVERSAL_TIME_OFFSET ( 5, 0, .BEHIND. ) ;
#249 = APPROVAL ( #69, 'UNSPECIFIED' ) ;
#250 = DIMENSIONAL_EXPONENTS ( 1.000000000000000000, 0.0000000000000000000, 0.0000000000000000000, 0.0000000000000000000, 0.0000000000000000000, 0.0000000000000000000, 0.0000000000000000000 ) ;
#251 = DIRECTION ( 'NONE',  ( 4.212382714408243500E-017, 1.000000000000000000, 4.180489455276764100E-016 ) ) ;
#252 = CARTESIAN_POINT ( 'NONE',  ( 3.110236220472458100, 3.110236220472426100, 1.312366065174407500E-015 ) ) ;
#253 = DIRECTION ( 'NONE',  ( -1.000000000000000000, -4.212382714408232400E-017, -3.901681134623086100E-018 ) ) ;
#254 = APPLICATION_CONTEXT ( 'configuration controlled 3d designs of mechanical parts and assemblies' ) ;
#255 = PERSON_AND_ORGANIZATION ( #45, #158 ) ;
#256 = PERSON_AND_ORGANIZATION_ROLE ( 'creator' ) ;
#257 = EDGE_CURVE ( 'NONE', #1, #1, #8, .T. ) ;
#258 = CALENDAR_DATE ( 2015, 4, 12 ) ;
#259 = PERSON_AND_ORGANIZATION ( #45, #158 ) ;
#260 = CC_DESIGN_DATE_AND_TIME_ASSIGNMENT ( #198, #144, ( #296 ) ) ;
#261 = CARTESIAN_POINT ( 'NONE',  ( -0.6299212598425209000, 1.850393700787401000, -1.259842519685039400 ) ) ;
#262 = PRODUCT_DEFINITION_FORMATION_WITH_SPECIFIED_SOURCE ( 'ANY', '', #180, .NOT_KNOWN. ) ;
#263 = CARTESIAN_POINT ( 'NONE',  ( 1.259842519685053300, 3.110236220472439400, 1.305146536999777300E-015 ) ) ;
#264 = DIRECTION ( 'NONE',  ( 1.000000000000000000, 4.212382714408232400E-017, 3.901681134623086100E-018 ) ) ;
#265 = AXIS2_PLACEMENT_3D ( 'NONE', #234, #76, #228 ) ;
#266 = AXIS2_PLACEMENT_3D ( 'NONE', #130, #264, #121 ) ;
#267 = CARTESIAN_POINT ( 'NONE',  ( -0.5728346456692908800, 0.0000000000000000000, -1.425345525686019700E-016 ) ) ;
#268 = CARTESIAN_POINT ( 'NONE',  ( -0.6299212598425192300, 2.957391693153212000, -1.259842519685040000 ) ) ;
#269 = DATE_AND_TIME ( #51, #201 ) ;
#270 = CARTESIAN_POINT ( 'NONE',  ( 0.6299212598425213400, 1.850393700787407400, -1.259842519685039400 ) ) ;
#271 = ADVANCED_FACE ( 'NONE', ( #53, #209 ), #197, .F. ) ;
#272 = MECHANICAL_CONTEXT ( 'NONE', #74, 'mechanical' ) ;
#273 = AXIS2_PLACEMENT_3D ( 'NONE', #46, #29, #240 ) ;
#274 = CARTESIAN_POINT ( 'NONE',  ( 1.259842519685051100, 3.625984251968505000, 5.004237024911539600E-017 ) ) ;
#275 = AXIS2_PLACEMENT_3D ( 'NONE', #89, #251, #153 ) ;
#276 = CARTESIAN_POINT ( 'NONE',  ( 1.259842519685050500, 3.625984251968504600, -1.031496062992126600 ) ) ;
#277 = ORIENTED_EDGE ( 'NONE', *, *, #146, .F. ) ;
#278 = AXIS2_PLACEMENT_3D ( 'NONE', #99, #168, #285 ) ;
#279 = FACE_OUTER_BOUND ( 'NONE', #18, .T. ) ;
#280 = CARTESIAN_POINT ( 'NONE',  ( 0.5157480314960641900, 1.850393700787404700, 1.031496062992127300 ) ) ;
#281 = CARTESIAN_POINT ( 'NONE',  ( 1.259842519685051100, 3.625984251968505000, 5.004237024911539600E-017 ) ) ;
#282 = LENGTH_MEASURE_WITH_UNIT ( LENGTH_MEASURE( 0.02539999999999999900 ), #17 );
#283 = APPROVAL_ROLE ( '' ) ;
#284 = CARTESIAN_POINT ( 'NONE',  ( 1.259842519685055100, 3.740157480314963300, 1.259842519685040200 ) ) ;
#285 = DIRECTION ( 'NONE',  ( 3.901681134622993700E-018, 5.296865575501705300E-016, 1.000000000000000000 ) ) ;
#286 = CARTESIAN_POINT ( 'NONE',  ( -0.6299212598425202300, 1.850393700787402500, 8.005903186089942700E-016 ) ) ;
#287 = CARTESIAN_POINT ( 'NONE',  ( 0.2197256560246707600, 3.625984251968509500, 5.410057459386038800E-017 ) ) ;
#288 = LOCAL_TIME ( 14, 25, 5.000000000000000000, #145 ) ;
#289 = CARTESIAN_POINT ( 'NONE',  ( 1.259842519685053100, 3.740157480314962400, -1.259842519685040200 ) ) ;
#290 = AXIS2_PLACEMENT_3D ( 'NONE', #21, #92, #147 ) ;
#291 = COORDINATED_UNIVERSAL_TIME_OFFSET ( 5, 0, .BEHIND. ) ;
#292 = ORIENTED_EDGE ( 'NONE', *, *, #105, .T. ) ;
#293 = UNCERTAINTY_MEASURE_WITH_UNIT (LENGTH_MEASURE( 1.000000000000000100E-005 ), #73, 'distance_accuracy_value', 'NONE');
#294 = DIRECTION ( 'NONE',  ( 1.000000000000000000, 0.0000000000000000000, 0.0000000000000000000 ) ) ;
#295 = SECURITY_CLASSIFICATION_LEVEL ( 'unclassified' ) ;
#296 = SECURITY_CLASSIFICATION ( '', '', #295 ) ;
#297 = ORIENTED_EDGE ( 'NONE', *, *, #105, .F. ) ;
#298 = CARTESIAN_POINT ( 'NONE',  ( 1.259842519685055800, 2.480314960629920900, 4.429050314374843700E-016 ) ) ;
#299 = CC_DESIGN_PERSON_AND_ORGANIZATION_ASSIGNMENT ( #227, #14, ( #180 ) ) ;
#300 = ORIENTED_EDGE ( 'NONE', *, *, #183, .F. ) ;
ENDSEC;
END-ISO-10303-21;
