ISO-10303-21;
HEADER;
FILE_DESCRIPTION (( 'STEP AP203' ),
    '1' );
FILE_NAME ('581243015.STEP',
    '2015-12-04T19:30:19',
    ( '' ),
    ( '' ),
    'SwSTEP 2.0',
    'SolidWorks 2015',
    '' );
FILE_SCHEMA (( 'CONFIG_CONTROL_DESIGN' ));
ENDSEC;

DATA;
#1 = CARTESIAN_POINT ( 'NONE',  ( 0.2388195739363073200, 5.255905511811035600, 1.968503937007917100 ) ) ;
#2 = ORGANIZATION ( 'UNSPECIFIED', 'UNSPECIFIED', '' ) ;
#3 = EDGE_LOOP ( 'NONE', ( #72 ) ) ;
#4 = ADVANCED_FACE ( 'NONE', ( #136, #34 ), #32, .T. ) ;
#5 = COORDINATED_UNIVERSAL_TIME_OFFSET ( 5, 0, .BEHIND. ) ;
#6 = LOCAL_TIME ( 14, 30, 19.00000000000000000, #74 ) ;
#7 = EDGE_LOOP ( 'NONE', ( #291 ) ) ;
#8 = PRODUCT_RELATED_PRODUCT_CATEGORY ( 'detail', '', ( #219 ) ) ;
#9 = FACE_OUTER_BOUND ( 'NONE', #80, .T. ) ;
#10 = ADVANCED_FACE ( 'NONE', ( #70, #289 ), #43, .T. ) ;
#11 =( NAMED_UNIT ( * ) PLANE_ANGLE_UNIT ( ) SI_UNIT ( $, .RADIAN. ) );
#12 = EDGE_LOOP ( 'NONE', ( #162 ) ) ;
#13 = VERTEX_POINT ( 'NONE', #227 ) ;
#14 = EDGE_LOOP ( 'NONE', ( #141 ) ) ;
#15 = ORIENTED_EDGE ( 'NONE', *, *, #185, .F. ) ;
#16 = PERSON_AND_ORGANIZATION ( #87, #2 ) ;
#17 = ORIENTED_EDGE ( 'NONE', *, *, #115, .F. ) ;
#18 = DIRECTION ( 'NONE',  ( -1.000000000000000000, 4.814979126027489500E-016, -1.496895041215907400E-015 ) ) ;
#19 = CARTESIAN_POINT ( 'NONE',  ( 0.8031496062992116200, 2.303149606299229400, 1.071647502448289900E-014 ) ) ;
#20 = CARTESIAN_POINT ( 'NONE',  ( 0.9842519685039471400, 2.879711060656409100, 1.968503937007907200 ) ) ;
#21 = CC_DESIGN_DATE_AND_TIME_ASSIGNMENT ( #157, #65, ( #191 ) ) ;
#22 = CARTESIAN_POINT ( 'NONE',  ( -0.9842519685039322600, 4.032833969370793500, 1.968503937007917600 ) ) ;
#23 = APPLICATION_PROTOCOL_DEFINITION ( 'international standard', 'config_control_design', 1994, #114 ) ;
#24 =( BOUNDED_SURFACE ( )  B_SPLINE_SURFACE ( 3, 3, ( 
 ( #35, #105, #57, #269 ),
 ( #245, #298, #45, #271 ),
 ( #276, #90, #79, #234 ),
 ( #103, #183, #56, #50 ),
 ( #137, #225, #20, #209 ),
 ( #201, #1, #22, #94 ),
 ( #161, #155, #27, #131 ) ),
 .UNSPECIFIED., .T., .F., .T. ) 
 B_SPLINE_SURFACE_WITH_KNOTS ( ( 4, 3, 4 ),
 ( 4, 4 ),
 ( 0.0000000000000000000, 0.5000000000000000000, 1.000000000000000000 ),
 ( 0.0000000000000000000, 1.000000000000000000 ),
 .UNSPECIFIED. ) 
 GEOMETRIC_REPRESENTATION_ITEM ( )  RATIONAL_B_SPLINE_SURFACE ( (
 ( 1.000000000000000000, 0.8047378541243658300, 0.8047378541243658300, 1.000000000000000000),
 ( 0.3333333333333333700, 0.2682459513747886300, 0.2682459513747886300, 0.3333333333333333700),
 ( 0.3333333333333333700, 0.2682459513747886300, 0.2682459513747886300, 0.3333333333333333700),
 ( 1.000000000000000000, 0.8047378541243658300, 0.8047378541243658300, 1.000000000000000000),
 ( 0.3333333333333333700, 0.2682459513747886300, 0.2682459513747886300, 0.3333333333333333700),
 ( 0.3333333333333333700, 0.2682459513747886300, 0.2682459513747886300, 0.3333333333333333700),
 ( 1.000000000000000000, 0.8047378541243658300, 0.8047378541243658300, 1.000000000000000000) ) ) 
 REPRESENTATION_ITEM ( '' )  SURFACE ( )  );
#25 = CIRCLE ( 'NONE', #143, 0.8031496062992159500 ) ;
#26 = CARTESIAN_POINT ( 'NONE',  ( 1.968503937007875600, 5.255905511811030300, -7.950301978406569500E-016 ) ) ;
#27 = CARTESIAN_POINT ( 'NONE',  ( -0.9842519685039393700, 4.032833969370804200, 2.163127488969699300E-014 ) ) ;
#28 = PERSON_AND_ORGANIZATION_ROLE ( 'creator' ) ;
#29 = DIRECTION ( 'NONE',  ( -4.202655726453775800E-016, 1.000000000000000000, -1.268705710633700100E-015 ) ) ;
#30 = AXIS2_PLACEMENT_3D ( 'NONE', #60, #229, #193 ) ;
#31 = CARTESIAN_POINT ( 'NONE',  ( 0.3449068815380255700, 5.074803149606307100, 1.606299212598462500 ) ) ;
#32 = PLANE ( 'NONE',  #176 ) ;
#33 = AXIS2_PLACEMENT_3D ( 'NONE', #122, #91, #174 ) ;
#34 = FACE_BOUND ( 'NONE', #211, .T. ) ;
#35 = CARTESIAN_POINT ( 'NONE',  ( 1.968503937007876300, 5.255905511811044500, 1.827129442836332800E-014 ) ) ;
#36 =( LENGTH_UNIT ( ) NAMED_UNIT ( * ) SI_UNIT ( $, .METRE. ) );
#37 = DIRECTION ( 'NONE',  ( -2.775557561562882500E-016, 1.000000000000000000, -1.268705710633699700E-015 ) ) ;
#38 = LOCAL_TIME ( 14, 30, 19.00000000000000000, #5 ) ;
#39 = AXIS2_PLACEMENT_3D ( 'NONE', #285, #29, #117 ) ;
#40 = PERSON_AND_ORGANIZATION ( #87, #2 ) ;
#41 = CC_DESIGN_DATE_AND_TIME_ASSIGNMENT ( #192, #68, ( #100 ) ) ;
#42 = CARTESIAN_POINT ( 'NONE',  ( 1.968503937007875800, 4.271653543307090600, 4.536958953027522000E-016 ) ) ;
#43 = PLANE ( 'NONE',  #67 ) ;
#44 = DIRECTION ( 'NONE',  ( 1.000000000000000000, 0.0000000000000000000, 0.0000000000000000000 ) ) ;
#45 = CARTESIAN_POINT ( 'NONE',  ( -0.9842519685039465800, 4.032833969370814800, -1.968503937007874500 ) ) ;
#46 = EDGE_LOOP ( 'NONE', ( #84 ) ) ;
#47 = PRODUCT_DEFINITION_SHAPE ( 'NONE', 'NONE',  #191 ) ;
#48 = SHAPE_DEFINITION_REPRESENTATION ( #47, #284 ) ;
#49 = EDGE_LOOP ( 'NONE', ( #108 ) ) ;
#50 = CARTESIAN_POINT ( 'NONE',  ( 0.9842519685039368100, 2.303149606299230700, 9.820703494153365900E-015 ) ) ;
#51 = DIRECTION ( 'NONE',  ( 1.663428494909673000E-015, -1.249000902703296000E-015, 1.000000000000000000 ) ) ;
#52 = DIRECTION ( 'NONE',  ( 1.663428494909672600E-015, -1.268705710633700700E-015, 1.000000000000000000 ) ) ;
#53 = UNCERTAINTY_MEASURE_WITH_UNIT (LENGTH_MEASURE( 1.000000000000000100E-005 ), #59, 'distance_accuracy_value', 'NONE');
#54 = AXIS2_PLACEMENT_3D ( 'NONE', #42, #266, #243 ) ;
#55 = EDGE_LOOP ( 'NONE', ( #300 ) ) ;
#56 = CARTESIAN_POINT ( 'NONE',  ( 0.9842519685039408100, 2.879711060656420200, 1.055219030382759600E-014 ) ) ;
#57 = CARTESIAN_POINT ( 'NONE',  ( -0.9842519685039393700, 4.032833969370804200, 2.163127488969699300E-014 ) ) ;
#58 = CYLINDRICAL_SURFACE ( 'NONE', #135, 0.9842519685039411400 ) ;
#59 =( CONVERSION_BASED_UNIT ( 'INCH', #277 ) LENGTH_UNIT ( ) NAMED_UNIT ( #124 ) );
#60 = CARTESIAN_POINT ( 'NONE',  ( 0.0000000000000000000, 1.151574803149614900, -2.397196614440454400E-017 ) ) ;
#61 = CARTESIAN_POINT ( 'NONE',  ( -0.8031496062992202800, 2.303149606299228500, 1.856322157316395200E-014 ) ) ;
#62 = MECHANICAL_CONTEXT ( 'NONE', #237, 'mechanical' ) ;
#63 = CALENDAR_DATE ( 2015, 4, 12 ) ;
#64 = DIRECTION ( 'NONE',  ( -1.000000000000000000, 4.202655726453810300E-016, -1.496895041215907400E-015 ) ) ;
#65 = DATE_TIME_ROLE ( 'creation_date' ) ;
#66 = VERTEX_POINT ( 'NONE', #93 ) ;
#67 = AXIS2_PLACEMENT_3D ( 'NONE', #258, #242, #147 ) ;
#68 = DATE_TIME_ROLE ( 'classification_date' ) ;
#69 = EDGE_CURVE ( 'NONE', #66, #66, #92, .T. ) ;
#70 = FACE_BOUND ( 'NONE', #46, .T. ) ;
#71 =( BOUNDED_SURFACE ( )  B_SPLINE_SURFACE ( 3, 3, ( 
 ( #89, #133, #121, #159 ),
 ( #244, #153, #257, #278 ),
 ( #218, #126, #235, #231 ),
 ( #127, #238, #287, #19 ),
 ( #260, #213, #102, #86 ),
 ( #217, #31, #246, #261 ),
 ( #263, #177, #274, #61 ) ),
 .UNSPECIFIED., .T., .F., .T. ) 
 B_SPLINE_SURFACE_WITH_KNOTS ( ( 4, 3, 4 ),
 ( 4, 4 ),
 ( 0.0000000000000000000, 0.5000000000000000000, 1.000000000000000000 ),
 ( 0.0000000000000000000, 1.000000000000000000 ),
 .UNSPECIFIED. ) 
 GEOMETRIC_REPRESENTATION_ITEM ( )  RATIONAL_B_SPLINE_SURFACE ( (
 ( 1.000000000000000000, 0.8047378541243658300, 0.8047378541243658300, 1.000000000000000000),
 ( 0.3333333333333333700, 0.2682459513747886300, 0.2682459513747886300, 0.3333333333333333700),
 ( 0.3333333333333333700, 0.2682459513747886300, 0.2682459513747886300, 0.3333333333333333700),
 ( 1.000000000000000000, 0.8047378541243658300, 0.8047378541243658300, 1.000000000000000000),
 ( 0.3333333333333333700, 0.2682459513747886300, 0.2682459513747886300, 0.3333333333333333700),
 ( 0.3333333333333333700, 0.2682459513747886300, 0.2682459513747886300, 0.3333333333333333700),
 ( 1.000000000000000000, 0.8047378541243658300, 0.8047378541243658300, 1.000000000000000000) ) ) 
 REPRESENTATION_ITEM ( '' )  SURFACE ( )  );
#72 = ORIENTED_EDGE ( 'NONE', *, *, #208, .F. ) ;
#73 = CIRCLE ( 'NONE', #33, 0.9842519685039370400 ) ;
#74 = COORDINATED_UNIVERSAL_TIME_OFFSET ( 5, 0, .BEHIND. ) ;
#75 = AXIS2_PLACEMENT_3D ( 'NONE', #275, #64, #188 ) ;
#76 = ORIENTED_EDGE ( 'NONE', *, *, #259, .F. ) ;
#77 = DIRECTION ( 'NONE',  ( -1.665334536937727900E-015, 1.110223024625152000E-015, -1.000000000000000000 ) ) ;
#78 = FACE_OUTER_BOUND ( 'NONE', #149, .T. ) ;
#79 = CARTESIAN_POINT ( 'NONE',  ( 0.9842519685039343700, 2.879711060656430900, -1.968503937007885200 ) ) ;
#80 = EDGE_LOOP ( 'NONE', ( #116 ) ) ;
#81 = CIRCLE ( 'NONE', #296, 0.9842519685039411400 ) ;
#82 = CARTESIAN_POINT ( 'NONE',  ( -0.8937007874015768800, 5.463695987328526400E-016, 1.703431261294272100E-018 ) ) ;
#83 = EDGE_CURVE ( 'NONE', #158, #158, #226, .T. ) ;
#84 = ORIENTED_EDGE ( 'NONE', *, *, #83, .T. ) ;
#85 = CC_DESIGN_PERSON_AND_ORGANIZATION_ASSIGNMENT ( #233, #236, ( #202 ) ) ;
#86 = CARTESIAN_POINT ( 'NONE',  ( 0.8031496062992192800, 2.303149606299223600, 1.606299212598453400 ) ) ;
#87 = PERSON ( 'UNSPECIFIED', 'UNSPECIFIED', 'UNSPECIFIED', ('UNSPECIFIED'), ('UNSPECIFIED'), ('UNSPECIFIED') ) ;
#88 = APPROVAL_DATE_TIME ( #215, #205 ) ;
#89 = CARTESIAN_POINT ( 'NONE',  ( 1.968503937007871400, 5.074803149606319500, 1.746918676950141500E-014 ) ) ;
#90 = CARTESIAN_POINT ( 'NONE',  ( 1.391942482650689000, 3.287401574803176200, -1.968503937007885600 ) ) ;
#91 = DIRECTION ( 'NONE',  ( -2.978008927306426800E-016, 1.000000000000000000, -1.268705710633700300E-015 ) ) ;
#92 = CIRCLE ( 'NONE', #39, 0.9842519685039411400 ) ;
#93 = CARTESIAN_POINT ( 'NONE',  ( 1.637232770580393600E-015, -1.248726093143411500E-015, 0.9842519685039411400 ) ) ;
#94 = CARTESIAN_POINT ( 'NONE',  ( -0.9842519685039352600, 2.303149606299226300, 1.968503937007915600 ) ) ;
#95 = APPROVAL_DATE_TIME ( #272, #111 ) ;
#96 = APPROVAL_ROLE ( '' ) ;
#97 = DIRECTION ( 'NONE',  ( -4.202655726453775800E-016, 1.000000000000000000, -1.268705710633700100E-015 ) ) ;
#98 = CC_DESIGN_PERSON_AND_ORGANIZATION_ASSIGNMENT ( #166, #196, ( #100 ) ) ;
#99 = VERTEX_POINT ( 'NONE', #148 ) ;
#100 = SECURITY_CLASSIFICATION ( '', '', #152 ) ;
#101 = VERTEX_POINT ( 'NONE', #248 ) ;
#102 = CARTESIAN_POINT ( 'NONE',  ( 0.8031496062992201600, 2.985798368258132800, 1.606299212598454300 ) ) ;
#103 = CARTESIAN_POINT ( 'NONE',  ( 1.968503937007879600, 3.287401574803162400, 9.432196816716369100E-015 ) ) ;
#104 = CIRCLE ( 'NONE', #216, 0.8031496062992159500 ) ;
#105 = CARTESIAN_POINT ( 'NONE',  ( 0.2388195739363051000, 5.255905511811044500, 2.114850068509626700E-014 ) ) ;
#106 = DIRECTION ( 'NONE',  ( -4.202655726453775800E-016, 1.000000000000000000, -1.268705710633700100E-015 ) ) ;
#107 = PERSON_AND_ORGANIZATION_ROLE ( 'design_owner' ) ;
#108 = ORIENTED_EDGE ( 'NONE', *, *, #69, .T. ) ;
#109 = DIRECTION ( 'NONE',  ( -1.663428494909672800E-015, 1.268705710633700700E-015, -1.000000000000000000 ) ) ;
#110 = VERTEX_POINT ( 'NONE', #26 ) ;
#111 = APPROVAL ( #140, 'UNSPECIFIED' ) ;
#112 = CIRCLE ( 'NONE', #54, 0.8031496062992159500 ) ;
#113 = FACE_OUTER_BOUND ( 'NONE', #12, .T. ) ;
#114 = APPLICATION_CONTEXT ( 'configuration controlled 3d designs of mechanical parts and assemblies' ) ;
#115 = EDGE_CURVE ( 'NONE', #110, #110, #230, .T. ) ;
#116 = ORIENTED_EDGE ( 'NONE', *, *, #134, .T. ) ;
#117 = DIRECTION ( 'NONE',  ( 1.663428494909673000E-015, -1.268705710633700700E-015, 1.000000000000000000 ) ) ;
#118 = EDGE_LOOP ( 'NONE', ( #17 ) ) ;
#119 = ORIENTED_EDGE ( 'NONE', *, *, #134, .F. ) ;
#120 = ADVANCED_FACE ( 'NONE', ( #9, #252 ), #71, .F. ) ;
#121 = CARTESIAN_POINT ( 'NONE',  ( -0.8031496062992173900, 3.926746661769076500, 2.062308842920660400E-014 ) ) ;
#122 = CARTESIAN_POINT ( 'NONE',  ( 0.0000000000000000000, 2.303149606299228000, -1.140683129754514800E-015 ) ) ;
#123 = APPROVAL_STATUS ( 'not_yet_approved' ) ;
#124 = DIMENSIONAL_EXPONENTS ( 1.000000000000000000, 0.0000000000000000000, 0.0000000000000000000, 0.0000000000000000000, 0.0000000000000000000, 0.0000000000000000000, 0.0000000000000000000 ) ;
#125 = APPROVAL_ROLE ( '' ) ;
#126 = CARTESIAN_POINT ( 'NONE',  ( 1.285855175048963500, 3.468503937007898100, -1.606299212598431200 ) ) ;
#127 = CARTESIAN_POINT ( 'NONE',  ( 1.968503937007877400, 3.468503937007887800, 1.025648311839750200E-014 ) ) ;
#128 = APPROVAL ( #168, 'UNSPECIFIED' ) ;
#129 = FACE_OUTER_BOUND ( 'NONE', #3, .T. ) ;
#130 = EDGE_LOOP ( 'NONE', ( #119 ) ) ;
#131 = CARTESIAN_POINT ( 'NONE',  ( -0.9842519685039450300, 2.303149606299233400, 1.943681446067428600E-014 ) ) ;
#132 = LOCAL_TIME ( 14, 30, 19.00000000000000000, #151 ) ;
#133 = CARTESIAN_POINT ( 'NONE',  ( 0.3449068815380232900, 5.074803149606317700, 2.016992437582139600E-014 ) ) ;
#134 = EDGE_CURVE ( 'NONE', #175, #175, #112, .T. ) ;
#135 = AXIS2_PLACEMENT_3D ( 'NONE', #222, #195, #163 ) ;
#136 = FACE_OUTER_BOUND ( 'NONE', #142, .T. ) ;
#137 = CARTESIAN_POINT ( 'NONE',  ( 1.968503937007877800, 3.287401574803154000, 1.968503937007905600 ) ) ;
#138 = CARTESIAN_POINT ( 'NONE',  ( 1.335981940793600900E-015, 2.303149606299227200, 0.8031496062992148400 ) ) ;
#139 = CC_DESIGN_SECURITY_CLASSIFICATION ( #100, ( #202 ) ) ;
#140 = APPROVAL_STATUS ( 'not_yet_approved' ) ;
#141 = ORIENTED_EDGE ( 'NONE', *, *, #249, .T. ) ;
#142 = EDGE_LOOP ( 'NONE', ( #167 ) ) ;
#143 = AXIS2_PLACEMENT_3D ( 'NONE', #204, #106, #52 ) ;
#144 = CARTESIAN_POINT ( 'NONE',  ( 0.0000000000000000000, 0.0000000000000000000, 0.0000000000000000000 ) ) ;
#145 = CARTESIAN_POINT ( 'NONE',  ( 4.271653543307087000, 4.271653543307091500, -0.8031496062992074000 ) ) ;
#146 = APPROVAL_PERSON_ORGANIZATION ( #40, #128, #96 ) ;
#147 = DIRECTION ( 'NONE',  ( -1.663428494909672800E-015, 1.268705710633700700E-015, -1.000000000000000000 ) ) ;
#148 = CARTESIAN_POINT ( 'NONE',  ( 4.271653543307087000, 4.271653543307091500, -0.9842519685039325900 ) ) ;
#149 = EDGE_LOOP ( 'NONE', ( #15 ) ) ;
#150 = ADVANCED_FACE ( 'NONE', ( #129, #210 ), #256, .F. ) ;
#151 = COORDINATED_UNIVERSAL_TIME_OFFSET ( 5, 0, .BEHIND. ) ;
#152 = SECURITY_CLASSIFICATION_LEVEL ( 'unclassified' ) ;
#153 = CARTESIAN_POINT ( 'NONE',  ( 0.3449068815380217400, 5.074803149606327500, -1.606299212598423000 ) ) ;
#154 = FACE_OUTER_BOUND ( 'NONE', #118, .T. ) ;
#155 = CARTESIAN_POINT ( 'NONE',  ( 0.2388195739363051000, 5.255905511811044500, 2.114850068509626700E-014 ) ) ;
#156 = EDGE_LOOP ( 'NONE', ( #76 ) ) ;
#157 = DATE_AND_TIME ( #200, #38 ) ;
#158 = VERTEX_POINT ( 'NONE', #145 ) ;
#159 = CARTESIAN_POINT ( 'NONE',  ( -0.8031496062992202800, 2.303149606299228500, 1.856322157316395200E-014 ) ) ;
#160 = AXIS2_PLACEMENT_3D ( 'NONE', #240, #280, #241 ) ;
#161 = CARTESIAN_POINT ( 'NONE',  ( 1.968503937007876300, 5.255905511811044500, 1.827129442836332800E-014 ) ) ;
#162 = ORIENTED_EDGE ( 'NONE', *, *, #115, .T. ) ;
#163 = DIRECTION ( 'NONE',  ( -1.665334536937727900E-015, 1.110223024625152000E-015, -1.000000000000000000 ) ) ;
#164 = CARTESIAN_POINT ( 'NONE',  ( 0.0000000000000000000, 1.151574803149614900, -2.397196614440454400E-017 ) ) ;
#165 = CC_DESIGN_PERSON_AND_ORGANIZATION_ASSIGNMENT ( #181, #28, ( #191 ) ) ;
#166 = PERSON_AND_ORGANIZATION ( #87, #2 ) ;
#167 = ORIENTED_EDGE ( 'NONE', *, *, #69, .F. ) ;
#168 = APPROVAL_STATUS ( 'not_yet_approved' ) ;
#169 = ADVANCED_FACE ( 'NONE', ( #113, #281 ), #24, .T. ) ;
#170 = VERTEX_POINT ( 'NONE', #138 ) ;
#171 = LOCAL_TIME ( 14, 30, 19.00000000000000000, #251 ) ;
#172 = DIRECTION ( 'NONE',  ( 4.202655726453733400E-016, -1.000000000000000000, -1.268705710633701500E-015 ) ) ;
#173 = AXIS2_PLACEMENT_3D ( 'NONE', #164, #97, #51 ) ;
#174 = DIRECTION ( 'NONE',  ( -1.000000000000000000, 5.551115123125782700E-016, -1.496895041215907800E-015 ) ) ;
#175 = VERTEX_POINT ( 'NONE', #194 ) ;
#176 = AXIS2_PLACEMENT_3D ( 'NONE', #82, #172, #109 ) ;
#177 = CARTESIAN_POINT ( 'NONE',  ( 0.3449068815380232900, 5.074803149606317700, 2.016992437582139600E-014 ) ) ;
#178 =( GEOMETRIC_REPRESENTATION_CONTEXT ( 3 ) GLOBAL_UNCERTAINTY_ASSIGNED_CONTEXT ( ( #53 ) ) GLOBAL_UNIT_ASSIGNED_CONTEXT ( ( #59, #11, #198 ) ) REPRESENTATION_CONTEXT ( 'NONE', 'WORKASPACE' ) );
#179 = PERSON_AND_ORGANIZATION ( #87, #2 ) ;
#180 = CLOSED_SHELL ( 'NONE', ( #169, #295, #232, #4, #10, #150, #247, #120 ) ) ;
#181 = PERSON_AND_ORGANIZATION ( #87, #2 ) ;
#182 = CC_DESIGN_PERSON_AND_ORGANIZATION_ASSIGNMENT ( #16, #107, ( #219 ) ) ;
#183 = CARTESIAN_POINT ( 'NONE',  ( 1.391942482650690100, 3.287401574803164600, 1.039126556896068200E-014 ) ) ;
#184 = CARTESIAN_POINT ( 'NONE',  ( 0.0000000000000000000, 2.303149606299228000, -1.140683129754514800E-015 ) ) ;
#185 = EDGE_CURVE ( 'NONE', #13, #13, #73, .T. ) ;
#186 = LOCAL_TIME ( 14, 30, 19.00000000000000000, #223 ) ;
#187 = CC_DESIGN_APPROVAL ( #111, ( #202 ) ) ;
#188 = DIRECTION ( 'NONE',  ( -1.360567432138666600E-015, 1.360567432138666600E-015, -1.000000000000000000 ) ) ;
#189 = AXIS2_PLACEMENT_3D ( 'NONE', #144, #250, #44 ) ;
#190 = APPROVAL_PERSON_ORGANIZATION ( #254, #205, #268 ) ;
#191 = PRODUCT_DEFINITION ( 'UNKNOWN', '', #202, #294 ) ;
#192 = DATE_AND_TIME ( #63, #132 ) ;
#193 = DIRECTION ( 'NONE',  ( 1.663428494909672600E-015, -1.190496503121333200E-015, 1.000000000000000000 ) ) ;
#194 = CARTESIAN_POINT ( 'NONE',  ( 1.968503937007874500, 4.271653543307091500, -0.8031496062992155000 ) ) ;
#195 = DIRECTION ( 'NONE',  ( 1.000000000000000000, -4.202655726453810300E-016, 1.496895041215907400E-015 ) ) ;
#196 = PERSON_AND_ORGANIZATION_ROLE ( 'classification_officer' ) ;
#197 = APPLICATION_PROTOCOL_DEFINITION ( 'international standard', 'config_control_design', 1994, #237 ) ;
#198 =( NAMED_UNIT ( * ) SI_UNIT ( $, .STERADIAN. ) SOLID_ANGLE_UNIT ( ) );
#199 = CALENDAR_DATE ( 2015, 4, 12 ) ;
#200 = CALENDAR_DATE ( 2015, 4, 12 ) ;
#201 = CARTESIAN_POINT ( 'NONE',  ( 1.968503937007874500, 5.255905511811036500, 1.968503937007913800 ) ) ;
#202 = PRODUCT_DEFINITION_FORMATION_WITH_SPECIFIED_SOURCE ( 'ANY', '', #219, .NOT_KNOWN. ) ;
#203 = ORIENTED_EDGE ( 'NONE', *, *, #249, .F. ) ;
#204 = CARTESIAN_POINT ( 'NONE',  ( 0.0000000000000000000, 0.0000000000000000000, 0.0000000000000000000 ) ) ;
#205 = APPROVAL ( #123, 'UNSPECIFIED' ) ;
#206 = CARTESIAN_POINT ( 'NONE',  ( 4.271653543307087900, 4.271653543307090600, 8.644849976349045300E-015 ) ) ;
#207 = DIRECTION ( 'NONE',  ( 4.202655726453775800E-016, -1.000000000000000000, 1.268705710633700100E-015 ) ) ;
#208 = EDGE_CURVE ( 'NONE', #170, #170, #104, .T. ) ;
#209 = CARTESIAN_POINT ( 'NONE',  ( 0.9842519685039461400, 2.303149606299222700, 1.968503937007905800 ) ) ;
#210 = FACE_OUTER_BOUND ( 'NONE', #156, .T. ) ;
#211 = EDGE_LOOP ( 'NONE', ( #253 ) ) ;
#212 = DATE_AND_TIME ( #265, #171 ) ;
#213 = CARTESIAN_POINT ( 'NONE',  ( 1.285855175048967300, 3.468503937007880700, 1.606299212598453900 ) ) ;
#214 = CYLINDRICAL_SURFACE ( 'NONE', #173, 0.9842519685039411400 ) ;
#215 = DATE_AND_TIME ( #262, #6 ) ;
#216 = AXIS2_PLACEMENT_3D ( 'NONE', #184, #207, #221 ) ;
#217 = CARTESIAN_POINT ( 'NONE',  ( 1.968503937007870300, 5.074803149606311500, 1.606299212598460100 ) ) ;
#218 = CARTESIAN_POINT ( 'NONE',  ( 1.968503937007879000, 3.468503937007894900, -1.606299212598432100 ) ) ;
#219 = PRODUCT ( '581243015', '581243015', '', ( #62 ) ) ;
#220 = EDGE_LOOP ( 'NONE', ( #255 ) ) ;
#221 = DIRECTION ( 'NONE',  ( 1.663428494909672600E-015, -1.360567432138666600E-015, 1.000000000000000000 ) ) ;
#222 = CARTESIAN_POINT ( 'NONE',  ( 3.120078740157481900, 4.271653543307090600, 3.729718537726617700E-015 ) ) ;
#223 = COORDINATED_UNIVERSAL_TIME_OFFSET ( 5, 0, .BEHIND. ) ;
#224 = PERSON_AND_ORGANIZATION_ROLE ( 'design_supplier' ) ;
#225 = CARTESIAN_POINT ( 'NONE',  ( 1.391942482650692500, 3.287401574803153100, 1.968503937007906300 ) ) ;
#226 = CIRCLE ( 'NONE', #75, 0.8031496062992159500 ) ;
#227 = CARTESIAN_POINT ( 'NONE',  ( -0.9842519685039370400, 2.303149606299228500, -2.614005020715054100E-015 ) ) ;
#228 = MANIFOLD_SOLID_BREP ( '1', #180 ) ;
#229 = DIRECTION ( 'NONE',  ( -4.202655726453775800E-016, 1.000000000000000000, -1.268705710633700100E-015 ) ) ;
#230 = CIRCLE ( 'NONE', #292, 0.9842519685039401400 ) ;
#231 = CARTESIAN_POINT ( 'NONE',  ( 0.8031496062992039600, 2.303149606299235200, -1.606299212598431900 ) ) ;
#232 = ADVANCED_FACE ( 'NONE', ( #283, #154 ), #58, .T. ) ;
#233 = PERSON_AND_ORGANIZATION ( #87, #2 ) ;
#234 = CARTESIAN_POINT ( 'NONE',  ( 0.9842519685039274900, 2.303149606299237800, -1.968503937007885800 ) ) ;
#235 = CARTESIAN_POINT ( 'NONE',  ( 0.8031496062992098400, 2.985798368258150100, -1.606299212598431200 ) ) ;
#236 = PERSON_AND_ORGANIZATION_ROLE ( 'creator' ) ;
#237 = APPLICATION_CONTEXT ( 'configuration controlled 3d designs of mechanical parts and assemblies' ) ;
#238 = CARTESIAN_POINT ( 'NONE',  ( 1.285855175048965100, 3.468503937007889200, 1.139202052105477000E-014 ) ) ;
#239 = CARTESIAN_POINT ( 'NONE',  ( 1.968503937007875800, 4.271653543307090600, 4.536958953027522000E-016 ) ) ;
#240 = CARTESIAN_POINT ( 'NONE',  ( 3.120078740157481900, 4.271653543307090600, 3.729718537726617700E-015 ) ) ;
#241 = DIRECTION ( 'NONE',  ( -1.360567432138666600E-015, 1.360567432138666600E-015, -1.000000000000000000 ) ) ;
#242 = DIRECTION ( 'NONE',  ( 1.000000000000000000, -4.202655726453770400E-016, -1.663428494909673400E-015 ) ) ;
#243 = DIRECTION ( 'NONE',  ( -1.700709290173333200E-015, 1.360567432138666600E-015, -1.000000000000000000 ) ) ;
#244 = CARTESIAN_POINT ( 'NONE',  ( 1.968503937007873000, 5.074803149606327500, -1.606299212598425200 ) ) ;
#245 = CARTESIAN_POINT ( 'NONE',  ( 1.968503937007877800, 5.255905511811053400, -1.968503937007877600 ) ) ;
#246 = CARTESIAN_POINT ( 'NONE',  ( -0.8031496062992109500, 3.926746661769067600, 1.606299212598463200 ) ) ;
#247 = ADVANCED_FACE ( 'NONE', ( #270, #279 ), #264, .F. ) ;
#248 = CARTESIAN_POINT ( 'NONE',  ( 1.335981940793600900E-015, -1.018960492005023700E-015, 0.8031496062992159500 ) ) ;
#249 = EDGE_CURVE ( 'NONE', #99, #99, #81, .T. ) ;
#250 = DIRECTION ( 'NONE',  ( 0.0000000000000000000, 0.0000000000000000000, 1.000000000000000000 ) ) ;
#251 = COORDINATED_UNIVERSAL_TIME_OFFSET ( 5, 0, .BEHIND. ) ;
#252 = FACE_OUTER_BOUND ( 'NONE', #220, .T. ) ;
#253 = ORIENTED_EDGE ( 'NONE', *, *, #259, .T. ) ;
#254 = PERSON_AND_ORGANIZATION ( #87, #2 ) ;
#255 = ORIENTED_EDGE ( 'NONE', *, *, #208, .T. ) ;
#256 = CYLINDRICAL_SURFACE ( 'NONE', #30, 0.8031496062992159500 ) ;
#257 = CARTESIAN_POINT ( 'NONE',  ( -0.8031496062992236100, 3.926746661769087600, -1.606299212598421700 ) ) ;
#258 = CARTESIAN_POINT ( 'NONE',  ( 4.271653543307048800, 5.165354330708681600, 4.801658900382216700E-015 ) ) ;
#259 = EDGE_CURVE ( 'NONE', #101, #101, #25, .T. ) ;
#260 = CARTESIAN_POINT ( 'NONE',  ( 1.968503937007876300, 3.468503937007880300, 1.606299212598453200 ) ) ;
#261 = CARTESIAN_POINT ( 'NONE',  ( -0.8031496062992116200, 2.303149606299222700, 1.606299212598461200 ) ) ;
#262 = CALENDAR_DATE ( 2015, 4, 12 ) ;
#263 = CARTESIAN_POINT ( 'NONE',  ( 1.968503937007871400, 5.074803149606319500, 1.746918676950141500E-014 ) ) ;
#264 = CYLINDRICAL_SURFACE ( 'NONE', #160, 0.8031496062992159500 ) ;
#265 = CALENDAR_DATE ( 2015, 4, 12 ) ;
#266 = DIRECTION ( 'NONE',  ( 1.000000000000000000, -4.202655726453810300E-016, 1.496895041215907400E-015 ) ) ;
#267 = CC_DESIGN_APPROVAL ( #205, ( #100 ) ) ;
#268 = APPROVAL_ROLE ( '' ) ;
#269 = CARTESIAN_POINT ( 'NONE',  ( -0.9842519685039450300, 2.303149606299233400, 1.943681446067428600E-014 ) ) ;
#270 = FACE_OUTER_BOUND ( 'NONE', #55, .T. ) ;
#271 = CARTESIAN_POINT ( 'NONE',  ( -0.9842519685039549100, 2.303149606299241400, -1.968503937007876300 ) ) ;
#272 = DATE_AND_TIME ( #199, #186 ) ;
#273 = CC_DESIGN_APPROVAL ( #128, ( #191 ) ) ;
#274 = CARTESIAN_POINT ( 'NONE',  ( -0.8031496062992173900, 3.926746661769076500, 2.062308842920660400E-014 ) ) ;
#275 = CARTESIAN_POINT ( 'NONE',  ( 4.271653543307087900, 4.271653543307090600, 8.644849976349045300E-015 ) ) ;
#276 = CARTESIAN_POINT ( 'NONE',  ( 1.968503937007881200, 3.287401574803171300, -1.968503937007886300 ) ) ;
#277 = LENGTH_MEASURE_WITH_UNIT ( LENGTH_MEASURE( 0.02539999999999999900 ), #36 );
#278 = CARTESIAN_POINT ( 'NONE',  ( -0.8031496062992290500, 2.303149606299234700, -1.606299212598423900 ) ) ;
#279 = FACE_OUTER_BOUND ( 'NONE', #130, .T. ) ;
#280 = DIRECTION ( 'NONE',  ( 1.000000000000000000, -4.202655726453810300E-016, 1.496895041215907400E-015 ) ) ;
#281 = FACE_OUTER_BOUND ( 'NONE', #7, .T. ) ;
#282 = APPROVAL_DATE_TIME ( #212, #128 ) ;
#283 = FACE_OUTER_BOUND ( 'NONE', #14, .T. ) ;
#284 = ADVANCED_BREP_SHAPE_REPRESENTATION ( '581243015', ( #228, #189 ), #178 ) ;
#285 = CARTESIAN_POINT ( 'NONE',  ( 0.0000000000000000000, 0.0000000000000000000, 0.0000000000000000000 ) ) ;
#286 = DIRECTION ( 'NONE',  ( -1.000000000000000000, 4.202655726453810300E-016, -1.496895041215907400E-015 ) ) ;
#287 = CARTESIAN_POINT ( 'NONE',  ( 0.8031496062992147200, 2.985798368258141300, 1.158255540713719200E-014 ) ) ;
#288 = FACE_OUTER_BOUND ( 'NONE', #49, .T. ) ;
#289 = FACE_OUTER_BOUND ( 'NONE', #293, .T. ) ;
#290 = APPROVAL_PERSON_ORGANIZATION ( #179, #111, #125 ) ;
#291 = ORIENTED_EDGE ( 'NONE', *, *, #185, .T. ) ;
#292 = AXIS2_PLACEMENT_3D ( 'NONE', #239, #18, #37 ) ;
#293 = EDGE_LOOP ( 'NONE', ( #203 ) ) ;
#294 = DESIGN_CONTEXT ( 'detailed design', #114, 'design' ) ;
#295 = ADVANCED_FACE ( 'NONE', ( #78, #288 ), #214, .T. ) ;
#296 = AXIS2_PLACEMENT_3D ( 'NONE', #206, #286, #77 ) ;
#297 = PERSON_AND_ORGANIZATION ( #87, #2 ) ;
#298 = CARTESIAN_POINT ( 'NONE',  ( 0.2388195739363031800, 5.255905511811056900, -1.968503937007875000 ) ) ;
#299 = CC_DESIGN_PERSON_AND_ORGANIZATION_ASSIGNMENT ( #297, #224, ( #202 ) ) ;
#300 = ORIENTED_EDGE ( 'NONE', *, *, #83, .F. ) ;
ENDSEC;
END-ISO-10303-21;
