ISO-10303-21;
HEADER;
FILE_DESCRIPTION (( 'STEP AP203' ),
    '1' );
FILE_NAME ('581243030.STEP',
    '2015-12-04T19:39:40',
    ( '' ),
    ( '' ),
    'SwSTEP 2.0',
    'SolidWorks 2015',
    '' );
FILE_SCHEMA (( 'CONFIG_CONTROL_DESIGN' ));
ENDSEC;

DATA;
#1 = EDGE_CURVE ( 'NONE', #198, #198, #192, .T. ) ;
#2 = CIRCLE ( 'NONE', #182, 1.771653543307087500 ) ;
#3 = CARTESIAN_POINT ( 'NONE',  ( 3.543307086614168700, 8.385826771653622600, 1.487408106533694600E-013 ) ) ;
#4 = CARTESIAN_POINT ( 'NONE',  ( 0.6189873901144857800, 8.062992125984351300, 1.444791073948731500E-013 ) ) ;
#5 = CARTESIAN_POINT ( 'NONE',  ( 0.6189873901144857800, 8.062992125984351300, 1.444791073948731500E-013 ) ) ;
#6 = EDGE_LOOP ( 'NONE', ( #11 ) ) ;
#7 = ADVANCED_FACE ( 'NONE', ( #239, #180 ), #81, .T. ) ;
#8 = APPROVAL_DATE_TIME ( #216, #120 ) ;
#9 = FACE_OUTER_BOUND ( 'NONE', #6, .T. ) ;
#10 = CC_DESIGN_PERSON_AND_ORGANIZATION_ASSIGNMENT ( #18, #35, ( #147 ) ) ;
#11 = ORIENTED_EDGE ( 'NONE', *, *, #226, .T. ) ;
#12 = DIRECTION ( 'NONE',  ( 1.100673054649825300E-015, 1.000000000000000000, -3.885780586188368900E-016 ) ) ;
#13 = CARTESIAN_POINT ( 'NONE',  ( -1.771653543307119700, 6.184297995261178300, 1.382502802052722000E-013 ) ) ;
#14 = ADVANCED_FACE ( 'NONE', ( #95, #86 ), #268, .F. ) ;
#15 = CARTESIAN_POINT ( 'NONE',  ( 2.316384311742025300, 5.165354330708741100, 1.541392384502923700E-013 ) ) ;
#16 = DIMENSIONAL_EXPONENTS ( 1.000000000000000000, 0.0000000000000000000, 0.0000000000000000000, 0.0000000000000000000, 0.0000000000000000000, 0.0000000000000000000, 0.0000000000000000000 ) ;
#17 = CARTESIAN_POINT ( 'NONE',  ( 3.543307086614134100, 4.842519685039449400, -3.543307086614014200 ) ) ;
#18 = PERSON_AND_ORGANIZATION ( #163, #84 ) ;
#19 = CARTESIAN_POINT ( 'NONE',  ( 6.614173228346447600, 6.614173228346656300, -1.448818897637604000 ) ) ;
#20 = FACE_OUTER_BOUND ( 'NONE', #205, .T. ) ;
#21 = CARTESIAN_POINT ( 'NONE',  ( 3.933861110876539400E-014, 1.535433070866147400, -7.764378988395785700E-030 ) ) ;
#22 = PRODUCT_DEFINITION ( 'UNKNOWN', '', #289, #56 ) ;
#23 = CARTESIAN_POINT ( 'NONE',  ( -1.771653543307073000, 3.070866141732337500, -3.543307086614035500 ) ) ;
#24 = FACE_OUTER_BOUND ( 'NONE', #214, .T. ) ;
#25 = CARTESIAN_POINT ( 'NONE',  ( 3.543307086614152300, 8.385826771653768200, 2.346191841821992600E-013 ) ) ;
#26 = CC_DESIGN_PERSON_AND_ORGANIZATION_ASSIGNMENT ( #284, #90, ( #39 ) ) ;
#27 = ORIENTED_EDGE ( 'NONE', *, *, #117, .F. ) ;
#28 = AXIS2_PLACEMENT_3D ( 'NONE', #274, #12, #109 ) ;
#29 = CARTESIAN_POINT ( 'NONE',  ( 3.543307086614123900, 4.842519685039457400, 1.569816470576528700E-013 ) ) ;
#30 = ORIENTED_EDGE ( 'NONE', *, *, #152, .F. ) ;
#31 = DIRECTION ( 'NONE',  ( 1.100673054649825300E-015, 1.000000000000000000, -3.885780586188368900E-016 ) ) ;
#32 = DIRECTION ( 'NONE',  ( 1.000000000000000000, 1.100673054649823900E-015, 1.720845688168997000E-015 ) ) ;
#33 = CARTESIAN_POINT ( 'NONE',  ( 3.543307086614150100, 6.614173228346672300, 2.353076098766027100E-013 ) ) ;
#34 = DATE_AND_TIME ( #224, #204 ) ;
#35 = PERSON_AND_ORGANIZATION_ROLE ( 'design_owner' ) ;
#36 = DATE_TIME_ROLE ( 'classification_date' ) ;
#37 = ADVANCED_BREP_SHAPE_REPRESENTATION ( '581243030', ( #266, #293 ), #189 ) ;
#38 = AXIS2_PLACEMENT_3D ( 'NONE', #207, #110, #68 ) ;
#39 = SECURITY_CLASSIFICATION ( '', '', #40 ) ;
#40 = SECURITY_CLASSIFICATION_LEVEL ( 'unclassified' ) ;
#41 = CARTESIAN_POINT ( 'NONE',  ( 1.771653543307092300, 3.070866141732338800, -3.543307086614018600 ) ) ;
#42 = CALENDAR_DATE ( 2015, 4, 12 ) ;
#43 = FACE_OUTER_BOUND ( 'NONE', #139, .T. ) ;
#44 = CARTESIAN_POINT ( 'NONE',  ( -2.493193752937751800E-015, -8.846816542682840900E-016, 1.448818897637791400 ) ) ;
#45 = CARTESIAN_POINT ( 'NONE',  ( 3.543307086614184700, 8.062992125984331800, 1.495114103354222900E-013 ) ) ;
#46 = AXIS2_PLACEMENT_3D ( 'NONE', #21, #31, #132 ) ;
#47 = DIRECTION ( 'NONE',  ( 1.000000000000000000, 1.100673054649825900E-015, -1.276756478318928200E-015 ) ) ;
#48 = ORIENTED_EDGE ( 'NONE', *, *, #129, .F. ) ;
#49 = PERSON_AND_ORGANIZATION ( #163, #84 ) ;
#50 = DIRECTION ( 'NONE',  ( 1.233581138472390600E-015, 1.000000000000000000, -3.885780586188352600E-016 ) ) ;
#51 = COORDINATED_UNIVERSAL_TIME_OFFSET ( 5, 0, .BEHIND. ) ;
#52 = FACE_OUTER_BOUND ( 'NONE', #153, .T. ) ;
#53 = EDGE_CURVE ( 'NONE', #187, #187, #130, .T. ) ;
#54 = DATE_TIME_ROLE ( 'creation_date' ) ;
#55 = CARTESIAN_POINT ( 'NONE',  ( -1.771653543307087500, 3.070866141732327700, 3.722962445765657000E-014 ) ) ;
#56 = DESIGN_CONTEXT ( 'detailed design', #193, 'design' ) ;
#57 = VERTEX_POINT ( 'NONE', #19 ) ;
#58 = APPROVAL_STATUS ( 'not_yet_approved' ) ;
#59 = LOCAL_TIME ( 14, 39, 40.00000000000000000, #196 ) ;
#60 = AXIS2_PLACEMENT_3D ( 'NONE', #114, #73, #245 ) ;
#61 = CARTESIAN_POINT ( 'NONE',  ( -3.048742360929316300E-015, -1.081811805491108300E-015, 1.771653543307081900 ) ) ;
#62 = ORIENTED_EDGE ( 'NONE', *, *, #178, .T. ) ;
#63 = CIRCLE ( 'NONE', #28, 1.771653543307081900 ) ;
#64 = MECHANICAL_CONTEXT ( 'NONE', #194, 'mechanical' ) ;
#65 = EDGE_LOOP ( 'NONE', ( #70 ) ) ;
#66 = PLANE ( 'NONE',  #105 ) ;
#67 = ADVANCED_FACE ( 'NONE', ( #145, #43 ), #167, .T. ) ;
#68 = DIRECTION ( 'NONE',  ( 1.850371707708599100E-015, 6.167905692361997300E-016, -1.000000000000000000 ) ) ;
#69 = DIRECTION ( 'NONE',  ( 1.508455196501575600E-015, 7.542275982507877900E-016, -1.000000000000000000 ) ) ;
#70 = ORIENTED_EDGE ( 'NONE', *, *, #1, .T. ) ;
#71 = DIRECTION ( 'NONE',  ( 1.850371707708599100E-015, 6.167905692361997300E-016, -1.000000000000000000 ) ) ;
#72 = APPLICATION_PROTOCOL_DEFINITION ( 'international standard', 'config_control_design', 1994, #194 ) ;
#73 = DIRECTION ( 'NONE',  ( -1.100673054649825300E-015, -1.000000000000000000, 3.885780586188368900E-016 ) ) ;
#74 = EDGE_LOOP ( 'NONE', ( #188 ) ) ;
#75 = CARTESIAN_POINT ( 'NONE',  ( 6.614173228346444900, 8.224409448819066900, 7.877271983964043500E-014 ) ) ;
#76 = DIRECTION ( 'NONE',  ( -1.000000000000000000, -1.100673054649825900E-015, 1.276756478318928200E-015 ) ) ;
#77 = CARTESIAN_POINT ( 'NONE',  ( -1.771653543307099700, 6.184297995261179200, -3.543307086614033300 ) ) ;
#78 = DIRECTION ( 'NONE',  ( 1.223137734564561000E-015, 1.000000000000000000, -3.885780586188372300E-016 ) ) ;
#79 = CARTESIAN_POINT ( 'NONE',  ( 1.771653543307075700, 3.070866141732332600, 1.528510928912324900E-013 ) ) ;
#80 = AXIS2_PLACEMENT_3D ( 'NONE', #75, #32, #123 ) ;
#81 = PLANE ( 'NONE',  #80 ) ;
#82 = CARTESIAN_POINT ( 'NONE',  ( 3.543307086614178500, 8.385826771653613700, -3.543307086614022600 ) ) ;
#83 = CARTESIAN_POINT ( 'NONE',  ( 0.4298752330853224400, 8.385826771653633200, 1.433830748728163900E-013 ) ) ;
#84 = ORGANIZATION ( 'UNSPECIFIED', 'UNSPECIFIED', '' ) ;
#85 = CARTESIAN_POINT ( 'NONE',  ( 0.6189873901144977700, 8.062992125984347800, -2.897637795275444200 ) ) ;
#86 = FACE_OUTER_BOUND ( 'NONE', #65, .T. ) ;
#87 = CARTESIAN_POINT ( 'NONE',  ( -1.448818897637800700, 3.070866141732325500, 1.378724265953753400E-013 ) ) ;
#88 = FACE_OUTER_BOUND ( 'NONE', #74, .T. ) ;
#89 = DIRECTION ( 'NONE',  ( 1.100673054649825300E-015, 1.000000000000000000, -3.885780586188368900E-016 ) ) ;
#90 = PERSON_AND_ORGANIZATION_ROLE ( 'classification_officer' ) ;
#91 = DIRECTION ( 'NONE',  ( 1.100673054649825300E-015, 1.000000000000000000, -3.885780586188368900E-016 ) ) ;
#92 = APPROVAL_ROLE ( '' ) ;
#93 = ORIENTED_EDGE ( 'NONE', *, *, #53, .F. ) ;
#94 = CARTESIAN_POINT ( 'NONE',  ( 1.771653543307047100, 4.108676759575278200, 1.534848035749537800E-013 ) ) ;
#95 = FACE_OUTER_BOUND ( 'NONE', #158, .T. ) ;
#96 = APPROVAL_STATUS ( 'not_yet_approved' ) ;
#97 = CALENDAR_DATE ( 2015, 4, 12 ) ;
#98 = FACE_OUTER_BOUND ( 'NONE', #165, .T. ) ;
#99 = ORIENTED_EDGE ( 'NONE', *, *, #178, .F. ) ;
#100 = CARTESIAN_POINT ( 'NONE',  ( 3.543307086614136700, 5.165354330708748200, 1.562505832171473700E-013 ) ) ;
#101 = CC_DESIGN_PERSON_AND_ORGANIZATION_ASSIGNMENT ( #179, #250, ( #22 ) ) ;
#102 = CARTESIAN_POINT ( 'NONE',  ( 2.316384311742012400, 5.165354330708745500, 2.897637795275743100 ) ) ;
#103 = CARTESIAN_POINT ( 'NONE',  ( 3.543307086614192700, 8.062992125984324700, -2.897637795275439300 ) ) ;
#104 = CARTESIAN_POINT ( 'NONE',  ( 0.4298752330853388700, 8.385826771653629700, -3.543307086614027900 ) ) ;
#105 = AXIS2_PLACEMENT_3D ( 'NONE', #133, #135, #199 ) ;
#106 = CARTESIAN_POINT ( 'NONE',  ( -1.448818897637833800, 5.995185838232024400, 1.396580824775057700E-013 ) ) ;
#107 = DIRECTION ( 'NONE',  ( 1.885568995626969500E-015, 7.542275982507877900E-016, -1.000000000000000000 ) ) ;
#108 = CARTESIAN_POINT ( 'NONE',  ( 3.543307086614184700, 8.062992125984331800, 1.495114103354222900E-013 ) ) ;
#109 = DIRECTION ( 'NONE',  ( -1.720845688168996400E-015, -6.106226635438716000E-016, 1.000000000000000000 ) ) ;
#110 = DIRECTION ( 'NONE',  ( 1.000000000000000000, 1.100673054649825900E-015, -1.276756478318928200E-015 ) ) ;
#111 = CARTESIAN_POINT ( 'NONE',  ( -1.771653543307090400, 3.070866141732332200, 1.363491481541081300E-013 ) ) ;
#112 = CARTESIAN_POINT ( 'NONE',  ( 6.614173228346444900, 6.614173228346655400, 1.875002699874781400E-013 ) ) ;
#113 = CC_DESIGN_PERSON_AND_ORGANIZATION_ASSIGNMENT ( #261, #185, ( #289 ) ) ;
#114 = CARTESIAN_POINT ( 'NONE',  ( 0.0000000000000000000, 3.070866141732329500, 3.496765431890256300E-014 ) ) ;
#115 = AXIS2_PLACEMENT_3D ( 'NONE', #291, #89, #256 ) ;
#116 = LOCAL_TIME ( 14, 39, 40.00000000000000000, #173 ) ;
#117 = EDGE_CURVE ( 'NONE', #212, #212, #164, .T. ) ;
#118 = CARTESIAN_POINT ( 'NONE',  ( 3.543307086614129200, 5.165354330708755300, 2.897637795275745300 ) ) ;
#119 = EDGE_LOOP ( 'NONE', ( #30 ) ) ;
#120 = APPROVAL ( #58, 'UNSPECIFIED' ) ;
#121 = DIRECTION ( 'NONE',  ( -1.000000000000000000, -1.100673054649825900E-015, 1.276756478318928200E-015 ) ) ;
#122 = FACE_BOUND ( 'NONE', #265, .T. ) ;
#123 = DIRECTION ( 'NONE',  ( 1.720845688168996400E-015, 6.106226635438716900E-016, -1.000000000000000000 ) ) ;
#124 = CARTESIAN_POINT ( 'NONE',  ( 1.448818897637738100, 4.297788916604441800, 2.897637795275741700 ) ) ;
#125 = APPROVAL_STATUS ( 'not_yet_approved' ) ;
#126 = PERSON_AND_ORGANIZATION ( #163, #84 ) ;
#127 = CARTESIAN_POINT ( 'NONE',  ( 3.543307086614143800, 5.165354330708741900, -2.897637795275432600 ) ) ;
#128 = EDGE_CURVE ( 'NONE', #57, #57, #202, .T. ) ;
#129 = EDGE_CURVE ( 'NONE', #238, #238, #169, .T. ) ;
#130 = CIRCLE ( 'NONE', #269, 1.448818897637791400 ) ;
#131 = ORIENTED_EDGE ( 'NONE', *, *, #128, .T. ) ;
#132 = DIRECTION ( 'NONE',  ( -1.720845688168996600E-015, -6.167905692361997300E-016, 1.000000000000000000 ) ) ;
#133 = CARTESIAN_POINT ( 'NONE',  ( -1.610236220472447200, -1.092739197465705300E-015, 8.700818802152127200E-015 ) ) ;
#134 = CARTESIAN_POINT ( 'NONE',  ( -1.448818897637833800, 5.995185838232024400, 1.396580824775057700E-013 ) ) ;
#135 = DIRECTION ( 'NONE',  ( -1.100673054649823700E-015, -1.000000000000000000, -6.106226635438735700E-016 ) ) ;
#136 = LOCAL_TIME ( 14, 39, 40.00000000000000000, #227 ) ;
#137 = ORIENTED_EDGE ( 'NONE', *, *, #129, .T. ) ;
#138 = CARTESIAN_POINT ( 'NONE',  ( 0.0000000000000000000, 0.0000000000000000000, 0.0000000000000000000 ) ) ;
#139 = EDGE_LOOP ( 'NONE', ( #237 ) ) ;
#140 = DIRECTION ( 'NONE',  ( 1.508455196501575600E-015, 7.542275982507877900E-016, -1.000000000000000000 ) ) ;
#141 = DATE_AND_TIME ( #183, #136 ) ;
#142 = CLOSED_SHELL ( 'NONE', ( #297, #67, #300, #220, #7, #221, #248, #14 ) ) ;
#143 = DIRECTION ( 'NONE',  ( 1.000000000000000000, 0.0000000000000000000, 0.0000000000000000000 ) ) ;
#144 = CC_DESIGN_APPROVAL ( #177, ( #39 ) ) ;
#145 = FACE_OUTER_BOUND ( 'NONE', #246, .T. ) ;
#146 = CARTESIAN_POINT ( 'NONE',  ( 2.505496468771194300, 4.842519685039436100, -3.543307086614015500 ) ) ;
#147 = PRODUCT ( '581243030', '581243030', '', ( #64 ) ) ;
#148 = CARTESIAN_POINT ( 'NONE',  ( 3.543307086614158500, 8.385826771653631400, 3.543307086614319700 ) ) ;
#149 = CARTESIAN_POINT ( 'NONE',  ( 1.448818897637753200, 4.297788916604441800, 1.521165371442675400E-013 ) ) ;
#150 = EDGE_LOOP ( 'NONE', ( #296 ) ) ;
#151 = SHAPE_DEFINITION_REPRESENTATION ( #278, #37 ) ;
#152 = EDGE_CURVE ( 'NONE', #155, #155, #63, .T. ) ;
#153 = EDGE_LOOP ( 'NONE', ( #93 ) ) ;
#154 = CARTESIAN_POINT ( 'NONE',  ( 1.771653543307059300, 3.070866141732326400, 3.543307086614323700 ) ) ;
#155 = VERTEX_POINT ( 'NONE', #61 ) ;
#156 = APPROVAL_DATE_TIME ( #162, #177 ) ;
#157 = CARTESIAN_POINT ( 'NONE',  ( -1.771653543307140100, 6.184297995261179200, 3.543307086614309900 ) ) ;
#158 = EDGE_LOOP ( 'NONE', ( #255 ) ) ;
#159 = APPROVAL_PERSON_ORGANIZATION ( #49, #176, #285 ) ;
#160 = DIRECTION ( 'NONE',  ( -1.720845688168996400E-015, -6.106226635438716000E-016, 1.000000000000000000 ) ) ;
#161 = CARTESIAN_POINT ( 'NONE',  ( 5.078740157480280200, 6.614173228346672300, 2.339416858797706000E-013 ) ) ;
#162 = DATE_AND_TIME ( #97, #59 ) ;
#163 = PERSON ( 'UNSPECIFIED', 'UNSPECIFIED', 'UNSPECIFIED', ('UNSPECIFIED'), ('UNSPECIFIED'), ('UNSPECIFIED') ) ;
#164 = CIRCLE ( 'NONE', #287, 1.771653543307081900 ) ;
#165 = EDGE_LOOP ( 'NONE', ( #48 ) ) ;
#166 = CARTESIAN_POINT ( 'NONE',  ( 1.448818897637770300, 3.070866141732325500, 2.897637795275740400 ) ) ;
#167 = CYLINDRICAL_SURFACE ( 'NONE', #46, 1.771653543307081900 ) ;
#168 = AXIS2_PLACEMENT_3D ( 'NONE', #235, #298, #50 ) ;
#169 = CIRCLE ( 'NONE', #243, 1.448818897637791400 ) ;
#170 = CARTESIAN_POINT ( 'NONE',  ( 2.505496468771161800, 4.842519685039448500, 3.543307086614325900 ) ) ;
#171 = VERTEX_POINT ( 'NONE', #55 ) ;
#172 = UNCERTAINTY_MEASURE_WITH_UNIT (LENGTH_MEASURE( 1.000000000000000100E-005 ), #244, 'distance_accuracy_value', 'NONE');
#173 = COORDINATED_UNIVERSAL_TIME_OFFSET ( 5, 0, .BEHIND. ) ;
#174 = CYLINDRICAL_SURFACE ( 'NONE', #38, 1.771653543307081900 ) ;
#175 = CARTESIAN_POINT ( 'NONE',  ( 2.505496468771177800, 4.842519685039440500, 1.551957351308018500E-013 ) ) ;
#176 = APPROVAL ( #96, 'UNSPECIFIED' ) ;
#177 = APPROVAL ( #125, 'UNSPECIFIED' ) ;
#178 = EDGE_CURVE ( 'NONE', #270, #270, #186, .T. ) ;
#179 = PERSON_AND_ORGANIZATION ( #163, #84 ) ;
#180 = FACE_OUTER_BOUND ( 'NONE', #283, .T. ) ;
#181 = CARTESIAN_POINT ( 'NONE',  ( 0.4298752330853065600, 8.385826771653640300, 3.543307086614313900 ) ) ;
#182 = AXIS2_PLACEMENT_3D ( 'NONE', #273, #78, #209 ) ;
#183 = CALENDAR_DATE ( 2015, 4, 12 ) ;
#184 = CARTESIAN_POINT ( 'NONE',  ( 0.0000000000000000000, 0.0000000000000000000, 0.0000000000000000000 ) ) ;
#185 = PERSON_AND_ORGANIZATION_ROLE ( 'creator' ) ;
#186 = CIRCLE ( 'NONE', #168, 1.771653543307094800 ) ;
#187 = VERTEX_POINT ( 'NONE', #259 ) ;
#188 = ORIENTED_EDGE ( 'NONE', *, *, #117, .T. ) ;
#189 =( GEOMETRIC_REPRESENTATION_CONTEXT ( 3 ) GLOBAL_UNCERTAINTY_ASSIGNED_CONTEXT ( ( #172 ) ) GLOBAL_UNIT_ASSIGNED_CONTEXT ( ( #244, #234, #253 ) ) REPRESENTATION_CONTEXT ( 'NONE', 'WORKASPACE' ) );
#190 = CARTESIAN_POINT ( 'NONE',  ( -1.771653543307119700, 6.184297995261178300, 1.382502802052722000E-013 ) ) ;
#191 = CARTESIAN_POINT ( 'NONE',  ( -1.448818897637848700, 5.995185838232024400, 2.897637795275728400 ) ) ;
#192 = CIRCLE ( 'NONE', #60, 1.448818897637791400 ) ;
#193 = APPLICATION_CONTEXT ( 'configuration controlled 3d designs of mechanical parts and assemblies' ) ;
#194 = APPLICATION_CONTEXT ( 'configuration controlled 3d designs of mechanical parts and assemblies' ) ;
#195 = CARTESIAN_POINT ( 'NONE',  ( 6.614173228346444900, 6.614173228346655400, 1.875002699874781400E-013 ) ) ;
#196 = COORDINATED_UNIVERSAL_TIME_OFFSET ( 5, 0, .BEHIND. ) ;
#197 = AXIS2_PLACEMENT_3D ( 'NONE', #195, #121, #69 ) ;
#198 = VERTEX_POINT ( 'NONE', #217 ) ;
#199 = DIRECTION ( 'NONE',  ( 1.720845688168996400E-015, 6.106226635438716900E-016, -1.000000000000000000 ) ) ;
#200 = CARTESIAN_POINT ( 'NONE',  ( 6.614173228346448500, 6.614173228346656300, -1.771653543306894500 ) ) ;
#201 = APPLICATION_PROTOCOL_DEFINITION ( 'international standard', 'config_control_design', 1994, #193 ) ;
#202 = CIRCLE ( 'NONE', #197, 1.448818897637791400 ) ;
#203 = LENGTH_MEASURE_WITH_UNIT ( LENGTH_MEASURE( 0.02539999999999999900 ), #260 );
#204 = LOCAL_TIME ( 14, 39, 40.00000000000000000, #51 ) ;
#205 = EDGE_LOOP ( 'NONE', ( #62 ) ) ;
#206 = CC_DESIGN_DATE_AND_TIME_ASSIGNMENT ( #141, #54, ( #22 ) ) ;
#207 = CARTESIAN_POINT ( 'NONE',  ( 5.078740157480280200, 6.614173228346672300, 2.339416858797706000E-013 ) ) ;
#208 =( BOUNDED_SURFACE ( )  B_SPLINE_SURFACE ( 3, 3, ( 
 ( #267, #83, #190, #111 ),
 ( #82, #104, #77, #23 ),
 ( #17, #146, #215, #41 ),
 ( #29, #175, #94, #79 ),
 ( #210, #170, #249, #154 ),
 ( #148, #181, #157, #211 ),
 ( #3, #294, #13, #218 ) ),
 .UNSPECIFIED., .T., .F., .T. ) 
 B_SPLINE_SURFACE_WITH_KNOTS ( ( 4, 3, 4 ),
 ( 4, 4 ),
 ( 0.0000000000000000000, 0.5000000000000000000, 1.000000000000000000 ),
 ( 0.0000000000000000000, 1.000000000000000000 ),
 .UNSPECIFIED. ) 
 GEOMETRIC_REPRESENTATION_ITEM ( )  RATIONAL_B_SPLINE_SURFACE ( (
 ( 1.000000000000000000, 0.8047378541243620500, 0.8047378541243620500, 1.000000000000000000),
 ( 0.3333333333333333700, 0.2682459513747874100, 0.2682459513747874100, 0.3333333333333333700),
 ( 0.3333333333333333700, 0.2682459513747874100, 0.2682459513747874100, 0.3333333333333333700),
 ( 1.000000000000000000, 0.8047378541243620500, 0.8047378541243620500, 1.000000000000000000),
 ( 0.3333333333333333700, 0.2682459513747874100, 0.2682459513747874100, 0.3333333333333333700),
 ( 0.3333333333333333700, 0.2682459513747874100, 0.2682459513747874100, 0.3333333333333333700),
 ( 1.000000000000000000, 0.8047378541243620500, 0.8047378541243620500, 1.000000000000000000) ) ) 
 REPRESENTATION_ITEM ( '' )  SURFACE ( )  );
#209 = DIRECTION ( 'NONE',  ( -1.000000000000000000, -9.251858538542967900E-016, 1.276756478318929600E-015 ) ) ;
#210 = CARTESIAN_POINT ( 'NONE',  ( 3.543307086614114100, 4.842519685039465400, 3.543307086614327700 ) ) ;
#211 = CARTESIAN_POINT ( 'NONE',  ( -1.771653543307107900, 3.070866141732326400, 3.543307086614307300 ) ) ;
#212 = VERTEX_POINT ( 'NONE', #200 ) ;
#213 = APPROVAL_PERSON_ORGANIZATION ( #126, #120, #288 ) ;
#214 = EDGE_LOOP ( 'NONE', ( #99 ) ) ;
#215 = CARTESIAN_POINT ( 'NONE',  ( 1.771653543307065500, 4.108676759575278200, -3.543307086614018200 ) ) ;
#216 = DATE_AND_TIME ( #271, #263 ) ;
#217 = CARTESIAN_POINT ( 'NONE',  ( -2.493193752937751800E-015, 3.070866141732328200, 1.448818897637826500 ) ) ;
#218 = CARTESIAN_POINT ( 'NONE',  ( -1.771653543307090400, 3.070866141732332200, 1.363491481541081300E-013 ) ) ;
#219 = DATE_AND_TIME ( #42, #116 ) ;
#220 = ADVANCED_FACE ( 'NONE', ( #229, #122 ), #66, .T. ) ;
#221 = ADVANCED_FACE ( 'NONE', ( #236, #98 ), #290, .F. ) ;
#222 = CYLINDRICAL_SURFACE ( 'NONE', #232, 1.448818897637791400 ) ;
#223 = ORIENTED_EDGE ( 'NONE', *, *, #226, .F. ) ;
#224 = CALENDAR_DATE ( 2015, 4, 12 ) ;
#225 = CARTESIAN_POINT ( 'NONE',  ( -1.448818897637800700, 3.070866141732325500, 1.378724265953753400E-013 ) ) ;
#226 = EDGE_CURVE ( 'NONE', #171, #171, #2, .T. ) ;
#227 = COORDINATED_UNIVERSAL_TIME_OFFSET ( 5, 0, .BEHIND. ) ;
#228 = COORDINATED_UNIVERSAL_TIME_OFFSET ( 5, 0, .BEHIND. ) ;
#229 = FACE_OUTER_BOUND ( 'NONE', #119, .T. ) ;
#230 = PRODUCT_RELATED_PRODUCT_CATEGORY ( 'detail', '', ( #147 ) ) ;
#231 = EDGE_LOOP ( 'NONE', ( #299 ) ) ;
#232 = AXIS2_PLACEMENT_3D ( 'NONE', #161, #242, #140 ) ;
#233 = CARTESIAN_POINT ( 'NONE',  ( -1.448818897637814000, 3.070866141732321100, 2.897637795275726200 ) ) ;
#234 =( NAMED_UNIT ( * ) PLANE_ANGLE_UNIT ( ) SI_UNIT ( $, .RADIAN. ) );
#235 = CARTESIAN_POINT ( 'NONE',  ( 3.543307086614150100, 6.614173228346672300, 2.353076098766027100E-013 ) ) ;
#236 = FACE_OUTER_BOUND ( 'NONE', #231, .T. ) ;
#237 = ORIENTED_EDGE ( 'NONE', *, *, #152, .T. ) ;
#238 = VERTEX_POINT ( 'NONE', #44 ) ;
#239 = FACE_BOUND ( 'NONE', #247, .T. ) ;
#240 = CARTESIAN_POINT ( 'NONE',  ( 1.448818897637796500, 3.070866141732334400, -2.897637795275437500 ) ) ;
#241 = APPROVAL_PERSON_ORGANIZATION ( #282, #177, #92 ) ;
#242 = DIRECTION ( 'NONE',  ( 1.000000000000000000, 1.100673054649825900E-015, -1.276756478318928200E-015 ) ) ;
#243 = AXIS2_PLACEMENT_3D ( 'NONE', #184, #91, #160 ) ;
#244 =( CONVERSION_BASED_UNIT ( 'INCH', #203 ) LENGTH_UNIT ( ) NAMED_UNIT ( #16 ) );
#245 = DIRECTION ( 'NONE',  ( -1.720845688168996400E-015, -7.542275982507877900E-016, 1.000000000000000000 ) ) ;
#246 = EDGE_LOOP ( 'NONE', ( #223 ) ) ;
#247 = EDGE_LOOP ( 'NONE', ( #131 ) ) ;
#248 = ADVANCED_FACE ( 'NONE', ( #292, #52 ), #222, .F. ) ;
#249 = CARTESIAN_POINT ( 'NONE',  ( 1.771653543307028200, 4.108676759575278200, 3.543307086614325000 ) ) ;
#250 = PERSON_AND_ORGANIZATION_ROLE ( 'creator' ) ;
#251 = CARTESIAN_POINT ( 'NONE',  ( 1.448818897637783400, 3.070866141732330000, 1.513673502915125300E-013 ) ) ;
#252 = CARTESIAN_POINT ( 'NONE',  ( -1.448818897637787600, 3.070866141732329500, -2.897637795275450800 ) ) ;
#253 =( NAMED_UNIT ( * ) SI_UNIT ( $, .STERADIAN. ) SOLID_ANGLE_UNIT ( ) );
#254 = CARTESIAN_POINT ( 'NONE',  ( 3.543307086614177100, 8.062992125984338900, 2.897637795275738600 ) ) ;
#255 = ORIENTED_EDGE ( 'NONE', *, *, #53, .T. ) ;
#256 = DIRECTION ( 'NONE',  ( -1.720845688168995400E-015, -5.656706986880908400E-016, 1.000000000000000000 ) ) ;
#257 = CC_DESIGN_DATE_AND_TIME_ASSIGNMENT ( #219, #36, ( #39 ) ) ;
#258 = APPROVAL_DATE_TIME ( #34, #176 ) ;
#259 = CARTESIAN_POINT ( 'NONE',  ( 3.543307086614153200, 6.614173228346674100, -1.448818897637556200 ) ) ;
#260 =( LENGTH_UNIT ( ) NAMED_UNIT ( * ) SI_UNIT ( $, .METRE. ) );
#261 = PERSON_AND_ORGANIZATION ( #163, #84 ) ;
#262 = CARTESIAN_POINT ( 'NONE',  ( -1.448818897637819100, 5.995185838232024400, -2.897637795275450000 ) ) ;
#263 = LOCAL_TIME ( 14, 39, 40.00000000000000000, #228 ) ;
#264 = CC_DESIGN_PERSON_AND_ORGANIZATION_ASSIGNMENT ( #279, #280, ( #289 ) ) ;
#265 = EDGE_LOOP ( 'NONE', ( #137 ) ) ;
#266 = MANIFOLD_SOLID_BREP ( '1', #142 ) ;
#267 = CARTESIAN_POINT ( 'NONE',  ( 3.543307086614168700, 8.385826771653622600, 1.487408106533694600E-013 ) ) ;
#268 =( BOUNDED_SURFACE ( )  B_SPLINE_SURFACE ( 3, 3, ( 
 ( #45, #5, #106, #87 ),
 ( #103, #85, #262, #252 ),
 ( #127, #272, #275, #240 ),
 ( #100, #15, #149, #251 ),
 ( #118, #102, #124, #166 ),
 ( #254, #295, #191, #233 ),
 ( #108, #4, #134, #225 ) ),
 .UNSPECIFIED., .T., .F., .F. ) 
 B_SPLINE_SURFACE_WITH_KNOTS ( ( 4, 3, 4 ),
 ( 4, 4 ),
 ( 0.0000000000000000000, 0.5000000000000000000, 1.000000000000000000 ),
 ( 0.0000000000000000000, 1.000000000000000000 ),
 .UNSPECIFIED. ) 
 GEOMETRIC_REPRESENTATION_ITEM ( )  RATIONAL_B_SPLINE_SURFACE ( (
 ( 1.000000000000000000, 0.8047378541243607200, 0.8047378541243607200, 1.000000000000000000),
 ( 0.3333333333333333700, 0.2682459513747869600, 0.2682459513747869600, 0.3333333333333333700),
 ( 0.3333333333333333700, 0.2682459513747869600, 0.2682459513747869600, 0.3333333333333333700),
 ( 1.000000000000000000, 0.8047378541243607200, 0.8047378541243607200, 1.000000000000000000),
 ( 0.3333333333333333700, 0.2682459513747869600, 0.2682459513747869600, 0.3333333333333333700),
 ( 0.3333333333333333700, 0.2682459513747869600, 0.2682459513747869600, 0.3333333333333333700),
 ( 1.000000000000000000, 0.8047378541243607200, 0.8047378541243607200, 1.000000000000000000) ) ) 
 REPRESENTATION_ITEM ( '' )  SURFACE ( )  );
#269 = AXIS2_PLACEMENT_3D ( 'NONE', #33, #47, #107 ) ;
#270 = VERTEX_POINT ( 'NONE', #25 ) ;
#271 = CALENDAR_DATE ( 2015, 4, 12 ) ;
#272 = CARTESIAN_POINT ( 'NONE',  ( 2.316384311742037300, 5.165354330708734800, -2.897637795275434900 ) ) ;
#273 = CARTESIAN_POINT ( 'NONE',  ( 0.0000000000000000000, 3.070866141732329500, 3.496765431890256300E-014 ) ) ;
#274 = CARTESIAN_POINT ( 'NONE',  ( 0.0000000000000000000, 0.0000000000000000000, 0.0000000000000000000 ) ) ;
#275 = CARTESIAN_POINT ( 'NONE',  ( 1.448818897637767600, 4.297788916604441800, -2.897637795275437100 ) ) ;
#276 = CC_DESIGN_APPROVAL ( #176, ( #22 ) ) ;
#277 = CC_DESIGN_SECURITY_CLASSIFICATION ( #39, ( #289 ) ) ;
#278 = PRODUCT_DEFINITION_SHAPE ( 'NONE', 'NONE',  #22 ) ;
#279 = PERSON_AND_ORGANIZATION ( #163, #84 ) ;
#280 = PERSON_AND_ORGANIZATION_ROLE ( 'design_supplier' ) ;
#281 = CC_DESIGN_APPROVAL ( #120, ( #289 ) ) ;
#282 = PERSON_AND_ORGANIZATION ( #163, #84 ) ;
#283 = EDGE_LOOP ( 'NONE', ( #27 ) ) ;
#284 = PERSON_AND_ORGANIZATION ( #163, #84 ) ;
#285 = APPROVAL_ROLE ( '' ) ;
#286 = DIRECTION ( 'NONE',  ( 0.0000000000000000000, 0.0000000000000000000, 1.000000000000000000 ) ) ;
#287 = AXIS2_PLACEMENT_3D ( 'NONE', #112, #76, #71 ) ;
#288 = APPROVAL_ROLE ( '' ) ;
#289 = PRODUCT_DEFINITION_FORMATION_WITH_SPECIFIED_SOURCE ( 'ANY', '', #147, .NOT_KNOWN. ) ;
#290 = CYLINDRICAL_SURFACE ( 'NONE', #115, 1.448818897637791400 ) ;
#291 = CARTESIAN_POINT ( 'NONE',  ( 3.933861110876539400E-014, 1.535433070866147400, -7.764378988395785700E-030 ) ) ;
#292 = FACE_OUTER_BOUND ( 'NONE', #150, .T. ) ;
#293 = AXIS2_PLACEMENT_3D ( 'NONE', #138, #286, #143 ) ;
#294 = CARTESIAN_POINT ( 'NONE',  ( 0.4298752330853224400, 8.385826771653633200, 1.433830748728163900E-013 ) ) ;
#295 = CARTESIAN_POINT ( 'NONE',  ( 0.6189873901144726800, 8.062992125984356700, 2.897637795275733700 ) ) ;
#296 = ORIENTED_EDGE ( 'NONE', *, *, #128, .F. ) ;
#297 = ADVANCED_FACE ( 'NONE', ( #20, #9 ), #208, .T. ) ;
#298 = DIRECTION ( 'NONE',  ( -1.000000000000000000, -1.039440714692457100E-015, 1.276756478318928000E-015 ) ) ;
#299 = ORIENTED_EDGE ( 'NONE', *, *, #1, .F. ) ;
#300 = ADVANCED_FACE ( 'NONE', ( #88, #24 ), #174, .T. ) ;
ENDSEC;
END-ISO-10303-21;
