ISO-10303-21;
HEADER;
FILE_DESCRIPTION (( 'STEP AP203' ),
    '1' );
FILE_NAME ('581243040.STEP',
    '2015-12-04T19:40:51',
    ( '' ),
    ( '' ),
    'SwSTEP 2.0',
    'SolidWorks 2015',
    '' );
FILE_SCHEMA (( 'CONFIG_CONTROL_DESIGN' ));
ENDSEC;

DATA;
#1 = CARTESIAN_POINT ( 'NONE',  ( 4.330708661417317800, 7.559055118110243200, -1.771653543307103900 ) ) ;
#2 = APPROVAL ( #196, 'UNSPECIFIED' ) ;
#3 = FACE_OUTER_BOUND ( 'NONE', #29, .T. ) ;
#4 = CARTESIAN_POINT ( 'NONE',  ( 4.330708661417306300, 9.330708661417329400, -4.209362797202231900E-026 ) ) ;
#5 = APPROVAL_PERSON_ORGANIZATION ( #253, #2, #122 ) ;
#6 = PRODUCT_DEFINITION_FORMATION_WITH_SPECIFIED_SOURCE ( 'ANY', '', #137, .NOT_KNOWN. ) ;
#7 = CARTESIAN_POINT ( 'NONE',  ( 4.330708661417317800, 9.724409448818905200, -1.748382715943635000E-014 ) ) ;
#8 = DATE_AND_TIME ( #206, #15 ) ;
#9 = APPROVAL_ROLE ( '' ) ;
#10 = LOCAL_TIME ( 14, 40, 51.00000000000000000, #12 ) ;
#11 = APPROVAL_DATE_TIME ( #8, #2 ) ;
#12 = COORDINATED_UNIVERSAL_TIME_OFFSET ( 5, 0, .BEHIND. ) ;
#13 = ORIENTED_EDGE ( 'NONE', *, *, #188, .F. ) ;
#14 = PERSON_AND_ORGANIZATION ( #270, #110 ) ;
#15 = LOCAL_TIME ( 14, 40, 51.00000000000000000, #129 ) ;
#16 = PERSON_AND_ORGANIZATION ( #270, #110 ) ;
#17 = VERTEX_POINT ( 'NONE', #67 ) ;
#18 = CC_DESIGN_PERSON_AND_ORGANIZATION_ASSIGNMENT ( #74, #234, ( #137 ) ) ;
#19 = PLANE ( 'NONE',  #153 ) ;
#20 = DIMENSIONAL_EXPONENTS ( 1.000000000000000000, 0.0000000000000000000, 0.0000000000000000000, 0.0000000000000000000, 0.0000000000000000000, 0.0000000000000000000, 0.0000000000000000000 ) ;
#21 = DIRECTION ( 'NONE',  ( 5.793197272716805400E-031, -1.000000000000000000, 6.896798271681447300E-027 ) ) ;
#22 = CALENDAR_DATE ( 2015, 4, 12 ) ;
#23 = FACE_OUTER_BOUND ( 'NONE', #178, .T. ) ;
#24 = DIRECTION ( 'NONE',  ( -1.000000000000000000, 0.0000000000000000000, 0.0000000000000000000 ) ) ;
#25 = DATE_AND_TIME ( #22, #28 ) ;
#26 = ADVANCED_FACE ( 'NONE', ( #3, #227 ), #148, .T. ) ;
#27 = CARTESIAN_POINT ( 'NONE',  ( -2.165354330708660200, 3.228346456692909000, 4.330708661417320500 ) ) ;
#28 = LOCAL_TIME ( 14, 40, 51.00000000000000000, #32 ) ;
#29 = EDGE_LOOP ( 'NONE', ( #250 ) ) ;
#30 = CARTESIAN_POINT ( 'NONE',  ( 4.330708661417317800, 7.559055118110243200, -1.748382715945128500E-014 ) ) ;
#31 = VERTEX_POINT ( 'NONE', #292 ) ;
#32 = COORDINATED_UNIVERSAL_TIME_OFFSET ( 5, 0, .BEHIND. ) ;
#33 = CC_DESIGN_PERSON_AND_ORGANIZATION_ASSIGNMENT ( #34, #269, ( #6 ) ) ;
#34 = PERSON_AND_ORGANIZATION ( #270, #110 ) ;
#35 = DIRECTION ( 'NONE',  ( 0.0000000000000000000, 6.896798271681447300E-027, 1.000000000000000000 ) ) ;
#36 = DATE_AND_TIME ( #211, #10 ) ;
#37 = CARTESIAN_POINT ( 'NONE',  ( 0.0000000000000000000, 0.0000000000000000000, 0.0000000000000000000 ) ) ;
#38 = DIRECTION ( 'NONE',  ( 0.0000000000000000000, 0.0000000000000000000, -1.000000000000000000 ) ) ;
#39 =( NAMED_UNIT ( * ) SI_UNIT ( $, .STERADIAN. ) SOLID_ANGLE_UNIT ( ) );
#40 =( LENGTH_UNIT ( ) NAMED_UNIT ( * ) SI_UNIT ( $, .METRE. ) );
#41 = APPROVAL_DATE_TIME ( #25, #44 ) ;
#42 = CARTESIAN_POINT ( 'NONE',  ( 7.559055118110243200, 7.559055118110243200, -1.771653543307103900 ) ) ;
#43 = AXIS2_PLACEMENT_3D ( 'NONE', #241, #99, #38 ) ;
#44 = APPROVAL ( #256, 'UNSPECIFIED' ) ;
#45 = PERSON_AND_ORGANIZATION ( #270, #110 ) ;
#46 = CC_DESIGN_DATE_AND_TIME_ASSIGNMENT ( #36, #289, ( #163 ) ) ;
#47 = PLANE ( 'NONE',  #286 ) ;
#48 = APPROVAL_PERSON_ORGANIZATION ( #45, #44, #297 ) ;
#49 = CYLINDRICAL_SURFACE ( 'NONE', #98, 2.165354330708661100 ) ;
#50 = DATE_AND_TIME ( #52, #102 ) ;
#51 = PERSON_AND_ORGANIZATION_ROLE ( 'classification_officer' ) ;
#52 = CALENDAR_DATE ( 2015, 4, 12 ) ;
#53 = AXIS2_PLACEMENT_3D ( 'NONE', #230, #282, #154 ) ;
#54 = EDGE_LOOP ( 'NONE', ( #71 ) ) ;
#55 = CC_DESIGN_APPROVAL ( #44, ( #6 ) ) ;
#56 = DIRECTION ( 'NONE',  ( 1.000000000000000000, -5.824012151827002100E-031, 0.0000000000000000000 ) ) ;
#57 = CIRCLE ( 'NONE', #58, 1.771653543307086400 ) ;
#58 = AXIS2_PLACEMENT_3D ( 'NONE', #295, #216, #139 ) ;
#59 = CARTESIAN_POINT ( 'NONE',  ( 0.0000000000000000000, 0.0000000000000000000, 0.0000000000000000000 ) ) ;
#60 = CARTESIAN_POINT ( 'NONE',  ( 0.5254030626598690200, 9.724409448818894600, 4.330708661417319600 ) ) ;
#61 = EDGE_LOOP ( 'NONE', ( #62 ) ) ;
#62 = ORIENTED_EDGE ( 'NONE', *, *, #185, .T. ) ;
#63 = CARTESIAN_POINT ( 'NONE',  ( 2.165354330708660200, 3.228346456692909000, 4.330708661417320500 ) ) ;
#64 = CARTESIAN_POINT ( 'NONE',  ( 5.944881889763789400, 7.559055118110243200, -1.748382715945128500E-014 ) ) ;
#65 = CYLINDRICAL_SURFACE ( 'NONE', #53, 2.165354330708661100 ) ;
#66 = VERTEX_POINT ( 'NONE', #42 ) ;
#67 = CARTESIAN_POINT ( 'NONE',  ( 0.0000000000000000000, 1.221873709549862400E-026, 1.771653543307086400 ) ) ;
#68 = FACE_OUTER_BOUND ( 'NONE', #247, .T. ) ;
#69 = CALENDAR_DATE ( 2015, 4, 12 ) ;
#70 = DIRECTION ( 'NONE',  ( -1.000000000000000000, 5.824012151827002100E-031, -0.0000000000000000000 ) ) ;
#71 = ORIENTED_EDGE ( 'NONE', *, *, #128, .T. ) ;
#72 = DIRECTION ( 'NONE',  ( -5.793197272716805400E-031, 1.000000000000000000, 6.896798271681445900E-027 ) ) ;
#73 = LENGTH_MEASURE_WITH_UNIT ( LENGTH_MEASURE( 0.02539999999999999900 ), #40 );
#74 = PERSON_AND_ORGANIZATION ( #270, #110 ) ;
#75 = EDGE_LOOP ( 'NONE', ( #115 ) ) ;
#76 = CARTESIAN_POINT ( 'NONE',  ( -2.165354330708660200, 3.228346456692908100, -5.969351621089928000E-030 ) ) ;
#77 = CARTESIAN_POINT ( 'NONE',  ( 0.0000000000000000000, 1.614173228346453800, 0.0000000000000000000 ) ) ;
#78 = PRODUCT_DEFINITION_SHAPE ( 'NONE', 'NONE',  #155 ) ;
#79 = CC_DESIGN_PERSON_AND_ORGANIZATION_ASSIGNMENT ( #14, #51, ( #163 ) ) ;
#80 = CYLINDRICAL_SURFACE ( 'NONE', #101, 1.771653543307086400 ) ;
#81 = CARTESIAN_POINT ( 'NONE',  ( 4.330708661417331100, 5.393700787401583000, -4.330708661417320500 ) ) ;
#82 = DIRECTION ( 'NONE',  ( 0.0000000000000000000, 0.0000000000000000000, -1.000000000000000000 ) ) ;
#83 = SHAPE_DEFINITION_REPRESENTATION ( #78, #233 ) ;
#84 = CARTESIAN_POINT ( 'NONE',  ( 4.330708661417324000, 5.787401574803157100, -2.169649841185650500E-016 ) ) ;
#85 = EDGE_CURVE ( 'NONE', #31, #31, #57, .T. ) ;
#86 = DIRECTION ( 'NONE',  ( 0.0000000000000000000, 6.896798271681447300E-027, 1.000000000000000000 ) ) ;
#87 = CARTESIAN_POINT ( 'NONE',  ( 2.831648880088628600, 5.787401574803150000, -2.169649841185650500E-016 ) ) ;
#88 = CARTESIAN_POINT ( 'NONE',  ( -1.968503937007867200, 0.0000000000000000000, 0.0000000000000000000 ) ) ;
#89 = ORIENTED_EDGE ( 'NONE', *, *, #85, .F. ) ;
#90 = CARTESIAN_POINT ( 'NONE',  ( -1.771653543307085900, 3.228346456692909000, 3.543307086614170500 ) ) ;
#91 = FACE_OUTER_BOUND ( 'NONE', #199, .T. ) ;
#92 = CARTESIAN_POINT ( 'NONE',  ( 1.771653543307085900, 3.228346456692908500, 3.543307086614170500 ) ) ;
#93 = EDGE_LOOP ( 'NONE', ( #186 ) ) ;
#94 = ORIENTED_EDGE ( 'NONE', *, *, #128, .F. ) ;
#95 = CARTESIAN_POINT ( 'NONE',  ( 1.771653543307086400, 4.727406238021604400, -2.169649841112536000E-016 ) ) ;
#96 = COORDINATED_UNIVERSAL_TIME_OFFSET ( 5, 0, .BEHIND. ) ;
#97 = CARTESIAN_POINT ( 'NONE',  ( 1.771653543307086100, 3.228346456692908100, -2.169649841009148600E-016 ) ) ;
#98 = AXIS2_PLACEMENT_3D ( 'NONE', #77, #197, #279 ) ;
#99 = DIRECTION ( 'NONE',  ( -1.000000000000000000, 5.824012151827002100E-031, -0.0000000000000000000 ) ) ;
#100 = CARTESIAN_POINT ( 'NONE',  ( 4.330708661417324000, 5.787401574803156200, 3.543307086614170500 ) ) ;
#101 = AXIS2_PLACEMENT_3D ( 'NONE', #64, #56, #169 ) ;
#102 = LOCAL_TIME ( 14, 40, 51.00000000000000000, #294 ) ;
#103 = DIRECTION ( 'NONE',  ( -1.000000000000000000, 6.123233995736825200E-017, 0.0000000000000000000 ) ) ;
#104 =( NAMED_UNIT ( * ) PLANE_ANGLE_UNIT ( ) SI_UNIT ( $, .RADIAN. ) );
#105 = CARTESIAN_POINT ( 'NONE',  ( -1.771653543307086400, 6.803027473707478700, -2.465982321157966700E-026 ) ) ;
#106 = CARTESIAN_POINT ( 'NONE',  ( 4.330708661417306300, 9.330708661417329400, -4.209362797202231900E-026 ) ) ;
#107 = DIRECTION ( 'NONE',  ( 0.0000000000000000000, -6.896798271681447300E-027, -1.000000000000000000 ) ) ;
#108 = APPLICATION_PROTOCOL_DEFINITION ( 'international standard', 'config_control_design', 1994, #300 ) ;
#109 = PERSON_AND_ORGANIZATION ( #270, #110 ) ;
#110 = ORGANIZATION ( 'UNSPECIFIED', 'UNSPECIFIED', '' ) ;
#111 = AXIS2_PLACEMENT_3D ( 'NONE', #141, #70, #204 ) ;
#112 = CARTESIAN_POINT ( 'NONE',  ( -2.165354330708660200, 3.228346456692909000, -4.330708661417320500 ) ) ;
#113 = DIRECTION ( 'NONE',  ( 0.0000000000000000000, -6.896798271681447300E-027, -1.000000000000000000 ) ) ;
#114 = AXIS2_PLACEMENT_3D ( 'NONE', #181, #158, #24 ) ;
#115 = ORIENTED_EDGE ( 'NONE', *, *, #221, .F. ) ;
#116 = AXIS2_PLACEMENT_3D ( 'NONE', #37, #231, #144 ) ;
#117 = CARTESIAN_POINT ( 'NONE',  ( 4.330708661417307100, 9.330708661417329400, 3.543307086614170500 ) ) ;
#118 = ADVANCED_FACE ( 'NONE', ( #277, #171 ), #263, .F. ) ;
#119 = CARTESIAN_POINT ( 'NONE',  ( -2.165354330708659800, 7.033652055450361700, 4.330708661417319600 ) ) ;
#120 = EDGE_LOOP ( 'NONE', ( #290 ) ) ;
#121 = CARTESIAN_POINT ( 'NONE',  ( 1.771653543307085900, 3.228346456692908500, -3.543307086614170500 ) ) ;
#122 = APPROVAL_ROLE ( '' ) ;
#123 = CARTESIAN_POINT ( 'NONE',  ( 3.062273461831507500, 5.393700787401580300, -2.651794250271628500E-016 ) ) ;
#124 = VERTEX_POINT ( 'NONE', #1 ) ;
#125 = AXIS2_PLACEMENT_3D ( 'NONE', #218, #207, #35 ) ;
#126 = APPROVAL ( #180, 'UNSPECIFIED' ) ;
#127 = CARTESIAN_POINT ( 'NONE',  ( 2.831648880088628600, 5.787401574803150000, -3.543307086614170500 ) ) ;
#128 = EDGE_CURVE ( 'NONE', #225, #225, #272, .T. ) ;
#129 = COORDINATED_UNIVERSAL_TIME_OFFSET ( 5, 0, .BEHIND. ) ;
#130 = CARTESIAN_POINT ( 'NONE',  ( 7.559055118110243200, 7.559055118110243200, -2.165354330708678400 ) ) ;
#131 = ADVANCED_FACE ( 'NONE', ( #91, #68 ), #208, .F. ) ;
#132 = CARTESIAN_POINT ( 'NONE',  ( 4.330708661417321400, 9.724409448818903500, -4.480890288213312400E-026 ) ) ;
#133 = VERTEX_POINT ( 'NONE', #240 ) ;
#134 = ORIENTED_EDGE ( 'NONE', *, *, #254, .T. ) ;
#135 =( CONVERSION_BASED_UNIT ( 'INCH', #73 ) LENGTH_UNIT ( ) NAMED_UNIT ( #20 ) );
#136 = CC_DESIGN_SECURITY_CLASSIFICATION ( #163, ( #6 ) ) ;
#137 = PRODUCT ( '581243040', '581243040', '', ( #276 ) ) ;
#138 = CARTESIAN_POINT ( 'NONE',  ( 0.0000000000000000000, 1.614173228346453800, 0.0000000000000000000 ) ) ;
#139 = DIRECTION ( 'NONE',  ( 0.0000000000000000000, 0.0000000000000000000, 1.000000000000000000 ) ) ;
#140 = CARTESIAN_POINT ( 'NONE',  ( -1.771653543307085500, 6.803027473707478700, -3.543307086614170500 ) ) ;
#141 = CARTESIAN_POINT ( 'NONE',  ( 7.559055118110243200, 7.559055118110243200, -1.748382715945128500E-014 ) ) ;
#142 = CARTESIAN_POINT ( 'NONE',  ( -1.771653543307085900, 3.228346456692909000, -3.543307086614170500 ) ) ;
#143 = CARTESIAN_POINT ( 'NONE',  ( 1.771653543307086400, 4.727406238021603500, 3.543307086614170500 ) ) ;
#144 = DIRECTION ( 'NONE',  ( 1.000000000000000000, 0.0000000000000000000, 0.0000000000000000000 ) ) ;
#145 = ORIENTED_EDGE ( 'NONE', *, *, #291, .T. ) ;
#146 = ORIENTED_EDGE ( 'NONE', *, *, #85, .T. ) ;
#147 = DIRECTION ( 'NONE',  ( 0.0000000000000000000, 1.000000000000000000, 6.897154323602802200E-027 ) ) ;
#148 =( BOUNDED_SURFACE ( )  B_SPLINE_SURFACE ( 3, 3, ( 
 ( #232, #285, #174, #76 ),
 ( #176, #262, #265, #112 ),
 ( #81, #264, #194, #177 ),
 ( #184, #123, #190, #183 ),
 ( #251, #281, #223, #63 ),
 ( #205, #60, #119, #27 ),
 ( #132, #191, #198, #249 ) ),
 .UNSPECIFIED., .T., .F., .F. ) 
 B_SPLINE_SURFACE_WITH_KNOTS ( ( 4, 3, 4 ),
 ( 4, 4 ),
 ( 0.0000000000000000000, 0.5000000000000000000, 1.000000000000000000 ),
 ( 0.0000000000000000000, 1.000000000000000000 ),
 .UNSPECIFIED. ) 
 GEOMETRIC_REPRESENTATION_ITEM ( )  RATIONAL_B_SPLINE_SURFACE ( (
 ( 1.000000000000000000, 0.8047378541243656000, 0.8047378541243656000, 1.000000000000000000),
 ( 0.3333333333333333700, 0.2682459513747885700, 0.2682459513747885700, 0.3333333333333333700),
 ( 0.3333333333333333700, 0.2682459513747885700, 0.2682459513747885700, 0.3333333333333333700),
 ( 1.000000000000000000, 0.8047378541243656000, 0.8047378541243656000, 1.000000000000000000),
 ( 0.3333333333333333700, 0.2682459513747885700, 0.2682459513747885700, 0.3333333333333333700),
 ( 0.3333333333333333700, 0.2682459513747885700, 0.2682459513747885700, 0.3333333333333333700),
 ( 1.000000000000000000, 0.8047378541243656000, 0.8047378541243656000, 1.000000000000000000) ) ) 
 REPRESENTATION_ITEM ( '' )  SURFACE ( )  );
#149 = FACE_BOUND ( 'NONE', #192, .T. ) ;
#150 = FACE_OUTER_BOUND ( 'NONE', #162, .T. ) ;
#151 = EDGE_LOOP ( 'NONE', ( #146 ) ) ;
#152 = EDGE_LOOP ( 'NONE', ( #157 ) ) ;
#153 = AXIS2_PLACEMENT_3D ( 'NONE', #179, #200, #107 ) ;
#154 = DIRECTION ( 'NONE',  ( 0.0000000000000000000, 0.0000000000000000000, -1.000000000000000000 ) ) ;
#155 = PRODUCT_DEFINITION ( 'UNKNOWN', '', #6, #156 ) ;
#156 = DESIGN_CONTEXT ( 'detailed design', #275, 'design' ) ;
#157 = ORIENTED_EDGE ( 'NONE', *, *, #188, .T. ) ;
#158 = DIRECTION ( 'NONE',  ( 1.224646799147346800E-016, 1.000000000000000000, 6.896801353169356900E-027 ) ) ;
#159 = PERSON_AND_ORGANIZATION_ROLE ( 'design_supplier' ) ;
#160 = PERSON_AND_ORGANIZATION ( #270, #110 ) ;
#161 = CARTESIAN_POINT ( 'NONE',  ( 4.330708661417317800, 7.559055118110243200, -1.748382715945128500E-014 ) ) ;
#162 = EDGE_LOOP ( 'NONE', ( #134 ) ) ;
#163 = SECURITY_CLASSIFICATION ( '', '', #170 ) ;
#164 = EDGE_CURVE ( 'NONE', #124, #124, #165, .T. ) ;
#165 = CIRCLE ( 'NONE', #226, 1.771653543307086400 ) ;
#166 = CARTESIAN_POINT ( 'NONE',  ( 0.7560276444027361800, 9.330708661417311600, -4.209362797202219900E-026 ) ) ;
#167 = CARTESIAN_POINT ( 'NONE',  ( -2.165354330708661100, 3.228346456692907700, 0.0000000000000000000 ) ) ;
#168 = EDGE_LOOP ( 'NONE', ( #244 ) ) ;
#169 = DIRECTION ( 'NONE',  ( 0.0000000000000000000, 0.0000000000000000000, -1.000000000000000000 ) ) ;
#170 = SECURITY_CLASSIFICATION_LEVEL ( 'unclassified' ) ;
#171 = FACE_OUTER_BOUND ( 'NONE', #151, .T. ) ;
#172 = CC_DESIGN_PERSON_AND_ORGANIZATION_ASSIGNMENT ( #16, #159, ( #6 ) ) ;
#173 = APPLICATION_PROTOCOL_DEFINITION ( 'international standard', 'config_control_design', 1994, #275 ) ;
#174 = CARTESIAN_POINT ( 'NONE',  ( -2.165354330708659800, 7.033652055450361700, -2.625039442835123700E-026 ) ) ;
#175 = FACE_OUTER_BOUND ( 'NONE', #201, .T. ) ;
#176 = CARTESIAN_POINT ( 'NONE',  ( 4.330708661417321400, 9.724409448818901700, -4.330708661417320500 ) ) ;
#177 = CARTESIAN_POINT ( 'NONE',  ( 2.165354330708660200, 3.228346456692909000, -4.330708661417320500 ) ) ;
#178 = EDGE_LOOP ( 'NONE', ( #217 ) ) ;
#179 = CARTESIAN_POINT ( 'NONE',  ( 7.559055118110243200, 9.527559055118111100, -1.748382715945128500E-014 ) ) ;
#180 = APPROVAL_STATUS ( 'not_yet_approved' ) ;
#181 = CARTESIAN_POINT ( 'NONE',  ( 0.0000000000000000000, 3.228346456692907700, 0.0000000000000000000 ) ) ;
#182 = CC_DESIGN_APPROVAL ( #2, ( #163 ) ) ;
#183 = CARTESIAN_POINT ( 'NONE',  ( 2.165354330708660200, 3.228346456692908100, -2.651794250122279400E-016 ) ) ;
#184 = CARTESIAN_POINT ( 'NONE',  ( 4.330708661417331100, 5.393700787401583000, -2.651794250271628500E-016 ) ) ;
#185 = EDGE_CURVE ( 'NONE', #274, #274, #298, .T. ) ;
#186 = ORIENTED_EDGE ( 'NONE', *, *, #164, .T. ) ;
#187 = ADVANCED_FACE ( 'NONE', ( #268, #175 ), #19, .T. ) ;
#188 = EDGE_CURVE ( 'NONE', #66, #66, #257, .T. ) ;
#189 = CLOSED_SHELL ( 'NONE', ( #26, #248, #242, #213, #187, #131, #220, #118 ) ) ;
#190 = CARTESIAN_POINT ( 'NONE',  ( 2.165354330708660200, 4.496781656278731300, -2.651794250209761100E-016 ) ) ;
#191 = CARTESIAN_POINT ( 'NONE',  ( 0.5254030626598685800, 9.724409448818894600, -4.480890288213307800E-026 ) ) ;
#192 = EDGE_LOOP ( 'NONE', ( #145 ) ) ;
#193 = CIRCLE ( 'NONE', #271, 2.165354330708661100 ) ;
#194 = CARTESIAN_POINT ( 'NONE',  ( 2.165354330708661100, 4.496781656278733100, -4.330708661417319600 ) ) ;
#195 = LOCAL_TIME ( 14, 40, 51.00000000000000000, #96 ) ;
#196 = APPROVAL_STATUS ( 'not_yet_approved' ) ;
#197 = DIRECTION ( 'NONE',  ( -5.793197272716805400E-031, 1.000000000000000000, 6.896798271681445900E-027 ) ) ;
#198 = CARTESIAN_POINT ( 'NONE',  ( -2.165354330708659800, 7.033652055450361700, -2.625039442835123700E-026 ) ) ;
#199 = EDGE_LOOP ( 'NONE', ( #89 ) ) ;
#200 = DIRECTION ( 'NONE',  ( 1.000000000000000000, -5.824012151827002100E-031, 4.016703694297221700E-057 ) ) ;
#201 = EDGE_LOOP ( 'NONE', ( #94 ) ) ;
#202 = CARTESIAN_POINT ( 'NONE',  ( 1.771653543307086400, 4.727406238021603500, -3.543307086614170500 ) ) ;
#203 = CARTESIAN_POINT ( 'NONE',  ( -1.771653543307086100, 3.228346456692908100, -5.969351621100520400E-030 ) ) ;
#204 = DIRECTION ( 'NONE',  ( 0.0000000000000000000, 0.0000000000000000000, -1.000000000000000000 ) ) ;
#205 = CARTESIAN_POINT ( 'NONE',  ( 4.330708661417321400, 9.724409448818901700, 4.330708661417320500 ) ) ;
#206 = CALENDAR_DATE ( 2015, 4, 12 ) ;
#207 = DIRECTION ( 'NONE',  ( -5.793197272716805400E-031, 1.000000000000000000, 6.896798271681445900E-027 ) ) ;
#208 = CYLINDRICAL_SURFACE ( 'NONE', #287, 1.771653543307086400 ) ;
#209 = DIRECTION ( 'NONE',  ( 1.000000000000000000, -5.824012151827002100E-031, 0.0000000000000000000 ) ) ;
#210 = CARTESIAN_POINT ( 'NONE',  ( -1.771653543307086100, 3.228346456692908100, -5.969351621100520400E-030 ) ) ;
#211 = CALENDAR_DATE ( 2015, 4, 12 ) ;
#212 = VERTEX_POINT ( 'NONE', #7 ) ;
#213 = ADVANCED_FACE ( 'NONE', ( #243, #149 ), #47, .T. ) ;
#214 = CARTESIAN_POINT ( 'NONE',  ( 4.330708661417324000, 5.787401574803156200, -3.543307086614170500 ) ) ;
#215 = APPROVAL_DATE_TIME ( #222, #126 ) ;
#216 = DIRECTION ( 'NONE',  ( 5.793197272716805400E-031, -1.000000000000000000, -6.896798271681445900E-027 ) ) ;
#217 = ORIENTED_EDGE ( 'NONE', *, *, #164, .F. ) ;
#218 = CARTESIAN_POINT ( 'NONE',  ( 0.0000000000000000000, 0.0000000000000000000, 0.0000000000000000000 ) ) ;
#219 = CC_DESIGN_DATE_AND_TIME_ASSIGNMENT ( #50, #296, ( #155 ) ) ;
#220 = ADVANCED_FACE ( 'NONE', ( #255, #23 ), #80, .F. ) ;
#221 = EDGE_CURVE ( 'NONE', #212, #212, #278, .T. ) ;
#222 = DATE_AND_TIME ( #69, #195 ) ;
#223 = CARTESIAN_POINT ( 'NONE',  ( 2.165354330708661100, 4.496781656278733100, 4.330708661417319600 ) ) ;
#224 = EDGE_LOOP ( 'NONE', ( #13 ) ) ;
#225 = VERTEX_POINT ( 'NONE', #130 ) ;
#226 = AXIS2_PLACEMENT_3D ( 'NONE', #161, #209, #82 ) ;
#227 = FACE_OUTER_BOUND ( 'NONE', #61, .T. ) ;
#228 = CARTESIAN_POINT ( 'NONE',  ( 0.7560276444027361800, 9.330708661417311600, -4.209362797202219900E-026 ) ) ;
#229 = FACE_OUTER_BOUND ( 'NONE', #168, .T. ) ;
#230 = CARTESIAN_POINT ( 'NONE',  ( 5.944881889763789400, 7.559055118110243200, -1.748382715945128500E-014 ) ) ;
#231 = DIRECTION ( 'NONE',  ( 0.0000000000000000000, 0.0000000000000000000, 1.000000000000000000 ) ) ;
#232 = CARTESIAN_POINT ( 'NONE',  ( 4.330708661417321400, 9.724409448818903500, -4.480890288213312400E-026 ) ) ;
#233 = ADVANCED_BREP_SHAPE_REPRESENTATION ( '581243040', ( #239, #116 ), #266 ) ;
#234 = PERSON_AND_ORGANIZATION_ROLE ( 'design_owner' ) ;
#235 = CARTESIAN_POINT ( 'NONE',  ( 4.330708661417307100, 9.330708661417329400, -3.543307086614170500 ) ) ;
#236 = CARTESIAN_POINT ( 'NONE',  ( 2.831648880088628600, 5.787401574803150000, 3.543307086614170500 ) ) ;
#237 = CARTESIAN_POINT ( 'NONE',  ( 0.7560276444027368400, 9.330708661417313400, 3.543307086614170500 ) ) ;
#238 = CARTESIAN_POINT ( 'NONE',  ( 0.7560276444027368400, 9.330708661417313400, -3.543307086614170500 ) ) ;
#239 = MANIFOLD_SOLID_BREP ( '1', #189 ) ;
#240 = CARTESIAN_POINT ( 'NONE',  ( 0.0000000000000000000, 1.493401200560943000E-026, 2.165354330708661100 ) ) ;
#241 = CARTESIAN_POINT ( 'NONE',  ( 7.559055118110243200, 7.559055118110243200, -1.748382715945128500E-014 ) ) ;
#242 = ADVANCED_FACE ( 'NONE', ( #273, #283 ), #65, .T. ) ;
#243 = FACE_OUTER_BOUND ( 'NONE', #120, .T. ) ;
#244 = ORIENTED_EDGE ( 'NONE', *, *, #185, .F. ) ;
#245 = CC_DESIGN_PERSON_AND_ORGANIZATION_ASSIGNMENT ( #160, #293, ( #155 ) ) ;
#246 = CIRCLE ( 'NONE', #125, 1.771653543307086400 ) ;
#247 = EDGE_LOOP ( 'NONE', ( #260 ) ) ;
#248 = ADVANCED_FACE ( 'NONE', ( #229, #150 ), #49, .T. ) ;
#249 = CARTESIAN_POINT ( 'NONE',  ( -2.165354330708660200, 3.228346456692908100, -5.969351621089928000E-030 ) ) ;
#250 = ORIENTED_EDGE ( 'NONE', *, *, #221, .T. ) ;
#251 = CARTESIAN_POINT ( 'NONE',  ( 4.330708661417331100, 5.393700787401583000, 4.330708661417320500 ) ) ;
#252 = CARTESIAN_POINT ( 'NONE',  ( -1.771653543307086400, 6.803027473707478700, -2.465982321157966700E-026 ) ) ;
#253 = PERSON_AND_ORGANIZATION ( #270, #110 ) ;
#254 = EDGE_CURVE ( 'NONE', #133, #133, #193, .T. ) ;
#255 = FACE_OUTER_BOUND ( 'NONE', #224, .T. ) ;
#256 = APPROVAL_STATUS ( 'not_yet_approved' ) ;
#257 = CIRCLE ( 'NONE', #43, 1.771653543307086400 ) ;
#258 = PRODUCT_RELATED_PRODUCT_CATEGORY ( 'detail', '', ( #137 ) ) ;
#259 = CARTESIAN_POINT ( 'NONE',  ( -1.771653543307085500, 6.803027473707478700, 3.543307086614170500 ) ) ;
#260 = ORIENTED_EDGE ( 'NONE', *, *, #291, .F. ) ;
#261 = CC_DESIGN_APPROVAL ( #126, ( #155 ) ) ;
#262 = CARTESIAN_POINT ( 'NONE',  ( 0.5254030626598690200, 9.724409448818894600, -4.330708661417319600 ) ) ;
#263 =( BOUNDED_SURFACE ( )  B_SPLINE_SURFACE ( 3, 3, ( 
 ( #4, #228, #252, #210 ),
 ( #235, #238, #140, #142 ),
 ( #214, #127, #202, #121 ),
 ( #84, #87, #95, #97 ),
 ( #100, #236, #143, #92 ),
 ( #117, #237, #259, #90 ),
 ( #106, #166, #105, #203 ) ),
 .UNSPECIFIED., .T., .F., .F. ) 
 B_SPLINE_SURFACE_WITH_KNOTS ( ( 4, 3, 4 ),
 ( 4, 4 ),
 ( 0.0000000000000000000, 0.5000000000000000000, 1.000000000000000000 ),
 ( 0.0000000000000000000, 1.000000000000000000 ),
 .UNSPECIFIED. ) 
 GEOMETRIC_REPRESENTATION_ITEM ( )  RATIONAL_B_SPLINE_SURFACE ( (
 ( 1.000000000000000000, 0.8047378541243661600, 0.8047378541243661600, 1.000000000000000000),
 ( 0.3333333333333333700, 0.2682459513747887400, 0.2682459513747887400, 0.3333333333333333700),
 ( 0.3333333333333333700, 0.2682459513747887400, 0.2682459513747887400, 0.3333333333333333700),
 ( 1.000000000000000000, 0.8047378541243661600, 0.8047378541243661600, 1.000000000000000000),
 ( 0.3333333333333333700, 0.2682459513747887400, 0.2682459513747887400, 0.3333333333333333700),
 ( 0.3333333333333333700, 0.2682459513747887400, 0.2682459513747887400, 0.3333333333333333700),
 ( 1.000000000000000000, 0.8047378541243661600, 0.8047378541243661600, 1.000000000000000000) ) ) 
 REPRESENTATION_ITEM ( '' )  SURFACE ( )  );
#264 = CARTESIAN_POINT ( 'NONE',  ( 3.062273461831508800, 5.393700787401580300, -4.330708661417319600 ) ) ;
#265 = CARTESIAN_POINT ( 'NONE',  ( -2.165354330708659800, 7.033652055450361700, -4.330708661417319600 ) ) ;
#266 =( GEOMETRIC_REPRESENTATION_CONTEXT ( 3 ) GLOBAL_UNCERTAINTY_ASSIGNED_CONTEXT ( ( #280 ) ) GLOBAL_UNIT_ASSIGNED_CONTEXT ( ( #135, #104, #39 ) ) REPRESENTATION_CONTEXT ( 'NONE', 'WORKASPACE' ) );
#267 = DIRECTION ( 'NONE',  ( 0.0000000000000000000, 0.0000000000000000000, 1.000000000000000000 ) ) ;
#268 = FACE_BOUND ( 'NONE', #152, .T. ) ;
#269 = PERSON_AND_ORGANIZATION_ROLE ( 'creator' ) ;
#270 = PERSON ( 'UNSPECIFIED', 'UNSPECIFIED', 'UNSPECIFIED', ('UNSPECIFIED'), ('UNSPECIFIED'), ('UNSPECIFIED') ) ;
#271 = AXIS2_PLACEMENT_3D ( 'NONE', #59, #284, #86 ) ;
#272 = CIRCLE ( 'NONE', #111, 2.165354330708661100 ) ;
#273 = FACE_OUTER_BOUND ( 'NONE', #54, .T. ) ;
#274 = VERTEX_POINT ( 'NONE', #167 ) ;
#275 = APPLICATION_CONTEXT ( 'configuration controlled 3d designs of mechanical parts and assemblies' ) ;
#276 = MECHANICAL_CONTEXT ( 'NONE', #300, 'mechanical' ) ;
#277 = FACE_OUTER_BOUND ( 'NONE', #93, .T. ) ;
#278 = CIRCLE ( 'NONE', #288, 2.165354330708661100 ) ;
#279 = DIRECTION ( 'NONE',  ( 0.0000000000000000000, 0.0000000000000000000, 1.000000000000000000 ) ) ;
#280 = UNCERTAINTY_MEASURE_WITH_UNIT (LENGTH_MEASURE( 1.000000000000000100E-005 ), #135, 'distance_accuracy_value', 'NONE');
#281 = CARTESIAN_POINT ( 'NONE',  ( 3.062273461831508800, 5.393700787401580300, 4.330708661417319600 ) ) ;
#282 = DIRECTION ( 'NONE',  ( 1.000000000000000000, -5.824012151827002100E-031, 0.0000000000000000000 ) ) ;
#283 = FACE_OUTER_BOUND ( 'NONE', #75, .T. ) ;
#284 = DIRECTION ( 'NONE',  ( -5.793197272716805400E-031, 1.000000000000000000, 6.896798271681445900E-027 ) ) ;
#285 = CARTESIAN_POINT ( 'NONE',  ( 0.5254030626598685800, 9.724409448818894600, -4.480890288213307800E-026 ) ) ;
#286 = AXIS2_PLACEMENT_3D ( 'NONE', #88, #21, #113 ) ;
#287 = AXIS2_PLACEMENT_3D ( 'NONE', #138, #72, #267 ) ;
#288 = AXIS2_PLACEMENT_3D ( 'NONE', #30, #103, #147 ) ;
#289 = DATE_TIME_ROLE ( 'classification_date' ) ;
#290 = ORIENTED_EDGE ( 'NONE', *, *, #254, .F. ) ;
#291 = EDGE_CURVE ( 'NONE', #17, #17, #246, .T. ) ;
#292 = CARTESIAN_POINT ( 'NONE',  ( 0.0000000000000000000, 3.228346456692907700, 1.771653543307086400 ) ) ;
#293 = PERSON_AND_ORGANIZATION_ROLE ( 'creator' ) ;
#294 = COORDINATED_UNIVERSAL_TIME_OFFSET ( 5, 0, .BEHIND. ) ;
#295 = CARTESIAN_POINT ( 'NONE',  ( 0.0000000000000000000, 3.228346456692907700, 0.0000000000000000000 ) ) ;
#296 = DATE_TIME_ROLE ( 'creation_date' ) ;
#297 = APPROVAL_ROLE ( '' ) ;
#298 = CIRCLE ( 'NONE', #114, 2.165354330708661100 ) ;
#299 = APPROVAL_PERSON_ORGANIZATION ( #109, #126, #9 ) ;
#300 = APPLICATION_CONTEXT ( 'configuration controlled 3d designs of mechanical parts and assemblies' ) ;
ENDSEC;
END-ISO-10303-21;
