ISO-10303-21;
HEADER;
FILE_DESCRIPTION (( 'STEP AP203' ),
    '1' );
FILE_NAME ('581243060.STEP',
    '2017-07-27T18:28:55',
    ( '' ),
    ( '' ),
    'SwSTEP 2.0',
    'SolidWorks 2017',
    '' );
FILE_SCHEMA (( 'CONFIG_CONTROL_DESIGN' ));
ENDSEC;

DATA;
#1 = DIRECTION ( 'NONE',  ( 0.0000000000000000000, -4.243647368798854600E-016, 1.000000000000000000 ) ) ;
#2 = PERSON_AND_ORGANIZATION_ROLE ( 'creator' ) ;
#3 = EDGE_LOOP ( 'NONE', ( #177 ) ) ;
#4 = SECURITY_CLASSIFICATION_LEVEL ( 'unclassified' ) ;
#5 = ORIENTED_EDGE ( 'NONE', *, *, #151, .T. ) ;
#6 = COORDINATED_UNIVERSAL_TIME_OFFSET ( 5, 0, .BEHIND. ) ;
#7 = DIRECTION ( 'NONE',  ( 0.0000000000000000000, 1.040703997586385600E-015, -1.000000000000000000 ) ) ;
#8 = DIRECTION ( 'NONE',  ( 0.0000000000000000000, 0.0000000000000000000, 1.000000000000000000 ) ) ;
#9 = ADVANCED_FACE ( 'NONE', ( #214, #170 ), #105, .F. ) ;
#10 = PERSON_AND_ORGANIZATION_ROLE ( 'classification_officer' ) ;
#11 = DIRECTION ( 'NONE',  ( 0.0000000000000000000, 0.0000000000000000000, 1.000000000000000000 ) ) ;
#12 = VERTEX_POINT ( 'NONE', #228 ) ;
#13 = ORIENTED_EDGE ( 'NONE', *, *, #151, .F. ) ;
#14 = COORDINATED_UNIVERSAL_TIME_OFFSET ( 5, 0, .BEHIND. ) ;
#15 = DIRECTION ( 'NONE',  ( 1.000000000000000000, 0.0000000000000000000, 0.0000000000000000000 ) ) ;
#16 = ADVANCED_FACE ( 'NONE', ( #252, #54 ), #235, .F. ) ;
#17 = CC_DESIGN_APPROVAL ( #52, ( #168 ) ) ;
#18 = EDGE_CURVE ( 'NONE', #39, #39, #70, .T. ) ;
#19 = PERSON_AND_ORGANIZATION ( #158, #69 ) ;
#20 = CARTESIAN_POINT ( 'NONE',  ( 0.0000000000000000000, -6.299999999999997200, -10.30000000000000100 ) ) ;
#21 = DIRECTION ( 'NONE',  ( 1.000000000000000000, 0.0000000000000000000, 0.0000000000000000000 ) ) ;
#22 = AXIS2_PLACEMENT_3D ( 'NONE', #184, #133, #8 ) ;
#23 = EDGE_LOOP ( 'NONE', ( #129 ) ) ;
#24 = CARTESIAN_POINT ( 'NONE',  ( 0.0000000000000000000, 0.0000000000000000000, -4.000000000000000900 ) ) ;
#25 = AXIS2_PLACEMENT_3D ( 'NONE', #40, #244, #96 ) ;
#26 = UNCERTAINTY_MEASURE_WITH_UNIT (LENGTH_MEASURE( 1.000000000000000100E-005 ), #187, 'distance_accuracy_value', 'NONE');
#27 = TOROIDAL_SURFACE ( 'NONE', #97, 6.299999999999999800, 3.150000000000000400 ) ;
#28 = DIRECTION ( 'NONE',  ( 0.0000000000000000000, 1.273094210639656700E-015, -1.000000000000000000 ) ) ;
#29 = CIRCLE ( 'NONE', #237, 2.575000000000000600 ) ;
#30 = DIRECTION ( 'NONE',  ( 0.0000000000000000000, 0.0000000000000000000, 1.000000000000000000 ) ) ;
#31 = APPROVAL_PERSON_ORGANIZATION ( #116, #52, #161 ) ;
#32 = CARTESIAN_POINT ( 'NONE',  ( 2.575000000000000600, 0.0000000000000000000, 0.0000000000000000000 ) ) ;
#33 = FACE_OUTER_BOUND ( 'NONE', #167, .T. ) ;
#34 = ORIENTED_EDGE ( 'NONE', *, *, #62, .T. ) ;
#35 = EDGE_LOOP ( 'NONE', ( #126 ) ) ;
#36 = CARTESIAN_POINT ( 'NONE',  ( 0.0000000000000000000, 0.0000000000000000000, 0.0000000000000000000 ) ) ;
#37 = CARTESIAN_POINT ( 'NONE',  ( 0.0000000000000000000, 0.0000000000000000000, -4.000000000000000900 ) ) ;
#38 = SECURITY_CLASSIFICATION ( '', '', #4 ) ;
#39 = VERTEX_POINT ( 'NONE', #99 ) ;
#40 = CARTESIAN_POINT ( 'NONE',  ( 0.0000000000000000000, -10.29999999999999900, -10.30000000000000600 ) ) ;
#41 = DIRECTION ( 'NONE',  ( 0.0000000000000000000, 0.0000000000000000000, 1.000000000000000000 ) ) ;
#42 = CARTESIAN_POINT ( 'NONE',  ( 0.0000000000000000000, -6.299999999999998000, -10.30000000000000100 ) ) ;
#43 = CYLINDRICAL_SURFACE ( 'NONE', #102, 3.150000000000000400 ) ;
#44 = CIRCLE ( 'NONE', #123, 3.150000000000000400 ) ;
#45 = LENGTH_MEASURE_WITH_UNIT ( LENGTH_MEASURE( 0.02539999999999999900 ), #245 );
#46 = CLOSED_SHELL ( 'NONE', ( #226, #119, #233, #178, #205, #9, #16, #145 ) ) ;
#47 = EDGE_LOOP ( 'NONE', ( #160 ) ) ;
#48 = APPROVAL_DATE_TIME ( #195, #193 ) ;
#49 = AXIS2_PLACEMENT_3D ( 'NONE', #173, #203, #183 ) ;
#50 = EDGE_LOOP ( 'NONE', ( #89 ) ) ;
#51 = LOCAL_TIME ( 14, 28, 55.00000000000000000, #224 ) ;
#52 = APPROVAL ( #128, 'UNSPECIFIED' ) ;
#53 = CALENDAR_DATE ( 2017, 27, 7 ) ;
#54 = FACE_OUTER_BOUND ( 'NONE', #175, .T. ) ;
#55 = DIRECTION ( 'NONE',  ( 0.0000000000000000000, -1.000000000000000000, -1.092739197465704700E-015 ) ) ;
#56 = APPROVAL_ROLE ( '' ) ;
#57 = EDGE_LOOP ( 'NONE', ( #13 ) ) ;
#58 = APPLICATION_PROTOCOL_DEFINITION ( 'international standard', 'config_control_design', 1994, #118 ) ;
#59 = EDGE_CURVE ( 'NONE', #79, #79, #234, .T. ) ;
#60 = PLANE ( 'NONE',  #25 ) ;
#61 = CARTESIAN_POINT ( 'NONE',  ( 0.0000000000000000000, -6.299999999999998000, -10.30000000000000100 ) ) ;
#62 = EDGE_CURVE ( 'NONE', #68, #68, #132, .T. ) ;
#63 = DIRECTION ( 'NONE',  ( 1.000000000000000000, 0.0000000000000000000, 0.0000000000000000000 ) ) ;
#64 = CC_DESIGN_APPROVAL ( #197, ( #186 ) ) ;
#65 = CARTESIAN_POINT ( 'NONE',  ( 0.0000000000000000000, -10.29999999999999900, -10.30000000000000600 ) ) ;
#66 = CC_DESIGN_PERSON_AND_ORGANIZATION_ASSIGNMENT ( #209, #76, ( #168 ) ) ;
#67 = LOCAL_TIME ( 14, 28, 55.00000000000000000, #232 ) ;
#68 = VERTEX_POINT ( 'NONE', #194 ) ;
#69 = ORGANIZATION ( 'UNSPECIFIED', 'UNSPECIFIED', '' ) ;
#70 = CIRCLE ( 'NONE', #213, 2.575000000000000600 ) ;
#71 = DIRECTION ( 'NONE',  ( 1.000000000000000000, 0.0000000000000000000, 0.0000000000000000000 ) ) ;
#72 = EDGE_LOOP ( 'NONE', ( #154 ) ) ;
#73 = ORIENTED_EDGE ( 'NONE', *, *, #59, .F. ) ;
#74 = APPROVAL_PERSON_ORGANIZATION ( #19, #197, #144 ) ;
#75 = PERSON_AND_ORGANIZATION ( #158, #69 ) ;
#76 = PERSON_AND_ORGANIZATION_ROLE ( 'creator' ) ;
#77 = CC_DESIGN_APPROVAL ( #193, ( #38 ) ) ;
#78 = VERTEX_POINT ( 'NONE', #241 ) ;
#79 = VERTEX_POINT ( 'NONE', #106 ) ;
#80 = DIRECTION ( 'NONE',  ( 0.0000000000000000000, 1.000000000000000000, 2.832769448823989800E-016 ) ) ;
#81 = FACE_BOUND ( 'NONE', #57, .T. ) ;
#82 = APPROVAL_PERSON_ORGANIZATION ( #242, #193, #56 ) ;
#83 = CARTESIAN_POINT ( 'NONE',  ( 0.0000000000000000000, -10.29999999999999900, -7.725000000000005000 ) ) ;
#84 = AXIS2_PLACEMENT_3D ( 'NONE', #122, #174, #63 ) ;
#85 = EDGE_LOOP ( 'NONE', ( #202 ) ) ;
#86 = LOCAL_TIME ( 14, 28, 55.00000000000000000, #140 ) ;
#87 = FACE_OUTER_BOUND ( 'NONE', #130, .T. ) ;
#88 = EDGE_CURVE ( 'NONE', #155, #155, #29, .T. ) ;
#89 = ORIENTED_EDGE ( 'NONE', *, *, #199, .F. ) ;
#90 = AXIS2_PLACEMENT_3D ( 'NONE', #243, #227, #28 ) ;
#91 = FACE_OUTER_BOUND ( 'NONE', #47, .T. ) ;
#92 = PERSON_AND_ORGANIZATION_ROLE ( 'design_owner' ) ;
#93 = EDGE_LOOP ( 'NONE', ( #34 ) ) ;
#94 = PRODUCT ( '581243060', '581243060', '', ( #124 ) ) ;
#95 = CARTESIAN_POINT ( 'NONE',  ( 2.575000000000000600, 0.0000000000000000000, -4.000000000000000900 ) ) ;
#96 = DIRECTION ( 'NONE',  ( 1.000000000000000000, 0.0000000000000000000, 0.0000000000000000000 ) ) ;
#97 = AXIS2_PLACEMENT_3D ( 'NONE', #207, #208, #110 ) ;
#98 = DIRECTION ( 'NONE',  ( 1.000000000000000000, 0.0000000000000000000, 0.0000000000000000000 ) ) ;
#99 = CARTESIAN_POINT ( 'NONE',  ( 0.0000000000000000000, -6.299999999999998000, -7.725000000000000500 ) ) ;
#100 = DIRECTION ( 'NONE',  ( 1.000000000000000000, 0.0000000000000000000, 0.0000000000000000000 ) ) ;
#101 = FACE_OUTER_BOUND ( 'NONE', #93, .T. ) ;
#102 = AXIS2_PLACEMENT_3D ( 'NONE', #204, #139, #21 ) ;
#103 = CALENDAR_DATE ( 2017, 27, 7 ) ;
#104 = CALENDAR_DATE ( 2017, 27, 7 ) ;
#105 = CYLINDRICAL_SURFACE ( 'NONE', #90, 2.574999999999999700 ) ;
#106 = CARTESIAN_POINT ( 'NONE',  ( 3.150000000000000400, 0.0000000000000000000, 0.0000000000000000000 ) ) ;
#107 = DIRECTION ( 'NONE',  ( -0.0000000000000000000, -0.0000000000000000000, 1.000000000000000000 ) ) ;
#108 = CYLINDRICAL_SURFACE ( 'NONE', #250, 2.575000000000000600 ) ;
#109 = FACE_BOUND ( 'NONE', #137, .T. ) ;
#110 = DIRECTION ( 'NONE',  ( 0.0000000000000000000, 0.0000000000000000000, 1.000000000000000000 ) ) ;
#111 = ORIENTED_EDGE ( 'NONE', *, *, #217, .F. ) ;
#112 = APPLICATION_PROTOCOL_DEFINITION ( 'international standard', 'config_control_design', 1994, #159 ) ;
#113 = PERSON_AND_ORGANIZATION ( #158, #69 ) ;
#114 = VERTEX_POINT ( 'NONE', #32 ) ;
#115 = PERSON_AND_ORGANIZATION_ROLE ( 'design_supplier' ) ;
#116 = PERSON_AND_ORGANIZATION ( #158, #69 ) ;
#117 = PRODUCT_RELATED_PRODUCT_CATEGORY ( 'detail', '', ( #94 ) ) ;
#118 = APPLICATION_CONTEXT ( 'configuration controlled 3d designs of mechanical parts and assemblies' ) ;
#119 = ADVANCED_FACE ( 'NONE', ( #152, #101 ), #27, .T. ) ;
#120 = MANIFOLD_SOLID_BREP ( 'Sweep-Thin1', #46 ) ;
#121 = VERTEX_POINT ( 'NONE', #83 ) ;
#122 = CARTESIAN_POINT ( 'NONE',  ( 0.0000000000000000000, 0.0000000000000000000, -4.000000000000000900 ) ) ;
#123 = AXIS2_PLACEMENT_3D ( 'NONE', #65, #240, #71 ) ;
#124 = MECHANICAL_CONTEXT ( 'NONE', #159, 'mechanical' ) ;
#125 = DATE_AND_TIME ( #104, #86 ) ;
#126 = ORIENTED_EDGE ( 'NONE', *, *, #199, .T. ) ;
#127 = CIRCLE ( 'NONE', #84, 3.150000000000000400 ) ;
#128 = APPROVAL_STATUS ( 'not_yet_approved' ) ;
#129 = ORIENTED_EDGE ( 'NONE', *, *, #59, .T. ) ;
#130 = EDGE_LOOP ( 'NONE', ( #5 ) ) ;
#131 = PLANE ( 'NONE',  #134 ) ;
#132 = CIRCLE ( 'NONE', #210, 3.150000000000000400 ) ;
#133 = DIRECTION ( 'NONE',  ( -1.000000000000000000, -0.0000000000000000000, 0.0000000000000000000 ) ) ;
#134 = AXIS2_PLACEMENT_3D ( 'NONE', #149, #251, #156 ) ;
#135 =( NAMED_UNIT ( * ) PLANE_ANGLE_UNIT ( ) SI_UNIT ( $, .RADIAN. ) );
#136 = CARTESIAN_POINT ( 'NONE',  ( 0.0000000000000000000, 0.0000000000000000000, 0.0000000000000000000 ) ) ;
#137 = EDGE_LOOP ( 'NONE', ( #162 ) ) ;
#138 = CALENDAR_DATE ( 2017, 27, 7 ) ;
#139 = DIRECTION ( 'NONE',  ( -0.0000000000000000000, -0.0000000000000000000, 1.000000000000000000 ) ) ;
#140 = COORDINATED_UNIVERSAL_TIME_OFFSET ( 5, 0, .BEHIND. ) ;
#141 = LOCAL_TIME ( 14, 28, 55.00000000000000000, #6 ) ;
#142 = AXIS2_PLACEMENT_3D ( 'NONE', #61, #55, #7 ) ;
#143 = CIRCLE ( 'NONE', #181, 2.575000000000000600 ) ;
#144 = APPROVAL_ROLE ( '' ) ;
#145 = ADVANCED_FACE ( 'NONE', ( #192, #87 ), #108, .F. ) ;
#146 = CARTESIAN_POINT ( 'NONE',  ( 0.0000000000000000000, -10.29999999999999900, -10.30000000000000600 ) ) ;
#147 = APPROVAL_DATE_TIME ( #190, #52 ) ;
#148 = CC_DESIGN_DATE_AND_TIME_ASSIGNMENT ( #125, #180, ( #38 ) ) ;
#149 = CARTESIAN_POINT ( 'NONE',  ( 0.0000000000000000000, 0.0000000000000000000, 0.0000000000000000000 ) ) ;
#150 = DIRECTION ( 'NONE',  ( -0.0000000000000000000, -0.0000000000000000000, 1.000000000000000000 ) ) ;
#151 = EDGE_CURVE ( 'NONE', #114, #114, #143, .T. ) ;
#152 = FACE_OUTER_BOUND ( 'NONE', #50, .T. ) ;
#153 = CIRCLE ( 'NONE', #248, 2.575000000000000600 ) ;
#154 = ORIENTED_EDGE ( 'NONE', *, *, #88, .T. ) ;
#155 = VERTEX_POINT ( 'NONE', #95 ) ;
#156 = DIRECTION ( 'NONE',  ( 1.000000000000000000, 0.0000000000000000000, -0.0000000000000000000 ) ) ;
#157 = DIRECTION ( 'NONE',  ( 1.000000000000000000, 0.0000000000000000000, 0.0000000000000000000 ) ) ;
#158 = PERSON ( 'UNSPECIFIED', 'UNSPECIFIED', 'UNSPECIFIED', ('UNSPECIFIED'), ('UNSPECIFIED'), ('UNSPECIFIED') ) ;
#159 = APPLICATION_CONTEXT ( 'configuration controlled 3d designs of mechanical parts and assemblies' ) ;
#160 = ORIENTED_EDGE ( 'NONE', *, *, #230, .F. ) ;
#161 = APPROVAL_ROLE ( '' ) ;
#162 = ORIENTED_EDGE ( 'NONE', *, *, #217, .T. ) ;
#163 = DIMENSIONAL_EXPONENTS ( 1.000000000000000000, 0.0000000000000000000, 0.0000000000000000000, 0.0000000000000000000, 0.0000000000000000000, 0.0000000000000000000, 0.0000000000000000000 ) ;
#164 = FACE_OUTER_BOUND ( 'NONE', #185, .T. ) ;
#165 = CC_DESIGN_DATE_AND_TIME_ASSIGNMENT ( #238, #211, ( #168 ) ) ;
#166 = EDGE_LOOP ( 'NONE', ( #73 ) ) ;
#167 = EDGE_LOOP ( 'NONE', ( #218 ) ) ;
#168 = PRODUCT_DEFINITION ( 'UNKNOWN', '', #186, #171 ) ;
#169 = ADVANCED_BREP_SHAPE_REPRESENTATION ( '581243060', ( #120, #49 ), #172 ) ;
#170 = FACE_OUTER_BOUND ( 'NONE', #189, .T. ) ;
#171 = DESIGN_CONTEXT ( 'detailed design', #118, 'design' ) ;
#172 =( GEOMETRIC_REPRESENTATION_CONTEXT ( 3 ) GLOBAL_UNCERTAINTY_ASSIGNED_CONTEXT ( ( #26 ) ) GLOBAL_UNIT_ASSIGNED_CONTEXT ( ( #187, #135, #215 ) ) REPRESENTATION_CONTEXT ( 'NONE', 'WORKASPACE' ) );
#173 = CARTESIAN_POINT ( 'NONE',  ( 0.0000000000000000000, 0.0000000000000000000, 0.0000000000000000000 ) ) ;
#174 = DIRECTION ( 'NONE',  ( 0.0000000000000000000, 0.0000000000000000000, 1.000000000000000000 ) ) ;
#175 = EDGE_LOOP ( 'NONE', ( #206 ) ) ;
#176 = DIRECTION ( 'NONE',  ( 0.0000000000000000000, 1.000000000000000000, 5.665538897647979600E-016 ) ) ;
#177 = ORIENTED_EDGE ( 'NONE', *, *, #88, .F. ) ;
#178 = ADVANCED_FACE ( 'NONE', ( #109, #91 ), #60, .F. ) ;
#179 = CC_DESIGN_SECURITY_CLASSIFICATION ( #38, ( #186 ) ) ;
#180 = DATE_TIME_ROLE ( 'classification_date' ) ;
#181 = AXIS2_PLACEMENT_3D ( 'NONE', #36, #11, #15 ) ;
#182 = PERSON_AND_ORGANIZATION ( #158, #69 ) ;
#183 = DIRECTION ( 'NONE',  ( 1.000000000000000000, 0.0000000000000000000, 0.0000000000000000000 ) ) ;
#184 = CARTESIAN_POINT ( 'NONE',  ( 0.0000000000000000000, -6.299999999999999800, -4.000000000000000900 ) ) ;
#185 = EDGE_LOOP ( 'NONE', ( #229 ) ) ;
#186 = PRODUCT_DEFINITION_FORMATION_WITH_SPECIFIED_SOURCE ( 'ANY', '', #94, .NOT_KNOWN. ) ;
#187 =( CONVERSION_BASED_UNIT ( 'INCH', #45 ) LENGTH_UNIT ( ) NAMED_UNIT ( #163 ) );
#188 = CC_DESIGN_PERSON_AND_ORGANIZATION_ASSIGNMENT ( #75, #10, ( #38 ) ) ;
#189 = EDGE_LOOP ( 'NONE', ( #111 ) ) ;
#190 = DATE_AND_TIME ( #239, #212 ) ;
#191 = APPROVAL_STATUS ( 'not_yet_approved' ) ;
#192 = FACE_OUTER_BOUND ( 'NONE', #3, .T. ) ;
#193 = APPROVAL ( #191, 'UNSPECIFIED' ) ;
#194 = CARTESIAN_POINT ( 'NONE',  ( 3.150000000000000400, -6.299999999999998000, -10.30000000000000100 ) ) ;
#195 = DATE_AND_TIME ( #103, #141 ) ;
#196 = PERSON_AND_ORGANIZATION ( #158, #69 ) ;
#197 = APPROVAL ( #201, 'UNSPECIFIED' ) ;
#198 = CYLINDRICAL_SURFACE ( 'NONE', #142, 3.150000000000001200 ) ;
#199 = EDGE_CURVE ( 'NONE', #78, #78, #127, .T. ) ;
#200 = FACE_OUTER_BOUND ( 'NONE', #35, .T. ) ;
#201 = APPROVAL_STATUS ( 'not_yet_approved' ) ;
#202 = ORIENTED_EDGE ( 'NONE', *, *, #18, .T. ) ;
#203 = DIRECTION ( 'NONE',  ( 0.0000000000000000000, 0.0000000000000000000, 1.000000000000000000 ) ) ;
#204 = CARTESIAN_POINT ( 'NONE',  ( 0.0000000000000000000, 0.0000000000000000000, -4.000000000000000900 ) ) ;
#205 = ADVANCED_FACE ( 'NONE', ( #81, #246 ), #131, .T. ) ;
#206 = ORIENTED_EDGE ( 'NONE', *, *, #18, .F. ) ;
#207 = CARTESIAN_POINT ( 'NONE',  ( 0.0000000000000000000, -6.299999999999999800, -4.000000000000000900 ) ) ;
#208 = DIRECTION ( 'NONE',  ( -1.000000000000000000, -0.0000000000000000000, 0.0000000000000000000 ) ) ;
#209 = PERSON_AND_ORGANIZATION ( #158, #69 ) ;
#210 = AXIS2_PLACEMENT_3D ( 'NONE', #42, #225, #157 ) ;
#211 = DATE_TIME_ROLE ( 'creation_date' ) ;
#212 = LOCAL_TIME ( 14, 28, 55.00000000000000000, #14 ) ;
#213 = AXIS2_PLACEMENT_3D ( 'NONE', #20, #176, #1 ) ;
#214 = FACE_OUTER_BOUND ( 'NONE', #85, .T. ) ;
#215 =( NAMED_UNIT ( * ) SI_UNIT ( $, .STERADIAN. ) SOLID_ANGLE_UNIT ( ) );
#216 = DIRECTION ( 'NONE',  ( 1.000000000000000000, 0.0000000000000000000, 0.0000000000000000000 ) ) ;
#217 = EDGE_CURVE ( 'NONE', #121, #121, #153, .T. ) ;
#218 = ORIENTED_EDGE ( 'NONE', *, *, #62, .F. ) ;
#219 = DATE_AND_TIME ( #53, #51 ) ;
#220 = FACE_OUTER_BOUND ( 'NONE', #166, .T. ) ;
#221 = CC_DESIGN_PERSON_AND_ORGANIZATION_ASSIGNMENT ( #196, #115, ( #186 ) ) ;
#222 = PRODUCT_DEFINITION_SHAPE ( 'NONE', 'NONE',  #168 ) ;
#223 = AXIS2_PLACEMENT_3D ( 'NONE', #136, #41, #216 ) ;
#224 = COORDINATED_UNIVERSAL_TIME_OFFSET ( 5, 0, .BEHIND. ) ;
#225 = DIRECTION ( 'NONE',  ( 0.0000000000000000000, 1.000000000000000000, 2.832769448823989800E-016 ) ) ;
#226 = ADVANCED_FACE ( 'NONE', ( #33, #164 ), #198, .T. ) ;
#227 = DIRECTION ( 'NONE',  ( 0.0000000000000000000, -1.000000000000000000, -1.092739197465704700E-015 ) ) ;
#228 = CARTESIAN_POINT ( 'NONE',  ( 3.150000000000000400, -10.29999999999999900, -10.30000000000000600 ) ) ;
#229 = ORIENTED_EDGE ( 'NONE', *, *, #230, .T. ) ;
#230 = EDGE_CURVE ( 'NONE', #12, #12, #44, .T. ) ;
#231 = APPROVAL_DATE_TIME ( #219, #197 ) ;
#232 = COORDINATED_UNIVERSAL_TIME_OFFSET ( 5, 0, .BEHIND. ) ;
#233 = ADVANCED_FACE ( 'NONE', ( #200, #220 ), #43, .T. ) ;
#234 = CIRCLE ( 'NONE', #223, 3.150000000000000400 ) ;
#235 = TOROIDAL_SURFACE ( 'NONE', #22, 6.299999999999999800, 2.575000000000000600 ) ;
#236 = CC_DESIGN_PERSON_AND_ORGANIZATION_ASSIGNMENT ( #113, #2, ( #186 ) ) ;
#237 = AXIS2_PLACEMENT_3D ( 'NONE', #37, #150, #98 ) ;
#238 = DATE_AND_TIME ( #138, #67 ) ;
#239 = CALENDAR_DATE ( 2017, 27, 7 ) ;
#240 = DIRECTION ( 'NONE',  ( 0.0000000000000000000, 1.000000000000000000, 2.832769448823989800E-016 ) ) ;
#241 = CARTESIAN_POINT ( 'NONE',  ( 3.150000000000000400, 0.0000000000000000000, -4.000000000000000900 ) ) ;
#242 = PERSON_AND_ORGANIZATION ( #158, #69 ) ;
#243 = CARTESIAN_POINT ( 'NONE',  ( 0.0000000000000000000, -6.299999999999998000, -10.30000000000000100 ) ) ;
#244 = DIRECTION ( 'NONE',  ( -0.0000000000000000000, 1.000000000000000000, 2.832769448823989800E-016 ) ) ;
#245 =( LENGTH_UNIT ( ) NAMED_UNIT ( * ) SI_UNIT ( $, .METRE. ) );
#246 = FACE_OUTER_BOUND ( 'NONE', #23, .T. ) ;
#247 = CC_DESIGN_PERSON_AND_ORGANIZATION_ASSIGNMENT ( #182, #92, ( #94 ) ) ;
#248 = AXIS2_PLACEMENT_3D ( 'NONE', #146, #80, #30 ) ;
#249 = SHAPE_DEFINITION_REPRESENTATION ( #222, #169 ) ;
#250 = AXIS2_PLACEMENT_3D ( 'NONE', #24, #107, #100 ) ;
#251 = DIRECTION ( 'NONE',  ( 0.0000000000000000000, 0.0000000000000000000, 1.000000000000000000 ) ) ;
#252 = FACE_OUTER_BOUND ( 'NONE', #72, .T. ) ;
ENDSEC;
END-ISO-10303-21;
