ISO-10303-21;
HEADER;
FILE_DESCRIPTION (( 'STEP AP203' ),
    '1' );
FILE_NAME ('581229131.STEP',
    '2017-07-31T14:41:21',
    ( '' ),
    ( '' ),
    'SwSTEP 2.0',
    'SolidWorks 2017',
    '' );
FILE_SCHEMA (( 'CONFIG_CONTROL_DESIGN' ));
ENDSEC;

DATA;
#1 = AXIS2_PLACEMENT_3D ( 'NONE', #168, #61, #108 ) ;
#2 = APPROVAL ( #165, 'UNSPECIFIED' ) ;
#3 = FACE_OUTER_BOUND ( 'NONE', #150, .T. ) ;
#4 = AXIS2_PLACEMENT_3D ( 'NONE', #219, #105, #232 ) ;
#5 = CALENDAR_DATE ( 2017, 31, 7 ) ;
#6 = CARTESIAN_POINT ( 'NONE',  ( 1.732283464566929200, 0.0000000000000000000, 0.0000000000000000000 ) ) ;
#7 = EDGE_CURVE ( 'NONE', #45, #45, #173, .T. ) ;
#8 = DIRECTION ( 'NONE',  ( -1.000000000000000000, -0.0000000000000000000, 0.0000000000000000000 ) ) ;
#9 = DIRECTION ( 'NONE',  ( 0.0000000000000000000, 0.0000000000000000000, -1.000000000000000000 ) ) ;
#10 =( LENGTH_UNIT ( ) NAMED_UNIT ( * ) SI_UNIT ( $, .METRE. ) );
#11 = CARTESIAN_POINT ( 'NONE',  ( 2.086614173228346300, 0.4921259842519686300, -1.205321214392102100E-016 ) ) ;
#12 = DIRECTION ( 'NONE',  ( 1.000000000000000000, 0.0000000000000000000, 0.0000000000000000000 ) ) ;
#13 = EDGE_CURVE ( 'NONE', #19, #19, #237, .T. ) ;
#14 = CIRCLE ( 'NONE', #1, 0.3740157480314961200 ) ;
#15 = DIRECTION ( 'NONE',  ( 0.0000000000000000000, 0.0000000000000000000, 1.000000000000000000 ) ) ;
#16 = LOCAL_TIME ( 10, 41, 21.00000000000000000, #147 ) ;
#17 = CC_DESIGN_PERSON_AND_ORGANIZATION_ASSIGNMENT ( #198, #228, ( #64 ) ) ;
#18 = CARTESIAN_POINT ( 'NONE',  ( 1.732283464566929200, 0.0000000000000000000, -0.5118110236220473300 ) ) ;
#19 = VERTEX_POINT ( 'NONE', #20 ) ;
#20 = CARTESIAN_POINT ( 'NONE',  ( 3.622047244094488400, 0.0000000000000000000, -0.3740157480314960600 ) ) ;
#21 = AXIS2_PLACEMENT_3D ( 'NONE', #188, #73, #247 ) ;
#22 = DATE_AND_TIME ( #56, #252 ) ;
#23 = FACE_BOUND ( 'NONE', #184, .T. ) ;
#24 = DIRECTION ( 'NONE',  ( 1.000000000000000000, 0.0000000000000000000, 0.0000000000000000000 ) ) ;
#25 = APPLICATION_PROTOCOL_DEFINITION ( 'international standard', 'config_control_design', 1994, #39 ) ;
#26 = EDGE_CURVE ( 'NONE', #107, #107, #208, .T. ) ;
#27 = FACE_OUTER_BOUND ( 'NONE', #227, .T. ) ;
#28 = APPROVAL_ROLE ( '' ) ;
#29 = FACE_OUTER_BOUND ( 'NONE', #78, .T. ) ;
#30 = FACE_OUTER_BOUND ( 'NONE', #242, .T. ) ;
#31 = CC_DESIGN_PERSON_AND_ORGANIZATION_ASSIGNMENT ( #117, #80, ( #175 ) ) ;
#32 = DATE_AND_TIME ( #148, #16 ) ;
#33 = ADVANCED_FACE ( 'NONE', ( #139, #162 ), #93, .T. ) ;
#34 = AXIS2_PLACEMENT_3D ( 'NONE', #218, #243, #15 ) ;
#35 = LENGTH_MEASURE_WITH_UNIT ( LENGTH_MEASURE( 0.02539999999999999900 ), #10 );
#36 = APPLICATION_CONTEXT ( 'configuration controlled 3d designs of mechanical parts and assemblies' ) ;
#37 = ORIENTED_EDGE ( 'NONE', *, *, #160, .F. ) ;
#38 = CC_DESIGN_PERSON_AND_ORGANIZATION_ASSIGNMENT ( #140, #235, ( #209 ) ) ;
#39 = APPLICATION_CONTEXT ( 'configuration controlled 3d designs of mechanical parts and assemblies' ) ;
#40 = CARTESIAN_POINT ( 'NONE',  ( 0.0000000000000000000, 0.0000000000000000000, 0.0000000000000000000 ) ) ;
#41 = COORDINATED_UNIVERSAL_TIME_OFFSET ( 5, 0, .BEHIND. ) ;
#42 = DIRECTION ( 'NONE',  ( -1.000000000000000000, -0.0000000000000000000, -0.0000000000000000000 ) ) ;
#43 = APPROVAL_DATE_TIME ( #157, #251 ) ;
#44 = AXIS2_PLACEMENT_3D ( 'NONE', #231, #100, #156 ) ;
#45 = VERTEX_POINT ( 'NONE', #104 ) ;
#46 = CIRCLE ( 'NONE', #21, 0.4921259842519686300 ) ;
#47 = CC_DESIGN_APPROVAL ( #251, ( #209 ) ) ;
#48 = CYLINDRICAL_SURFACE ( 'NONE', #146, 0.6299212598425196800 ) ;
#49 = DIRECTION ( 'NONE',  ( 1.000000000000000000, 0.0000000000000000000, 0.0000000000000000000 ) ) ;
#50 = ADVANCED_FACE ( 'NONE', ( #121, #236 ), #114, .F. ) ;
#51 = FACE_OUTER_BOUND ( 'NONE', #57, .T. ) ;
#52 = ADVANCED_FACE ( 'NONE', ( #3, #99 ), #158, .F. ) ;
#53 = VERTEX_POINT ( 'NONE', #249 ) ;
#54 = CC_DESIGN_DATE_AND_TIME_ASSIGNMENT ( #74, #55, ( #204 ) ) ;
#55 = DATE_TIME_ROLE ( 'creation_date' ) ;
#56 = CALENDAR_DATE ( 2017, 31, 7 ) ;
#57 = EDGE_LOOP ( 'NONE', ( #144 ) ) ;
#58 = AXIS2_PLACEMENT_3D ( 'NONE', #185, #220, #9 ) ;
#59 = DIRECTION ( 'NONE',  ( 0.0000000000000000000, 0.0000000000000000000, -1.000000000000000000 ) ) ;
#60 = AXIS2_PLACEMENT_3D ( 'NONE', #246, #8, #102 ) ;
#61 = DIRECTION ( 'NONE',  ( -1.000000000000000000, 0.0000000000000000000, 0.0000000000000000000 ) ) ;
#62 = PERSON_AND_ORGANIZATION ( #81, #215 ) ;
#63 = AXIS2_PLACEMENT_3D ( 'NONE', #143, #85, #224 ) ;
#64 = SECURITY_CLASSIFICATION ( '', '', #225 ) ;
#65 = UNCERTAINTY_MEASURE_WITH_UNIT (LENGTH_MEASURE( 1.000000000000000100E-005 ), #182, 'distance_accuracy_value', 'NONE');
#66 = CC_DESIGN_PERSON_AND_ORGANIZATION_ASSIGNMENT ( #210, #197, ( #204 ) ) ;
#67 = CIRCLE ( 'NONE', #115, 0.5118110236220473300 ) ;
#68 = CC_DESIGN_PERSON_AND_ORGANIZATION_ASSIGNMENT ( #186, #170, ( #209 ) ) ;
#69 = VERTEX_POINT ( 'NONE', #79 ) ;
#70 = CARTESIAN_POINT ( 'NONE',  ( 3.622047244094488400, 0.4330708661417322900, -1.060682668665051200E-016 ) ) ;
#71 = APPROVAL_ROLE ( '' ) ;
#72 = SHAPE_DEFINITION_REPRESENTATION ( #212, #172 ) ;
#73 = DIRECTION ( 'NONE',  ( -1.000000000000000000, 0.0000000000000000000, 0.0000000000000000000 ) ) ;
#74 = DATE_AND_TIME ( #113, #120 ) ;
#75 = PRODUCT_RELATED_PRODUCT_CATEGORY ( 'detail', '', ( #175 ) ) ;
#76 = EDGE_LOOP ( 'NONE', ( #205 ) ) ;
#77 = COORDINATED_UNIVERSAL_TIME_OFFSET ( 5, 0, .BEHIND. ) ;
#78 = EDGE_LOOP ( 'NONE', ( #201 ) ) ;
#79 = CARTESIAN_POINT ( 'NONE',  ( 1.732283464566929200, 0.0000000000000000000, -0.6299212598425196800 ) ) ;
#80 = PERSON_AND_ORGANIZATION_ROLE ( 'design_owner' ) ;
#81 = PERSON ( 'UNSPECIFIED', 'UNSPECIFIED', 'UNSPECIFIED', ('UNSPECIFIED'), ('UNSPECIFIED'), ('UNSPECIFIED') ) ;
#82 = FACE_OUTER_BOUND ( 'NONE', #111, .T. ) ;
#83 = AXIS2_PLACEMENT_3D ( 'NONE', #86, #134, #112 ) ;
#84 = APPROVAL_STATUS ( 'not_yet_approved' ) ;
#85 = DIRECTION ( 'NONE',  ( 1.000000000000000000, 0.0000000000000000000, 0.0000000000000000000 ) ) ;
#86 = CARTESIAN_POINT ( 'NONE',  ( 3.622047244094488400, 0.0000000000000000000, 0.0000000000000000000 ) ) ;
#87 = DATE_AND_TIME ( #151, #222 ) ;
#88 = CIRCLE ( 'NONE', #4, 0.6299212598425196800 ) ;
#89 = CARTESIAN_POINT ( 'NONE',  ( 0.0000000000000000000, 0.5708661417322835600, -1.398172608694842600E-016 ) ) ;
#90 = CARTESIAN_POINT ( 'NONE',  ( 0.0000000000000000000, 0.0000000000000000000, 0.0000000000000000000 ) ) ;
#91 = COORDINATED_UNIVERSAL_TIME_OFFSET ( 5, 0, .BEHIND. ) ;
#92 = APPROVAL ( #94, 'UNSPECIFIED' ) ;
#93 = CONICAL_SURFACE ( 'NONE', #60, 0.6299212598425196800, 0.3708912888126621500 ) ;
#94 = APPROVAL_STATUS ( 'not_yet_approved' ) ;
#95 = CC_DESIGN_APPROVAL ( #92, ( #204 ) ) ;
#96 = ORIENTED_EDGE ( 'NONE', *, *, #7, .T. ) ;
#97 = ADVANCED_FACE ( 'NONE', ( #142, #51 ), #203, .T. ) ;
#98 = PERSON_AND_ORGANIZATION ( #81, #215 ) ;
#99 = FACE_OUTER_BOUND ( 'NONE', #127, .T. ) ;
#100 = DIRECTION ( 'NONE',  ( -1.000000000000000000, -0.0000000000000000000, -0.0000000000000000000 ) ) ;
#101 = MANIFOLD_SOLID_BREP ( '1', #149 ) ;
#102 = DIRECTION ( 'NONE',  ( 0.0000000000000000000, 0.0000000000000000000, 1.000000000000000000 ) ) ;
#103 = CARTESIAN_POINT ( 'NONE',  ( 2.854330708661417100, 0.0000000000000000000, 0.0000000000000000000 ) ) ;
#104 = CARTESIAN_POINT ( 'NONE',  ( 0.0000000000000000000, 0.0000000000000000000, -0.6299212598425196800 ) ) ;
#105 = DIRECTION ( 'NONE',  ( -1.000000000000000000, -0.0000000000000000000, -0.0000000000000000000 ) ) ;
#106 = EDGE_CURVE ( 'NONE', #118, #118, #136, .T. ) ;
#107 = VERTEX_POINT ( 'NONE', #229 ) ;
#108 = DIRECTION ( 'NONE',  ( 0.0000000000000000000, 1.000000000000000000, -2.449212707644750100E-016 ) ) ;
#109 = DIRECTION ( 'NONE',  ( 1.000000000000000000, 0.0000000000000000000, 0.0000000000000000000 ) ) ;
#110 = DIRECTION ( 'NONE',  ( 0.0000000000000000000, 0.0000000000000000000, -1.000000000000000000 ) ) ;
#111 = EDGE_LOOP ( 'NONE', ( #200 ) ) ;
#112 = DIRECTION ( 'NONE',  ( 0.0000000000000000000, 0.0000000000000000000, -1.000000000000000000 ) ) ;
#113 = CALENDAR_DATE ( 2017, 31, 7 ) ;
#114 = CONICAL_SURFACE ( 'NONE', #34, 0.5118110236220473300, 0.3708912888126623100 ) ;
#115 = AXIS2_PLACEMENT_3D ( 'NONE', #40, #238, #59 ) ;
#116 = DIRECTION ( 'NONE',  ( 1.000000000000000000, 0.0000000000000000000, 0.0000000000000000000 ) ) ;
#117 = PERSON_AND_ORGANIZATION ( #81, #215 ) ;
#118 = VERTEX_POINT ( 'NONE', #18 ) ;
#119 = MECHANICAL_CONTEXT ( 'NONE', #36, 'mechanical' ) ;
#120 = LOCAL_TIME ( 10, 41, 21.00000000000000000, #41 ) ;
#121 = FACE_BOUND ( 'NONE', #164, .T. ) ;
#122 = AXIS2_PLACEMENT_3D ( 'NONE', #89, #180, #195 ) ;
#123 = ADVANCED_FACE ( 'NONE', ( #240, #23 ), #187, .T. ) ;
#124 = AXIS2_PLACEMENT_3D ( 'NONE', #70, #24, #110 ) ;
#125 = EDGE_CURVE ( 'NONE', #189, #189, #14, .T. ) ;
#126 = EDGE_LOOP ( 'NONE', ( #161 ) ) ;
#127 = EDGE_LOOP ( 'NONE', ( #223 ) ) ;
#128 = CARTESIAN_POINT ( 'NONE',  ( 2.854330708661417100, 0.0000000000000000000, 0.0000000000000000000 ) ) ;
#129 = ORIENTED_EDGE ( 'NONE', *, *, #125, .F. ) ;
#130 = PERSON_AND_ORGANIZATION ( #81, #215 ) ;
#131 = FACE_OUTER_BOUND ( 'NONE', #250, .T. ) ;
#132 = EDGE_LOOP ( 'NONE', ( #178 ) ) ;
#133 = EDGE_CURVE ( 'NONE', #245, #245, #46, .T. ) ;
#134 = DIRECTION ( 'NONE',  ( -1.000000000000000000, -0.0000000000000000000, -0.0000000000000000000 ) ) ;
#135 = APPROVAL_DATE_TIME ( #32, #2 ) ;
#136 = CIRCLE ( 'NONE', #193, 0.5118110236220473300 ) ;
#137 = EDGE_CURVE ( 'NONE', #69, #69, #88, .T. ) ;
#138 = APPLICATION_PROTOCOL_DEFINITION ( 'international standard', 'config_control_design', 1994, #36 ) ;
#139 = FACE_BOUND ( 'NONE', #141, .T. ) ;
#140 = PERSON_AND_ORGANIZATION ( #81, #215 ) ;
#141 = EDGE_LOOP ( 'NONE', ( #154 ) ) ;
#142 = FACE_BOUND ( 'NONE', #213, .T. ) ;
#143 = CARTESIAN_POINT ( 'NONE',  ( 0.8661417322834645800, 0.0000000000000000000, 0.0000000000000000000 ) ) ;
#144 = ORIENTED_EDGE ( 'NONE', *, *, #26, .F. ) ;
#145 = CC_DESIGN_APPROVAL ( #2, ( #64 ) ) ;
#146 = AXIS2_PLACEMENT_3D ( 'NONE', #233, #49, #217 ) ;
#147 = COORDINATED_UNIVERSAL_TIME_OFFSET ( 5, 0, .BEHIND. ) ;
#148 = CALENDAR_DATE ( 2017, 31, 7 ) ;
#149 = CLOSED_SHELL ( 'NONE', ( #230, #123, #33, #216, #202, #50, #97, #52 ) ) ;
#150 = EDGE_LOOP ( 'NONE', ( #169 ) ) ;
#151 = CALENDAR_DATE ( 2017, 31, 7 ) ;
#152 =( NAMED_UNIT ( * ) SI_UNIT ( $, .STERADIAN. ) SOLID_ANGLE_UNIT ( ) );
#153 = CC_DESIGN_SECURITY_CLASSIFICATION ( #64, ( #209 ) ) ;
#154 = ORIENTED_EDGE ( 'NONE', *, *, #133, .T. ) ;
#155 = DATE_TIME_ROLE ( 'classification_date' ) ;
#156 = DIRECTION ( 'NONE',  ( 0.0000000000000000000, 0.0000000000000000000, -1.000000000000000000 ) ) ;
#157 = DATE_AND_TIME ( #5, #214 ) ;
#158 = CYLINDRICAL_SURFACE ( 'NONE', #163, 0.3740157480314960600 ) ;
#159 = CYLINDRICAL_SURFACE ( 'NONE', #166, 0.4921259842519685200 ) ;
#160 = EDGE_CURVE ( 'NONE', #53, #53, #67, .T. ) ;
#161 = ORIENTED_EDGE ( 'NONE', *, *, #7, .F. ) ;
#162 = FACE_OUTER_BOUND ( 'NONE', #132, .T. ) ;
#163 = AXIS2_PLACEMENT_3D ( 'NONE', #128, #116, #248 ) ;
#164 = EDGE_LOOP ( 'NONE', ( #129 ) ) ;
#165 = APPROVAL_STATUS ( 'not_yet_approved' ) ;
#166 = AXIS2_PLACEMENT_3D ( 'NONE', #103, #12, #181 ) ;
#167 =( NAMED_UNIT ( * ) PLANE_ANGLE_UNIT ( ) SI_UNIT ( $, .RADIAN. ) );
#168 = CARTESIAN_POINT ( 'NONE',  ( 2.086614173228346300, 0.0000000000000000000, 0.0000000000000000000 ) ) ;
#169 = ORIENTED_EDGE ( 'NONE', *, *, #13, .F. ) ;
#170 = PERSON_AND_ORGANIZATION_ROLE ( 'creator' ) ;
#171 =( GEOMETRIC_REPRESENTATION_CONTEXT ( 3 ) GLOBAL_UNCERTAINTY_ASSIGNED_CONTEXT ( ( #65 ) ) GLOBAL_UNIT_ASSIGNED_CONTEXT ( ( #182, #167, #152 ) ) REPRESENTATION_CONTEXT ( 'NONE', 'WORKASPACE' ) );
#172 = ADVANCED_BREP_SHAPE_REPRESENTATION ( '581229131', ( #101, #199 ), #171 ) ;
#173 = CIRCLE ( 'NONE', #58, 0.6299212598425196800 ) ;
#174 = DIMENSIONAL_EXPONENTS ( 1.000000000000000000, 0.0000000000000000000, 0.0000000000000000000, 0.0000000000000000000, 0.0000000000000000000, 0.0000000000000000000, 0.0000000000000000000 ) ;
#175 = PRODUCT ( '581229131', '581229131', '', ( #119 ) ) ;
#176 = ORIENTED_EDGE ( 'NONE', *, *, #106, .T. ) ;
#177 = DIRECTION ( 'NONE',  ( 0.0000000000000000000, 0.0000000000000000000, -1.000000000000000000 ) ) ;
#178 = ORIENTED_EDGE ( 'NONE', *, *, #137, .F. ) ;
#179 = EDGE_LOOP ( 'NONE', ( #176 ) ) ;
#180 = DIRECTION ( 'NONE',  ( -1.000000000000000000, 0.0000000000000000000, 0.0000000000000000000 ) ) ;
#181 = DIRECTION ( 'NONE',  ( 0.0000000000000000000, 0.0000000000000000000, -1.000000000000000000 ) ) ;
#182 =( CONVERSION_BASED_UNIT ( 'INCH', #35 ) LENGTH_UNIT ( ) NAMED_UNIT ( #174 ) );
#183 = ORIENTED_EDGE ( 'NONE', *, *, #13, .T. ) ;
#184 = EDGE_LOOP ( 'NONE', ( #206 ) ) ;
#185 = CARTESIAN_POINT ( 'NONE',  ( 0.0000000000000000000, 0.0000000000000000000, 0.0000000000000000000 ) ) ;
#186 = PERSON_AND_ORGANIZATION ( #81, #215 ) ;
#187 = PLANE ( 'NONE',  #122 ) ;
#188 = CARTESIAN_POINT ( 'NONE',  ( 2.086614173228346300, 0.0000000000000000000, 0.0000000000000000000 ) ) ;
#189 = VERTEX_POINT ( 'NONE', #241 ) ;
#190 = APPROVAL_PERSON_ORGANIZATION ( #98, #251, #28 ) ;
#191 = FACE_OUTER_BOUND ( 'NONE', #76, .T. ) ;
#192 = DESIGN_CONTEXT ( 'detailed design', #39, 'design' ) ;
#193 = AXIS2_PLACEMENT_3D ( 'NONE', #6, #42, #177 ) ;
#194 = APPROVAL_ROLE ( '' ) ;
#195 = DIRECTION ( 'NONE',  ( 0.0000000000000000000, 0.0000000000000000000, 1.000000000000000000 ) ) ;
#196 = CYLINDRICAL_SURFACE ( 'NONE', #63, 0.5118110236220473300 ) ;
#197 = PERSON_AND_ORGANIZATION_ROLE ( 'creator' ) ;
#198 = PERSON_AND_ORGANIZATION ( #81, #215 ) ;
#199 = AXIS2_PLACEMENT_3D ( 'NONE', #90, #226, #109 ) ;
#200 = ORIENTED_EDGE ( 'NONE', *, *, #133, .F. ) ;
#201 = ORIENTED_EDGE ( 'NONE', *, *, #106, .F. ) ;
#202 = ADVANCED_FACE ( 'NONE', ( #191, #82 ), #159, .T. ) ;
#203 = PLANE ( 'NONE',  #124 ) ;
#204 = PRODUCT_DEFINITION ( 'UNKNOWN', '', #209, #192 ) ;
#205 = ORIENTED_EDGE ( 'NONE', *, *, #26, .T. ) ;
#206 = ORIENTED_EDGE ( 'NONE', *, *, #160, .T. ) ;
#207 = COORDINATED_UNIVERSAL_TIME_OFFSET ( 5, 0, .BEHIND. ) ;
#208 = CIRCLE ( 'NONE', #44, 0.4921259842519685200 ) ;
#209 = PRODUCT_DEFINITION_FORMATION_WITH_SPECIFIED_SOURCE ( 'ANY', '', #175, .NOT_KNOWN. ) ;
#210 = PERSON_AND_ORGANIZATION ( #81, #215 ) ;
#211 = CC_DESIGN_DATE_AND_TIME_ASSIGNMENT ( #87, #155, ( #64 ) ) ;
#212 = PRODUCT_DEFINITION_SHAPE ( 'NONE', 'NONE',  #204 ) ;
#213 = EDGE_LOOP ( 'NONE', ( #183 ) ) ;
#214 = LOCAL_TIME ( 10, 41, 21.00000000000000000, #91 ) ;
#215 = ORGANIZATION ( 'UNSPECIFIED', 'UNSPECIFIED', '' ) ;
#216 = ADVANCED_FACE ( 'NONE', ( #29, #30 ), #196, .F. ) ;
#217 = DIRECTION ( 'NONE',  ( 0.0000000000000000000, 0.0000000000000000000, -1.000000000000000000 ) ) ;
#218 = CARTESIAN_POINT ( 'NONE',  ( 1.732283464566929200, 0.0000000000000000000, 0.0000000000000000000 ) ) ;
#219 = CARTESIAN_POINT ( 'NONE',  ( 1.732283464566929200, 0.0000000000000000000, 0.0000000000000000000 ) ) ;
#220 = DIRECTION ( 'NONE',  ( 1.000000000000000000, 0.0000000000000000000, 0.0000000000000000000 ) ) ;
#221 = APPROVAL_DATE_TIME ( #22, #92 ) ;
#222 = LOCAL_TIME ( 10, 41, 21.00000000000000000, #207 ) ;
#223 = ORIENTED_EDGE ( 'NONE', *, *, #125, .T. ) ;
#224 = DIRECTION ( 'NONE',  ( 0.0000000000000000000, 0.0000000000000000000, -1.000000000000000000 ) ) ;
#225 = SECURITY_CLASSIFICATION_LEVEL ( 'unclassified' ) ;
#226 = DIRECTION ( 'NONE',  ( 0.0000000000000000000, 0.0000000000000000000, 1.000000000000000000 ) ) ;
#227 = EDGE_LOOP ( 'NONE', ( #96 ) ) ;
#228 = PERSON_AND_ORGANIZATION_ROLE ( 'classification_officer' ) ;
#229 = CARTESIAN_POINT ( 'NONE',  ( 3.622047244094488400, 0.0000000000000000000, -0.4921259842519685200 ) ) ;
#230 = ADVANCED_FACE ( 'NONE', ( #131, #27 ), #48, .T. ) ;
#231 = CARTESIAN_POINT ( 'NONE',  ( 3.622047244094488400, 0.0000000000000000000, 0.0000000000000000000 ) ) ;
#232 = DIRECTION ( 'NONE',  ( 0.0000000000000000000, 0.0000000000000000000, -1.000000000000000000 ) ) ;
#233 = CARTESIAN_POINT ( 'NONE',  ( 0.8661417322834645800, 0.0000000000000000000, 0.0000000000000000000 ) ) ;
#234 = APPROVAL_PERSON_ORGANIZATION ( #62, #92, #194 ) ;
#235 = PERSON_AND_ORGANIZATION_ROLE ( 'design_supplier' ) ;
#236 = FACE_OUTER_BOUND ( 'NONE', #179, .T. ) ;
#237 = CIRCLE ( 'NONE', #83, 0.3740157480314960600 ) ;
#238 = DIRECTION ( 'NONE',  ( 1.000000000000000000, 0.0000000000000000000, 0.0000000000000000000 ) ) ;
#239 = APPROVAL_PERSON_ORGANIZATION ( #130, #2, #71 ) ;
#240 = FACE_OUTER_BOUND ( 'NONE', #126, .T. ) ;
#241 = CARTESIAN_POINT ( 'NONE',  ( 2.086614173228346300, 0.3740157480314961200, -9.160441229379972800E-017 ) ) ;
#242 = EDGE_LOOP ( 'NONE', ( #37 ) ) ;
#243 = DIRECTION ( 'NONE',  ( -1.000000000000000000, -0.0000000000000000000, 0.0000000000000000000 ) ) ;
#244 = ORIENTED_EDGE ( 'NONE', *, *, #137, .T. ) ;
#245 = VERTEX_POINT ( 'NONE', #11 ) ;
#246 = CARTESIAN_POINT ( 'NONE',  ( 1.732283464566929200, 0.0000000000000000000, 0.0000000000000000000 ) ) ;
#247 = DIRECTION ( 'NONE',  ( 0.0000000000000000000, 1.000000000000000000, -2.449212707644750600E-016 ) ) ;
#248 = DIRECTION ( 'NONE',  ( 0.0000000000000000000, 0.0000000000000000000, -1.000000000000000000 ) ) ;
#249 = CARTESIAN_POINT ( 'NONE',  ( 0.0000000000000000000, 0.0000000000000000000, -0.5118110236220473300 ) ) ;
#250 = EDGE_LOOP ( 'NONE', ( #244 ) ) ;
#251 = APPROVAL ( #84, 'UNSPECIFIED' ) ;
#252 = LOCAL_TIME ( 10, 41, 21.00000000000000000, #77 ) ;
ENDSEC;
END-ISO-10303-21;
