ISO-10303-21;
HEADER;
FILE_DESCRIPTION (( 'STEP AP203' ),
    '1' );
FILE_NAME ('581229210.STEP',
    '2017-07-31T14:45:12',
    ( '' ),
    ( '' ),
    'SwSTEP 2.0',
    'SolidWorks 2017',
    '' );
FILE_SCHEMA (( 'CONFIG_CONTROL_DESIGN' ));
ENDSEC;

DATA;
#1 = AXIS2_PLACEMENT_3D ( 'NONE', #2, #84, #81 ) ;
#2 = CARTESIAN_POINT ( 'NONE',  ( 0.0000000000000000000, -1.398706172756102700E-016, 9.114005725986209600E-049 ) ) ;
#3 = CARTESIAN_POINT ( 'NONE',  ( 4.645669291338583300, -1.516480271171051900E-032, 9.709784634691617000E-049 ) ) ;
#4 = PRODUCT_DEFINITION_SHAPE ( 'NONE', 'NONE',  #106 ) ;
#5 = CARTESIAN_POINT ( 'NONE',  ( 4.645669291338583300, 0.3740157480314960600, 8.405284482939448900E-049 ) ) ;
#6 = ORIENTED_EDGE ( 'NONE', *, *, #196, .T. ) ;
#7 = DIRECTION ( 'NONE',  ( 1.000000000000000000, 1.806055986433000100E-048, 7.374026685374179300E-033 ) ) ;
#8 = EDGE_LOOP ( 'NONE', ( #176 ) ) ;
#9 = DIRECTION ( 'NONE',  ( 0.0000000000000000000, 1.000000000000000000, 0.0000000000000000000 ) ) ;
#10 = DATE_TIME_ROLE ( 'creation_date' ) ;
#11 = DIRECTION ( 'NONE',  ( 1.000000000000000000, 3.010774304068219900E-017, -8.418027106910899500E-049 ) ) ;
#12 = CARTESIAN_POINT ( 'NONE',  ( 2.913385826771653700, -5.215514542480390100E-017, 0.0000000000000000000 ) ) ;
#13 = PERSON_AND_ORGANIZATION ( #146, #56 ) ;
#14 = CARTESIAN_POINT ( 'NONE',  ( 3.779527559055118500, -2.607757271240192900E-017, 0.0000000000000000000 ) ) ;
#15 =( NAMED_UNIT ( * ) SI_UNIT ( $, .STERADIAN. ) SOLID_ANGLE_UNIT ( ) );
#16 = EDGE_LOOP ( 'NONE', ( #252 ) ) ;
#17 = EDGE_LOOP ( 'NONE', ( #242 ) ) ;
#18 = ORIENTED_EDGE ( 'NONE', *, *, #183, .T. ) ;
#19 = ADVANCED_FACE ( 'NONE', ( #51, #39 ), #201, .T. ) ;
#20 = AXIS2_PLACEMENT_3D ( 'NONE', #237, #186, #26 ) ;
#21 =( GEOMETRIC_REPRESENTATION_CONTEXT ( 3 ) GLOBAL_UNCERTAINTY_ASSIGNED_CONTEXT ( ( #62 ) ) GLOBAL_UNIT_ASSIGNED_CONTEXT ( ( #225, #235, #15 ) ) REPRESENTATION_CONTEXT ( 'NONE', 'WORKASPACE' ) );
#22 = DIRECTION ( 'NONE',  ( -1.000000000000000000, -3.010774304068219900E-017, -0.0000000000000000000 ) ) ;
#23 = PERSON_AND_ORGANIZATION ( #146, #56 ) ;
#24 = DIRECTION ( 'NONE',  ( 0.0000000000000000000, 1.000000000000000000, -2.449212707644749600E-016 ) ) ;
#25 = FACE_OUTER_BOUND ( 'NONE', #8, .T. ) ;
#26 = DIRECTION ( 'NONE',  ( 0.0000000000000000000, 1.000000000000000000, -2.449212707644750100E-016 ) ) ;
#27 = DIRECTION ( 'NONE',  ( -1.000000000000000000, -3.010774304068219900E-017, -1.121038771459850100E-048 ) ) ;
#28 = DIRECTION ( 'NONE',  ( 7.374026685374179300E-033, 0.0000000000000000000, -1.000000000000000000 ) ) ;
#29 = EDGE_CURVE ( 'NONE', #125, #125, #159, .T. ) ;
#30 = DIRECTION ( 'NONE',  ( 0.0000000000000000000, 1.000000000000000000, 0.0000000000000000000 ) ) ;
#31 = EDGE_LOOP ( 'NONE', ( #59 ) ) ;
#32 = AXIS2_PLACEMENT_3D ( 'NONE', #153, #184, #9 ) ;
#33 = VERTEX_POINT ( 'NONE', #64 ) ;
#34 = DIRECTION ( 'NONE',  ( -1.000000000000000000, -0.0000000000000000000, 0.0000000000000000000 ) ) ;
#35 = APPLICATION_PROTOCOL_DEFINITION ( 'international standard', 'config_control_design', 1994, #142 ) ;
#36 = AXIS2_PLACEMENT_3D ( 'NONE', #199, #198, #246 ) ;
#37 = APPROVAL_ROLE ( '' ) ;
#38 = MECHANICAL_CONTEXT ( 'NONE', #142, 'mechanical' ) ;
#39 = FACE_OUTER_BOUND ( 'NONE', #251, .T. ) ;
#40 = ORIENTED_EDGE ( 'NONE', *, *, #158, .T. ) ;
#41 = CIRCLE ( 'NONE', #83, 0.4921259842519685200 ) ;
#42 = ORIENTED_EDGE ( 'NONE', *, *, #172, .F. ) ;
#43 = AXIS2_PLACEMENT_3D ( 'NONE', #104, #34, #161 ) ;
#44 = FACE_BOUND ( 'NONE', #112, .T. ) ;
#45 = EDGE_CURVE ( 'NONE', #71, #71, #189, .T. ) ;
#46 = CALENDAR_DATE ( 2017, 31, 7 ) ;
#47 = ADVANCED_FACE ( 'NONE', ( #178, #63 ), #180, .T. ) ;
#48 = AXIS2_PLACEMENT_3D ( 'NONE', #163, #7, #28 ) ;
#49 = COORDINATED_UNIVERSAL_TIME_OFFSET ( 5, 0, .BEHIND. ) ;
#50 = CYLINDRICAL_SURFACE ( 'NONE', #204, 0.8031496062992125000 ) ;
#51 = FACE_BOUND ( 'NONE', #105, .T. ) ;
#52 = FACE_OUTER_BOUND ( 'NONE', #110, .T. ) ;
#53 = PERSON_AND_ORGANIZATION ( #146, #56 ) ;
#54 = CC_DESIGN_PERSON_AND_ORGANIZATION_ASSIGNMENT ( #53, #230, ( #156 ) ) ;
#55 = CALENDAR_DATE ( 2017, 31, 7 ) ;
#56 = ORGANIZATION ( 'UNSPECIFIED', 'UNSPECIFIED', '' ) ;
#57 = AXIS2_PLACEMENT_3D ( 'NONE', #109, #248, #95 ) ;
#58 = CARTESIAN_POINT ( 'NONE',  ( -2.963360535500216600E-017, 0.9842519685039369200, -1.213723079336451900E-048 ) ) ;
#59 = ORIENTED_EDGE ( 'NONE', *, *, #158, .F. ) ;
#60 =( LENGTH_UNIT ( ) NAMED_UNIT ( * ) SI_UNIT ( $, .METRE. ) );
#61 = DATE_AND_TIME ( #116, #175 ) ;
#62 = UNCERTAINTY_MEASURE_WITH_UNIT (LENGTH_MEASURE( 1.000000000000000100E-005 ), #225, 'distance_accuracy_value', 'NONE');
#63 = FACE_OUTER_BOUND ( 'NONE', #31, .T. ) ;
#64 = CARTESIAN_POINT ( 'NONE',  ( 4.645669291338583300, 0.4921259842519685200, 9.709784634691617000E-049 ) ) ;
#65 = CARTESIAN_POINT ( 'NONE',  ( -2.418102196968176400E-017, 0.8031496062992123900, 9.114005725986209600E-049 ) ) ;
#66 = ADVANCED_FACE ( 'NONE', ( #122, #67 ), #234, .T. ) ;
#67 = FACE_BOUND ( 'NONE', #164, .T. ) ;
#68 = SECURITY_CLASSIFICATION_LEVEL ( 'unclassified' ) ;
#69 = EDGE_LOOP ( 'NONE', ( #77 ) ) ;
#70 = AXIS2_PLACEMENT_3D ( 'NONE', #12, #22, #24 ) ;
#71 = VERTEX_POINT ( 'NONE', #58 ) ;
#72 = DIRECTION ( 'NONE',  ( 0.0000000000000000000, 1.000000000000000000, 0.0000000000000000000 ) ) ;
#73 = FACE_OUTER_BOUND ( 'NONE', #74, .T. ) ;
#74 = EDGE_LOOP ( 'NONE', ( #206 ) ) ;
#75 = CALENDAR_DATE ( 2017, 31, 7 ) ;
#76 = FACE_OUTER_BOUND ( 'NONE', #160, .T. ) ;
#77 = ORIENTED_EDGE ( 'NONE', *, *, #208, .T. ) ;
#78 = COORDINATED_UNIVERSAL_TIME_OFFSET ( 5, 0, .BEHIND. ) ;
#79 = CARTESIAN_POINT ( 'NONE',  ( 1.082677165354330800, -1.072736513851078900E-016, 0.0000000000000000000 ) ) ;
#80 = DIRECTION ( 'NONE',  ( 0.0000000000000000000, 0.0000000000000000000, 1.000000000000000000 ) ) ;
#81 = DIRECTION ( 'NONE',  ( -3.010774304068219900E-017, 1.000000000000000000, 0.0000000000000000000 ) ) ;
#82 = SHAPE_DEFINITION_REPRESENTATION ( #4, #166 ) ;
#83 = AXIS2_PLACEMENT_3D ( 'NONE', #3, #27, #30 ) ;
#84 = DIRECTION ( 'NONE',  ( 1.000000000000000000, 3.010774304068219900E-017, -8.418027106910899500E-049 ) ) ;
#85 = ADVANCED_FACE ( 'NONE', ( #52, #224 ), #193, .T. ) ;
#86 = APPLICATION_PROTOCOL_DEFINITION ( 'international standard', 'config_control_design', 1994, #210 ) ;
#87 = DIRECTION ( 'NONE',  ( 0.0000000000000000000, 1.000000000000000000, 0.0000000000000000000 ) ) ;
#88 = CC_DESIGN_PERSON_AND_ORGANIZATION_ASSIGNMENT ( #89, #135, ( #154 ) ) ;
#89 = PERSON_AND_ORGANIZATION ( #146, #56 ) ;
#90 = FACE_BOUND ( 'NONE', #16, .T. ) ;
#91 = CARTESIAN_POINT ( 'NONE',  ( 1.082677165354330800, -1.072736513851078900E-016, 0.0000000000000000000 ) ) ;
#92 = CIRCLE ( 'NONE', #1, 0.8031496062992125000 ) ;
#93 = DIRECTION ( 'NONE',  ( -1.000000000000000000, 5.777789833161706500E-032, 1.387778780781445700E-016 ) ) ;
#94 = CLOSED_SHELL ( 'NONE', ( #85, #66, #212, #148, #47, #243, #19, #121 ) ) ;
#95 = DIRECTION ( 'NONE',  ( -3.010774304068219900E-017, 1.000000000000000000, 0.0000000000000000000 ) ) ;
#96 = CONICAL_SURFACE ( 'NONE', #43, 0.8031496062992123900, 0.5208448668593417300 ) ;
#97 = CC_DESIGN_DATE_AND_TIME_ASSIGNMENT ( #240, #10, ( #106 ) ) ;
#98 = CARTESIAN_POINT ( 'NONE',  ( 0.0000000000000000000, 0.8937007874015748800, -2.188863325336059300E-016 ) ) ;
#99 = COORDINATED_UNIVERSAL_TIME_OFFSET ( 5, 0, .BEHIND. ) ;
#100 = CC_DESIGN_APPROVAL ( #137, ( #202 ) ) ;
#101 = AXIS2_PLACEMENT_3D ( 'NONE', #98, #107, #171 ) ;
#102 = LOCAL_TIME ( 10, 45, 12.00000000000000000, #111 ) ;
#103 = DIRECTION ( 'NONE',  ( 1.000000000000000000, 3.010774304068219900E-017, 1.121038771459850100E-048 ) ) ;
#104 = CARTESIAN_POINT ( 'NONE',  ( 2.165354330708661600, -6.829619984160658000E-017, 0.0000000000000000000 ) ) ;
#105 = EDGE_LOOP ( 'NONE', ( #118 ) ) ;
#106 = PRODUCT_DEFINITION ( 'UNKNOWN', '', #202, #179 ) ;
#107 = DIRECTION ( 'NONE',  ( -1.000000000000000000, -1.806055986433000100E-048, -7.374026685374179300E-033 ) ) ;
#108 = CARTESIAN_POINT ( 'NONE',  ( 2.165354330708661600, 0.9842519685039369200, 1.213723079336451900E-048 ) ) ;
#109 = CARTESIAN_POINT ( 'NONE',  ( 0.0000000000000000000, -1.398706172756102700E-016, -1.213723079336451900E-048 ) ) ;
#110 = EDGE_LOOP ( 'NONE', ( #6 ) ) ;
#111 = COORDINATED_UNIVERSAL_TIME_OFFSET ( 5, 0, .BEHIND. ) ;
#112 = EDGE_LOOP ( 'NONE', ( #40 ) ) ;
#113 = PERSON_AND_ORGANIZATION ( #146, #56 ) ;
#114 = ORIENTED_EDGE ( 'NONE', *, *, #172, .T. ) ;
#115 = EDGE_LOOP ( 'NONE', ( #127 ) ) ;
#116 = CALENDAR_DATE ( 2017, 31, 7 ) ;
#117 = APPROVAL_ROLE ( '' ) ;
#118 = ORIENTED_EDGE ( 'NONE', *, *, #29, .T. ) ;
#119 = APPROVAL ( #232, 'UNSPECIFIED' ) ;
#120 = APPROVAL_PERSON_ORGANIZATION ( #113, #137, #37 ) ;
#121 = ADVANCED_FACE ( 'NONE', ( #25, #73 ), #247, .F. ) ;
#122 = FACE_OUTER_BOUND ( 'NONE', #130, .T. ) ;
#123 = VERTEX_POINT ( 'NONE', #168 ) ;
#124 = MANIFOLD_SOLID_BREP ( '1', #94 ) ;
#125 = VERTEX_POINT ( 'NONE', #5 ) ;
#126 = FACE_OUTER_BOUND ( 'NONE', #69, .T. ) ;
#127 = ORIENTED_EDGE ( 'NONE', *, *, #183, .F. ) ;
#128 = VERTEX_POINT ( 'NONE', #65 ) ;
#129 = FACE_OUTER_BOUND ( 'NONE', #17, .T. ) ;
#130 = EDGE_LOOP ( 'NONE', ( #150 ) ) ;
#131 = AXIS2_PLACEMENT_3D ( 'NONE', #14, #103, #72 ) ;
#132 = APPROVAL_ROLE ( '' ) ;
#133 = CC_DESIGN_APPROVAL ( #119, ( #106 ) ) ;
#134 = APPROVAL_STATUS ( 'not_yet_approved' ) ;
#135 = PERSON_AND_ORGANIZATION_ROLE ( 'design_owner' ) ;
#136 = VERTEX_POINT ( 'NONE', #108 ) ;
#137 = APPROVAL ( #162, 'UNSPECIFIED' ) ;
#138 = CIRCLE ( 'NONE', #20, 0.4921259842519684100 ) ;
#139 = DATE_TIME_ROLE ( 'classification_date' ) ;
#140 = DIRECTION ( 'NONE',  ( 1.000000000000000000, 0.0000000000000000000, 0.0000000000000000000 ) ) ;
#141 = DATE_AND_TIME ( #182, #145 ) ;
#142 = APPLICATION_CONTEXT ( 'configuration controlled 3d designs of mechanical parts and assemblies' ) ;
#143 = CARTESIAN_POINT ( 'NONE',  ( 3.779527559055118500, -2.607757271240192900E-017, 0.0000000000000000000 ) ) ;
#144 = DIRECTION ( 'NONE',  ( 0.0000000000000000000, 1.000000000000000000, 0.0000000000000000000 ) ) ;
#145 = LOCAL_TIME ( 10, 45, 12.00000000000000000, #49 ) ;
#146 = PERSON ( 'UNSPECIFIED', 'UNSPECIFIED', 'UNSPECIFIED', ('UNSPECIFIED'), ('UNSPECIFIED'), ('UNSPECIFIED') ) ;
#147 = DIRECTION ( 'NONE',  ( 1.000000000000000000, 3.010774304068219900E-017, 9.704282993939179500E-049 ) ) ;
#148 = ADVANCED_FACE ( 'NONE', ( #129, #227 ), #50, .F. ) ;
#149 = DIRECTION ( 'NONE',  ( 0.0000000000000000000, 1.000000000000000000, 0.0000000000000000000 ) ) ;
#150 = ORIENTED_EDGE ( 'NONE', *, *, #45, .F. ) ;
#151 = CIRCLE ( 'NONE', #32, 0.8031496062992125000 ) ;
#152 = DATE_AND_TIME ( #46, #192 ) ;
#153 = CARTESIAN_POINT ( 'NONE',  ( 2.165354330708661600, -7.467668549460550100E-017, -9.114005725986209600E-049 ) ) ;
#154 = PRODUCT ( '581229210', '581229210', '', ( #38 ) ) ;
#155 = DATE_AND_TIME ( #55, #207 ) ;
#156 = SECURITY_CLASSIFICATION ( '', '', #68 ) ;
#157 = APPROVAL_PERSON_ORGANIZATION ( #13, #119, #117 ) ;
#158 = EDGE_CURVE ( 'NONE', #123, #123, #138, .T. ) ;
#159 = CIRCLE ( 'NONE', #36, 0.3740157480314960600 ) ;
#160 = EDGE_LOOP ( 'NONE', ( #174 ) ) ;
#161 = DIRECTION ( 'NONE',  ( 0.0000000000000000000, 0.0000000000000000000, 1.000000000000000000 ) ) ;
#162 = APPROVAL_STATUS ( 'not_yet_approved' ) ;
#163 = CARTESIAN_POINT ( 'NONE',  ( 4.645669291338583300, 0.4330708661417322900, -1.060682668665051200E-016 ) ) ;
#164 = EDGE_LOOP ( 'NONE', ( #18 ) ) ;
#165 = DIRECTION ( 'NONE',  ( -1.000000000000000000, -3.010774304068219900E-017, -1.121038771459850100E-048 ) ) ;
#166 = ADVANCED_BREP_SHAPE_REPRESENTATION ( '581229210', ( #124, #245 ), #21 ) ;
#167 = EDGE_CURVE ( 'NONE', #170, #170, #200, .T. ) ;
#168 = CARTESIAN_POINT ( 'NONE',  ( 2.913385826771653700, 0.4921259842519683500, -1.205321214392101100E-016 ) ) ;
#169 = DIRECTION ( 'NONE',  ( 0.0000000000000000000, 1.000000000000000000, 0.0000000000000000000 ) ) ;
#170 = VERTEX_POINT ( 'NONE', #191 ) ;
#171 = DIRECTION ( 'NONE',  ( -7.374026685374179300E-033, 0.0000000000000000000, 1.000000000000000000 ) ) ;
#172 = EDGE_CURVE ( 'NONE', #33, #33, #41, .T. ) ;
#173 = PERSON_AND_ORGANIZATION ( #146, #56 ) ;
#174 = ORIENTED_EDGE ( 'NONE', *, *, #196, .F. ) ;
#175 = LOCAL_TIME ( 10, 45, 12.00000000000000000, #218 ) ;
#176 = ORIENTED_EDGE ( 'NONE', *, *, #29, .F. ) ;
#177 = APPROVAL_DATE_TIME ( #141, #137 ) ;
#178 = FACE_OUTER_BOUND ( 'NONE', #209, .T. ) ;
#179 = DESIGN_CONTEXT ( 'detailed design', #210, 'design' ) ;
#180 = CYLINDRICAL_SURFACE ( 'NONE', #131, 0.4921259842519685200 ) ;
#181 = CC_DESIGN_PERSON_AND_ORGANIZATION_ASSIGNMENT ( #173, #239, ( #202 ) ) ;
#182 = CALENDAR_DATE ( 2017, 31, 7 ) ;
#183 = EDGE_CURVE ( 'NONE', #128, #128, #92, .T. ) ;
#184 = DIRECTION ( 'NONE',  ( -1.000000000000000000, -3.010774304068219900E-017, 8.418027106910899500E-049 ) ) ;
#185 = CC_DESIGN_PERSON_AND_ORGANIZATION_ASSIGNMENT ( #188, #219, ( #106 ) ) ;
#186 = DIRECTION ( 'NONE',  ( -1.000000000000000000, -3.010774304068219900E-017, -0.0000000000000000000 ) ) ;
#187 = VERTEX_POINT ( 'NONE', #244 ) ;
#188 = PERSON_AND_ORGANIZATION ( #146, #56 ) ;
#189 = CIRCLE ( 'NONE', #57, 0.9842519685039370400 ) ;
#190 = PRODUCT_RELATED_PRODUCT_CATEGORY ( 'detail', '', ( #154 ) ) ;
#191 = CARTESIAN_POINT ( 'NONE',  ( 2.913385826771653700, 0.3740157480314961800, -9.160441229379974000E-017 ) ) ;
#192 = LOCAL_TIME ( 10, 45, 12.00000000000000000, #78 ) ;
#193 = CYLINDRICAL_SURFACE ( 'NONE', #228, 0.9842519685039370400 ) ;
#194 = CC_DESIGN_DATE_AND_TIME_ASSIGNMENT ( #155, #139, ( #156 ) ) ;
#195 = CIRCLE ( 'NONE', #233, 0.9842519685039370400 ) ;
#196 = EDGE_CURVE ( 'NONE', #136, #136, #195, .T. ) ;
#197 = PERSON_AND_ORGANIZATION ( #146, #56 ) ;
#198 = DIRECTION ( 'NONE',  ( -1.000000000000000000, -3.010774304068219900E-017, -9.704282993939179500E-049 ) ) ;
#199 = CARTESIAN_POINT ( 'NONE',  ( 4.645669291338583300, -1.516480271171051900E-032, 8.405284482939448900E-049 ) ) ;
#200 = CIRCLE ( 'NONE', #70, 0.3740157480314962900 ) ;
#201 = PLANE ( 'NONE',  #48 ) ;
#202 = PRODUCT_DEFINITION_FORMATION_WITH_SPECIFIED_SOURCE ( 'ANY', '', #154, .NOT_KNOWN. ) ;
#203 = APPROVAL_DATE_TIME ( #152, #250 ) ;
#204 = AXIS2_PLACEMENT_3D ( 'NONE', #91, #11, #87 ) ;
#205 = CC_DESIGN_PERSON_AND_ORGANIZATION_ASSIGNMENT ( #197, #236, ( #202 ) ) ;
#206 = ORIENTED_EDGE ( 'NONE', *, *, #167, .T. ) ;
#207 = LOCAL_TIME ( 10, 45, 12.00000000000000000, #99 ) ;
#208 = EDGE_CURVE ( 'NONE', #187, #187, #151, .T. ) ;
#209 = EDGE_LOOP ( 'NONE', ( #114 ) ) ;
#210 = APPLICATION_CONTEXT ( 'configuration controlled 3d designs of mechanical parts and assemblies' ) ;
#211 = APPROVAL_DATE_TIME ( #61, #119 ) ;
#212 = ADVANCED_FACE ( 'NONE', ( #44, #76 ), #222, .T. ) ;
#213 = AXIS2_PLACEMENT_3D ( 'NONE', #143, #147, #149 ) ;
#214 = ORIENTED_EDGE ( 'NONE', *, *, #45, .T. ) ;
#215 = DIRECTION ( 'NONE',  ( 0.0000000000000000000, 0.0000000000000000000, 1.000000000000000000 ) ) ;
#216 = CC_DESIGN_APPROVAL ( #250, ( #156 ) ) ;
#217 = CARTESIAN_POINT ( 'NONE',  ( 2.165354330708661600, -7.467668549460550100E-017, 1.213723079336451900E-048 ) ) ;
#218 = COORDINATED_UNIVERSAL_TIME_OFFSET ( 5, 0, .BEHIND. ) ;
#219 = PERSON_AND_ORGANIZATION_ROLE ( 'creator' ) ;
#220 = CARTESIAN_POINT ( 'NONE',  ( 2.165354330708661600, -6.829619984160658000E-017, 3.249293342962422600E-048 ) ) ;
#221 = CARTESIAN_POINT ( 'NONE',  ( 0.0000000000000000000, 0.0000000000000000000, 0.0000000000000000000 ) ) ;
#222 = CONICAL_SURFACE ( 'NONE', #241, 0.9842519685039370400, 0.5819051181398858800 ) ;
#223 = LENGTH_MEASURE_WITH_UNIT ( LENGTH_MEASURE( 0.02539999999999999900 ), #60 );
#224 = FACE_OUTER_BOUND ( 'NONE', #238, .T. ) ;
#225 =( CONVERSION_BASED_UNIT ( 'INCH', #223 ) LENGTH_UNIT ( ) NAMED_UNIT ( #231 ) );
#226 = APPROVAL_PERSON_ORGANIZATION ( #23, #250, #132 ) ;
#227 = FACE_OUTER_BOUND ( 'NONE', #115, .T. ) ;
#228 = AXIS2_PLACEMENT_3D ( 'NONE', #79, #249, #169 ) ;
#229 = CC_DESIGN_SECURITY_CLASSIFICATION ( #156, ( #202 ) ) ;
#230 = PERSON_AND_ORGANIZATION_ROLE ( 'classification_officer' ) ;
#231 = DIMENSIONAL_EXPONENTS ( 1.000000000000000000, 0.0000000000000000000, 0.0000000000000000000, 0.0000000000000000000, 0.0000000000000000000, 0.0000000000000000000, 0.0000000000000000000 ) ;
#232 = APPROVAL_STATUS ( 'not_yet_approved' ) ;
#233 = AXIS2_PLACEMENT_3D ( 'NONE', #217, #165, #144 ) ;
#234 = PLANE ( 'NONE',  #101 ) ;
#235 =( NAMED_UNIT ( * ) PLANE_ANGLE_UNIT ( ) SI_UNIT ( $, .RADIAN. ) );
#236 = PERSON_AND_ORGANIZATION_ROLE ( 'design_supplier' ) ;
#237 = CARTESIAN_POINT ( 'NONE',  ( 2.913385826771653700, -5.215514542480390100E-017, 0.0000000000000000000 ) ) ;
#238 = EDGE_LOOP ( 'NONE', ( #214 ) ) ;
#239 = PERSON_AND_ORGANIZATION_ROLE ( 'creator' ) ;
#240 = DATE_AND_TIME ( #75, #102 ) ;
#241 = AXIS2_PLACEMENT_3D ( 'NONE', #220, #93, #215 ) ;
#242 = ORIENTED_EDGE ( 'NONE', *, *, #208, .F. ) ;
#243 = ADVANCED_FACE ( 'NONE', ( #90, #126 ), #96, .F. ) ;
#244 = CARTESIAN_POINT ( 'NONE',  ( 2.165354330708661600, 0.8031496062992123900, -9.114005725986209600E-049 ) ) ;
#245 = AXIS2_PLACEMENT_3D ( 'NONE', #221, #80, #140 ) ;
#246 = DIRECTION ( 'NONE',  ( 0.0000000000000000000, 1.000000000000000000, 0.0000000000000000000 ) ) ;
#247 = CYLINDRICAL_SURFACE ( 'NONE', #213, 0.3740157480314960600 ) ;
#248 = DIRECTION ( 'NONE',  ( 1.000000000000000000, 3.010774304068219900E-017, 1.121038771459850100E-048 ) ) ;
#249 = DIRECTION ( 'NONE',  ( 1.000000000000000000, 3.010774304068219900E-017, 1.121038771459850100E-048 ) ) ;
#250 = APPROVAL ( #134, 'UNSPECIFIED' ) ;
#251 = EDGE_LOOP ( 'NONE', ( #42 ) ) ;
#252 = ORIENTED_EDGE ( 'NONE', *, *, #167, .F. ) ;
ENDSEC;
END-ISO-10303-21;
