ISO-10303-21;
HEADER;
FILE_DESCRIPTION (( 'STEP AP203' ),
    '1' );
FILE_NAME ('581229249.STEP',
    '2017-07-31T14:56:34',
    ( '' ),
    ( '' ),
    'SwSTEP 2.0',
    'SolidWorks 2017',
    '' );
FILE_SCHEMA (( 'CONFIG_CONTROL_DESIGN' ));
ENDSEC;

DATA;
#1 = AXIS2_PLACEMENT_3D ( 'NONE', #120, #103, #137 ) ;
#2 = CIRCLE ( 'NONE', #1, 0.5118110236220471100 ) ;
#3 = PERSON_AND_ORGANIZATION ( #250, #252 ) ;
#4 = APPROVAL_PERSON_ORGANIZATION ( #116, #121, #166 ) ;
#5 = ADVANCED_FACE ( 'NONE', ( #199, #238 ), #245, .T. ) ;
#6 = DIRECTION ( 'NONE',  ( 1.479114197289396300E-031, 0.0000000000000000000, -1.000000000000000000 ) ) ;
#7 = AXIS2_PLACEMENT_3D ( 'NONE', #241, #148, #129 ) ;
#8 = EDGE_LOOP ( 'NONE', ( #170 ) ) ;
#9 = DIRECTION ( 'NONE',  ( 0.0000000000000000000, 0.0000000000000000000, -1.000000000000000000 ) ) ;
#10 = AXIS2_PLACEMENT_3D ( 'NONE', #45, #84, #6 ) ;
#11 = CARTESIAN_POINT ( 'NONE',  ( 1.259842519685040200, 0.0000000000000000000, 0.0000000000000000000 ) ) ;
#12 = UNCERTAINTY_MEASURE_WITH_UNIT (LENGTH_MEASURE( 1.000000000000000100E-005 ), #35, 'distance_accuracy_value', 'NONE');
#13 = DIRECTION ( 'NONE',  ( -1.479114197289396700E-031, 0.0000000000000000000, 1.000000000000000000 ) ) ;
#14 = PERSON_AND_ORGANIZATION_ROLE ( 'creator' ) ;
#15 =( NAMED_UNIT ( * ) SI_UNIT ( $, .STERADIAN. ) SOLID_ANGLE_UNIT ( ) );
#16 = AXIS2_PLACEMENT_3D ( 'NONE', #205, #90, #173 ) ;
#17 = ORIENTED_EDGE ( 'NONE', *, *, #180, .T. ) ;
#18 = AXIS2_PLACEMENT_3D ( 'NONE', #147, #163, #9 ) ;
#19 = DIRECTION ( 'NONE',  ( 1.000000000000000000, 7.549645381997964500E-032, -1.664003471950571800E-031 ) ) ;
#20 = DIMENSIONAL_EXPONENTS ( 1.000000000000000000, 0.0000000000000000000, 0.0000000000000000000, 0.0000000000000000000, 0.0000000000000000000, 0.0000000000000000000, 0.0000000000000000000 ) ;
#21 = EDGE_LOOP ( 'NONE', ( #27 ) ) ;
#22 = CARTESIAN_POINT ( 'NONE',  ( 5.354330708661417600, 0.0000000000000000000, -0.5118110236220475600 ) ) ;
#23 =( GEOMETRIC_REPRESENTATION_CONTEXT ( 3 ) GLOBAL_UNCERTAINTY_ASSIGNED_CONTEXT ( ( #12 ) ) GLOBAL_UNIT_ASSIGNED_CONTEXT ( ( #35, #151, #15 ) ) REPRESENTATION_CONTEXT ( 'NONE', 'WORKASPACE' ) );
#24 = CARTESIAN_POINT ( 'NONE',  ( 0.0000000000000000000, 1.125984251968521000, 3.414809992080329000E-017 ) ) ;
#25 = AXIS2_PLACEMENT_3D ( 'NONE', #186, #74, #207 ) ;
#26 = ORIENTED_EDGE ( 'NONE', *, *, #157, .F. ) ;
#27 = ORIENTED_EDGE ( 'NONE', *, *, #41, .F. ) ;
#28 = AXIS2_PLACEMENT_3D ( 'NONE', #11, #239, #222 ) ;
#29 = COORDINATED_UNIVERSAL_TIME_OFFSET ( 5, 0, .BEHIND. ) ;
#30 = EDGE_LOOP ( 'NONE', ( #54 ) ) ;
#31 = EDGE_CURVE ( 'NONE', #99, #99, #154, .T. ) ;
#32 = EDGE_CURVE ( 'NONE', #66, #66, #235, .T. ) ;
#33 = APPROVAL_ROLE ( '' ) ;
#34 = CARTESIAN_POINT ( 'NONE',  ( 2.519685039370076500, 5.463695987328526400E-016, 3.414809992080329000E-017 ) ) ;
#35 =( CONVERSION_BASED_UNIT ( 'INCH', #192 ) LENGTH_UNIT ( ) NAMED_UNIT ( #20 ) );
#36 = ADVANCED_FACE ( 'NONE', ( #113, #82 ), #202, .F. ) ;
#37 = FACE_OUTER_BOUND ( 'NONE', #228, .T. ) ;
#38 = CARTESIAN_POINT ( 'NONE',  ( 4.389763779527560100, 0.0000000000000000000, -3.414809992080329000E-017 ) ) ;
#39 = ADVANCED_FACE ( 'NONE', ( #174, #96 ), #184, .T. ) ;
#40 = COORDINATED_UNIVERSAL_TIME_OFFSET ( 5, 0, .BEHIND. ) ;
#41 = EDGE_CURVE ( 'NONE', #71, #71, #139, .T. ) ;
#42 = CC_DESIGN_PERSON_AND_ORGANIZATION_ASSIGNMENT ( #206, #78, ( #104 ) ) ;
#43 = EDGE_LOOP ( 'NONE', ( #117 ) ) ;
#44 = ADVANCED_BREP_SHAPE_REPRESENTATION ( '581229249', ( #80, #135 ), #23 ) ;
#45 = CARTESIAN_POINT ( 'NONE',  ( 0.0000000000000000000, 0.0000000000000000000, 0.0000000000000000000 ) ) ;
#46 = PRODUCT_DEFINITION_FORMATION_WITH_SPECIFIED_SOURCE ( 'ANY', '', #104, .NOT_KNOWN. ) ;
#47 = EDGE_LOOP ( 'NONE', ( #178 ) ) ;
#48 = ORIENTED_EDGE ( 'NONE', *, *, #180, .F. ) ;
#49 = CYLINDRICAL_SURFACE ( 'NONE', #95, 1.240157480314961300 ) ;
#50 = DIRECTION ( 'NONE',  ( -1.000000000000000000, -7.549645381997964500E-032, 1.664003471950571800E-031 ) ) ;
#51 = CARTESIAN_POINT ( 'NONE',  ( 5.354330708661417600, 0.0000000000000000000, -3.414809992080329000E-017 ) ) ;
#52 = VERTEX_POINT ( 'NONE', #111 ) ;
#53 = CC_DESIGN_DATE_AND_TIME_ASSIGNMENT ( #70, #187, ( #160 ) ) ;
#54 = ORIENTED_EDGE ( 'NONE', *, *, #157, .T. ) ;
#55 = DIRECTION ( 'NONE',  ( 0.0000000000000000000, 0.0000000000000000000, 1.000000000000000000 ) ) ;
#56 = SHAPE_DEFINITION_REPRESENTATION ( #152, #44 ) ;
#57 = PRODUCT_DEFINITION ( 'UNKNOWN', '', #46, #63 ) ;
#58 = DATE_AND_TIME ( #125, #149 ) ;
#59 = APPROVAL_STATUS ( 'not_yet_approved' ) ;
#60 = APPLICATION_PROTOCOL_DEFINITION ( 'international standard', 'config_control_design', 1994, #189 ) ;
#61 = APPROVAL_PERSON_ORGANIZATION ( #209, #138, #33 ) ;
#62 = APPROVAL_DATE_TIME ( #242, #138 ) ;
#63 = DESIGN_CONTEXT ( 'detailed design', #189, 'design' ) ;
#64 = DIRECTION ( 'NONE',  ( 0.0000000000000000000, 0.0000000000000000000, -1.000000000000000000 ) ) ;
#65 = CC_DESIGN_SECURITY_CLASSIFICATION ( #160, ( #46 ) ) ;
#66 = VERTEX_POINT ( 'NONE', #22 ) ;
#67 = CYLINDRICAL_SURFACE ( 'NONE', #193, 0.6299212598425200100 ) ;
#68 = CC_DESIGN_APPROVAL ( #138, ( #57 ) ) ;
#69 = CC_DESIGN_DATE_AND_TIME_ASSIGNMENT ( #123, #124, ( #57 ) ) ;
#70 = DATE_AND_TIME ( #188, #220 ) ;
#71 = VERTEX_POINT ( 'NONE', #213 ) ;
#72 = CALENDAR_DATE ( 2017, 31, 7 ) ;
#73 = CC_DESIGN_PERSON_AND_ORGANIZATION_ASSIGNMENT ( #3, #14, ( #57 ) ) ;
#74 = DIRECTION ( 'NONE',  ( 1.000000000000000000, 7.549645381997964500E-032, -1.664003471950571800E-031 ) ) ;
#75 = COORDINATED_UNIVERSAL_TIME_OFFSET ( 5, 0, .BEHIND. ) ;
#76 = PERSON_AND_ORGANIZATION_ROLE ( 'classification_officer' ) ;
#77 = APPROVAL ( #244, 'UNSPECIFIED' ) ;
#78 = PERSON_AND_ORGANIZATION_ROLE ( 'design_owner' ) ;
#79 = DIRECTION ( 'NONE',  ( 0.0000000000000000000, 0.0000000000000000000, 1.000000000000000000 ) ) ;
#80 = MANIFOLD_SOLID_BREP ( '1', #162 ) ;
#81 = APPROVAL_DATE_TIME ( #196, #77 ) ;
#82 = FACE_OUTER_BOUND ( 'NONE', #179, .T. ) ;
#83 = EDGE_CURVE ( 'NONE', #195, #195, #194, .T. ) ;
#84 = DIRECTION ( 'NONE',  ( 1.000000000000000000, 7.549645381997964500E-032, -1.664003471950571800E-031 ) ) ;
#85 = ORIENTED_EDGE ( 'NONE', *, *, #215, .F. ) ;
#86 = FACE_OUTER_BOUND ( 'NONE', #8, .T. ) ;
#87 = AXIS2_PLACEMENT_3D ( 'NONE', #34, #50, #55 ) ;
#88 = ADVANCED_FACE ( 'NONE', ( #237, #133 ), #144, .F. ) ;
#89 = ADVANCED_FACE ( 'NONE', ( #204, #86 ), #67, .T. ) ;
#90 = DIRECTION ( 'NONE',  ( -1.000000000000000000, -7.549645381997964500E-032, 1.664003471950571800E-031 ) ) ;
#91 = FACE_OUTER_BOUND ( 'NONE', #216, .T. ) ;
#92 = PERSON_AND_ORGANIZATION_ROLE ( 'design_supplier' ) ;
#93 = DIRECTION ( 'NONE',  ( 1.000000000000000000, 7.549645381997964500E-032, 1.479114197289396700E-031 ) ) ;
#94 = DIRECTION ( 'NONE',  ( 1.000000000000000000, 0.0000000000000000000, 0.0000000000000000000 ) ) ;
#95 = AXIS2_PLACEMENT_3D ( 'NONE', #217, #159, #102 ) ;
#96 = FACE_OUTER_BOUND ( 'NONE', #142, .T. ) ;
#97 = CARTESIAN_POINT ( 'NONE',  ( 3.425196850393698300, 0.5118110236220471100, -1.975126099419261600E-016 ) ) ;
#98 = AXIS2_PLACEMENT_3D ( 'NONE', #51, #172, #158 ) ;
#99 = VERTEX_POINT ( 'NONE', #112 ) ;
#100 = EDGE_LOOP ( 'NONE', ( #48 ) ) ;
#101 = CIRCLE ( 'NONE', #98, 0.6299212598425200100 ) ;
#102 = DIRECTION ( 'NONE',  ( 0.0000000000000000000, 0.0000000000000000000, -1.000000000000000000 ) ) ;
#103 = DIRECTION ( 'NONE',  ( -1.000000000000000000, -7.549645381997964500E-032, 1.664003471950571800E-031 ) ) ;
#104 = PRODUCT ( '581229249', '581229249', '', ( #210 ) ) ;
#105 = EDGE_LOOP ( 'NONE', ( #212 ) ) ;
#106 = ORIENTED_EDGE ( 'NONE', *, *, #171, .T. ) ;
#107 = ORIENTED_EDGE ( 'NONE', *, *, #41, .T. ) ;
#108 = APPROVAL_ROLE ( '' ) ;
#109 = ADVANCED_FACE ( 'NONE', ( #181, #37 ), #49, .T. ) ;
#110 = PERSON_AND_ORGANIZATION ( #250, #252 ) ;
#111 = CARTESIAN_POINT ( 'NONE',  ( 5.354330708661417600, 0.0000000000000000000, -0.6299212598425200100 ) ) ;
#112 = CARTESIAN_POINT ( 'NONE',  ( 1.496584050013287800E-031, 0.0000000000000000000, -1.011811023622047700 ) ) ;
#113 = FACE_OUTER_BOUND ( 'NONE', #21, .T. ) ;
#114 = VERTEX_POINT ( 'NONE', #211 ) ;
#115 = ORIENTED_EDGE ( 'NONE', *, *, #215, .T. ) ;
#116 = PERSON_AND_ORGANIZATION ( #250, #252 ) ;
#117 = ORIENTED_EDGE ( 'NONE', *, *, #31, .T. ) ;
#118 = DIRECTION ( 'NONE',  ( -1.000000000000000000, -7.549645381997964500E-032, -1.479114197289396700E-031 ) ) ;
#119 = APPROVAL_DATE_TIME ( #58, #121 ) ;
#120 = CARTESIAN_POINT ( 'NONE',  ( 3.425196850393698300, 0.0000000000000000000, -3.414809992080329000E-017 ) ) ;
#121 = APPROVAL ( #59, 'UNSPECIFIED' ) ;
#122 = PERSON_AND_ORGANIZATION ( #250, #252 ) ;
#123 = DATE_AND_TIME ( #177, #201 ) ;
#124 = DATE_TIME_ROLE ( 'creation_date' ) ;
#125 = CALENDAR_DATE ( 2017, 31, 7 ) ;
#126 = EDGE_LOOP ( 'NONE', ( #17 ) ) ;
#127 = DIRECTION ( 'NONE',  ( 0.0000000000000000000, 1.000000000000000000, -3.191891195797324100E-016 ) ) ;
#128 = AXIS2_PLACEMENT_3D ( 'NONE', #165, #93, #167 ) ;
#129 = DIRECTION ( 'NONE',  ( 0.0000000000000000000, 0.0000000000000000000, -1.000000000000000000 ) ) ;
#130 = FACE_OUTER_BOUND ( 'NONE', #105, .T. ) ;
#131 = PRODUCT_RELATED_PRODUCT_CATEGORY ( 'detail', '', ( #104 ) ) ;
#132 = CYLINDRICAL_SURFACE ( 'NONE', #7, 0.5118110236220475600 ) ;
#133 = FACE_OUTER_BOUND ( 'NONE', #197, .T. ) ;
#134 = ADVANCED_FACE ( 'NONE', ( #130, #231 ), #200, .T. ) ;
#135 = AXIS2_PLACEMENT_3D ( 'NONE', #248, #79, #94 ) ;
#136 = AXIS2_PLACEMENT_3D ( 'NONE', #191, #218, #127 ) ;
#137 = DIRECTION ( 'NONE',  ( 0.0000000000000000000, 1.000000000000000000, -3.191891195797324600E-016 ) ) ;
#138 = APPROVAL ( #168, 'UNSPECIFIED' ) ;
#139 = CIRCLE ( 'NONE', #18, 1.011811023622047700 ) ;
#140 = CIRCLE ( 'NONE', #230, 1.240157480314961300 ) ;
#141 = COORDINATED_UNIVERSAL_TIME_OFFSET ( 5, 0, .BEHIND. ) ;
#142 = EDGE_LOOP ( 'NONE', ( #85 ) ) ;
#143 = VERTEX_POINT ( 'NONE', #97 ) ;
#144 = CONICAL_SURFACE ( 'NONE', #87, 1.011811023622047900, 0.5045107097992118600 ) ;
#145 = AXIS2_PLACEMENT_3D ( 'NONE', #24, #118, #13 ) ;
#146 = CC_DESIGN_PERSON_AND_ORGANIZATION_ASSIGNMENT ( #110, #224, ( #46 ) ) ;
#147 = CARTESIAN_POINT ( 'NONE',  ( 2.519685039370076500, 5.463695987328526400E-016, 3.414809992080329000E-017 ) ) ;
#148 = DIRECTION ( 'NONE',  ( 1.000000000000000000, 7.549645381997964500E-032, -1.664003471950571800E-031 ) ) ;
#149 = LOCAL_TIME ( 10, 56, 34.00000000000000000, #141 ) ;
#150 = FACE_OUTER_BOUND ( 'NONE', #126, .T. ) ;
#151 =( NAMED_UNIT ( * ) PLANE_ANGLE_UNIT ( ) SI_UNIT ( $, .RADIAN. ) );
#152 = PRODUCT_DEFINITION_SHAPE ( 'NONE', 'NONE',  #57 ) ;
#153 = CC_DESIGN_PERSON_AND_ORGANIZATION_ASSIGNMENT ( #164, #76, ( #160 ) ) ;
#154 = CIRCLE ( 'NONE', #25, 1.011811023622047700 ) ;
#155 = AXIS2_PLACEMENT_3D ( 'NONE', #221, #219, #229 ) ;
#156 = LOCAL_TIME ( 10, 56, 34.00000000000000000, #75 ) ;
#157 = EDGE_CURVE ( 'NONE', #52, #52, #101, .T. ) ;
#158 = DIRECTION ( 'NONE',  ( 0.0000000000000000000, 0.0000000000000000000, -1.000000000000000000 ) ) ;
#159 = DIRECTION ( 'NONE',  ( 1.000000000000000000, 7.549645381997964500E-032, -1.664003471950571800E-031 ) ) ;
#160 = SECURITY_CLASSIFICATION ( '', '', #208 ) ;
#161 = CC_DESIGN_PERSON_AND_ORGANIZATION_ASSIGNMENT ( #122, #92, ( #46 ) ) ;
#162 = CLOSED_SHELL ( 'NONE', ( #109, #134, #39, #36, #89, #88, #5, #226 ) ) ;
#163 = DIRECTION ( 'NONE',  ( -1.000000000000000000, -7.549645381997964500E-032, 1.664003471950571800E-031 ) ) ;
#164 = PERSON_AND_ORGANIZATION ( #250, #252 ) ;
#165 = CARTESIAN_POINT ( 'NONE',  ( 5.354330708661417600, 0.5708661417322866700, -4.302660590021214300E-015 ) ) ;
#166 = APPROVAL_ROLE ( '' ) ;
#167 = DIRECTION ( 'NONE',  ( 1.479114197289396700E-031, 0.0000000000000000000, -1.000000000000000000 ) ) ;
#168 = APPROVAL_STATUS ( 'not_yet_approved' ) ;
#169 =( LENGTH_UNIT ( ) NAMED_UNIT ( * ) SI_UNIT ( $, .METRE. ) );
#170 = ORIENTED_EDGE ( 'NONE', *, *, #83, .F. ) ;
#171 = EDGE_CURVE ( 'NONE', #247, #247, #236, .T. ) ;
#172 = DIRECTION ( 'NONE',  ( -1.000000000000000000, -7.549645381997964500E-032, 1.664003471950571800E-031 ) ) ;
#173 = DIRECTION ( 'NONE',  ( 0.0000000000000000000, 0.0000000000000000000, -1.000000000000000000 ) ) ;
#174 = FACE_BOUND ( 'NONE', #203, .T. ) ;
#175 = LOCAL_TIME ( 10, 56, 34.00000000000000000, #40 ) ;
#176 = DIRECTION ( 'NONE',  ( -1.000000000000000000, -7.549645381997964500E-032, 1.664003471950571800E-031 ) ) ;
#177 = CALENDAR_DATE ( 2017, 31, 7 ) ;
#178 = ORIENTED_EDGE ( 'NONE', *, *, #32, .T. ) ;
#179 = EDGE_LOOP ( 'NONE', ( #183 ) ) ;
#180 = EDGE_CURVE ( 'NONE', #143, #143, #2, .T. ) ;
#181 = FACE_OUTER_BOUND ( 'NONE', #251, .T. ) ;
#182 = APPROVAL_PERSON_ORGANIZATION ( #223, #77, #108 ) ;
#183 = ORIENTED_EDGE ( 'NONE', *, *, #31, .F. ) ;
#184 = CONICAL_SURFACE ( 'NONE', #155, 1.240157480314961300, 0.5930025618815258900 ) ;
#185 = DIRECTION ( 'NONE',  ( 0.0000000000000000000, 0.0000000000000000000, -1.000000000000000000 ) ) ;
#186 = CARTESIAN_POINT ( 'NONE',  ( 0.0000000000000000000, 0.0000000000000000000, 0.0000000000000000000 ) ) ;
#187 = DATE_TIME_ROLE ( 'classification_date' ) ;
#188 = CALENDAR_DATE ( 2017, 31, 7 ) ;
#189 = APPLICATION_CONTEXT ( 'configuration controlled 3d designs of mechanical parts and assemblies' ) ;
#190 = ORIENTED_EDGE ( 'NONE', *, *, #83, .T. ) ;
#191 = CARTESIAN_POINT ( 'NONE',  ( 3.425196850393698300, 0.0000000000000000000, -3.414809992080329000E-017 ) ) ;
#192 = LENGTH_MEASURE_WITH_UNIT ( LENGTH_MEASURE( 0.02539999999999999900 ), #169 );
#193 = AXIS2_PLACEMENT_3D ( 'NONE', #38, #19, #185 ) ;
#194 = CIRCLE ( 'NONE', #136, 0.6299212598425195700 ) ;
#195 = VERTEX_POINT ( 'NONE', #234 ) ;
#196 = DATE_AND_TIME ( #243, #175 ) ;
#197 = EDGE_LOOP ( 'NONE', ( #107 ) ) ;
#198 = CARTESIAN_POINT ( 'NONE',  ( 2.519685039370076500, 5.463695987328526400E-016, 3.414809992080329000E-017 ) ) ;
#199 = FACE_BOUND ( 'NONE', #47, .T. ) ;
#200 = PLANE ( 'NONE',  #145 ) ;
#201 = LOCAL_TIME ( 10, 56, 34.00000000000000000, #29 ) ;
#202 = CYLINDRICAL_SURFACE ( 'NONE', #28, 1.011811023622047700 ) ;
#203 = EDGE_LOOP ( 'NONE', ( #190 ) ) ;
#204 = FACE_OUTER_BOUND ( 'NONE', #30, .T. ) ;
#205 = CARTESIAN_POINT ( 'NONE',  ( 5.354330708661417600, 0.0000000000000000000, -3.414809992080329000E-017 ) ) ;
#206 = PERSON_AND_ORGANIZATION ( #250, #252 ) ;
#207 = DIRECTION ( 'NONE',  ( 1.479114197289396700E-031, 0.0000000000000000000, -1.000000000000000000 ) ) ;
#208 = SECURITY_CLASSIFICATION_LEVEL ( 'unclassified' ) ;
#209 = PERSON_AND_ORGANIZATION ( #250, #252 ) ;
#210 = MECHANICAL_CONTEXT ( 'NONE', #225, 'mechanical' ) ;
#211 = CARTESIAN_POINT ( 'NONE',  ( 2.519685039370076500, 5.463695987328526400E-016, -1.240157480314961300 ) ) ;
#212 = ORIENTED_EDGE ( 'NONE', *, *, #171, .F. ) ;
#213 = CARTESIAN_POINT ( 'NONE',  ( 2.519685039370076500, 5.463695987328526400E-016, -1.011811023622047700 ) ) ;
#214 = ORIENTED_EDGE ( 'NONE', *, *, #32, .F. ) ;
#215 = EDGE_CURVE ( 'NONE', #114, #114, #140, .T. ) ;
#216 = EDGE_LOOP ( 'NONE', ( #214 ) ) ;
#217 = CARTESIAN_POINT ( 'NONE',  ( 1.259842519685040200, 0.0000000000000000000, 0.0000000000000000000 ) ) ;
#218 = DIRECTION ( 'NONE',  ( -1.000000000000000000, -7.549645381997964500E-032, 1.664003471950571800E-031 ) ) ;
#219 = DIRECTION ( 'NONE',  ( -1.000000000000000000, -7.549645381997964500E-032, 1.664003471950571800E-031 ) ) ;
#220 = LOCAL_TIME ( 10, 56, 34.00000000000000000, #249 ) ;
#221 = CARTESIAN_POINT ( 'NONE',  ( 2.519685039370076500, 5.463695987328526400E-016, 3.414809992080329000E-017 ) ) ;
#222 = DIRECTION ( 'NONE',  ( 0.0000000000000000000, 0.0000000000000000000, -1.000000000000000000 ) ) ;
#223 = PERSON_AND_ORGANIZATION ( #250, #252 ) ;
#224 = PERSON_AND_ORGANIZATION_ROLE ( 'creator' ) ;
#225 = APPLICATION_CONTEXT ( 'configuration controlled 3d designs of mechanical parts and assemblies' ) ;
#226 = ADVANCED_FACE ( 'NONE', ( #91, #150 ), #132, .F. ) ;
#227 = CARTESIAN_POINT ( 'NONE',  ( 1.834334536008504300E-031, 0.0000000000000000000, -1.240157480314961300 ) ) ;
#228 = EDGE_LOOP ( 'NONE', ( #106 ) ) ;
#229 = DIRECTION ( 'NONE',  ( 0.0000000000000000000, 0.0000000000000000000, 1.000000000000000000 ) ) ;
#230 = AXIS2_PLACEMENT_3D ( 'NONE', #198, #176, #64 ) ;
#231 = FACE_BOUND ( 'NONE', #43, .T. ) ;
#232 = CC_DESIGN_APPROVAL ( #77, ( #46 ) ) ;
#233 = EDGE_LOOP ( 'NONE', ( #26 ) ) ;
#234 = CARTESIAN_POINT ( 'NONE',  ( 3.425196850393698300, 0.6299212598425195700, -2.352121122544929700E-016 ) ) ;
#235 = CIRCLE ( 'NONE', #16, 0.5118110236220475600 ) ;
#236 = CIRCLE ( 'NONE', #10, 1.240157480314961300 ) ;
#237 = FACE_BOUND ( 'NONE', #100, .T. ) ;
#238 = FACE_OUTER_BOUND ( 'NONE', #233, .T. ) ;
#239 = DIRECTION ( 'NONE',  ( 1.000000000000000000, 7.549645381997964500E-032, -1.664003471950571800E-031 ) ) ;
#240 = CC_DESIGN_APPROVAL ( #121, ( #160 ) ) ;
#241 = CARTESIAN_POINT ( 'NONE',  ( 4.389763779527560100, 0.0000000000000000000, -3.414809992080329000E-017 ) ) ;
#242 = DATE_AND_TIME ( #72, #156 ) ;
#243 = CALENDAR_DATE ( 2017, 31, 7 ) ;
#244 = APPROVAL_STATUS ( 'not_yet_approved' ) ;
#245 = PLANE ( 'NONE',  #128 ) ;
#246 = APPLICATION_PROTOCOL_DEFINITION ( 'international standard', 'config_control_design', 1994, #225 ) ;
#247 = VERTEX_POINT ( 'NONE', #227 ) ;
#248 = CARTESIAN_POINT ( 'NONE',  ( 0.0000000000000000000, 0.0000000000000000000, 0.0000000000000000000 ) ) ;
#249 = COORDINATED_UNIVERSAL_TIME_OFFSET ( 5, 0, .BEHIND. ) ;
#250 = PERSON ( 'UNSPECIFIED', 'UNSPECIFIED', 'UNSPECIFIED', ('UNSPECIFIED'), ('UNSPECIFIED'), ('UNSPECIFIED') ) ;
#251 = EDGE_LOOP ( 'NONE', ( #115 ) ) ;
#252 = ORGANIZATION ( 'UNSPECIFIED', 'UNSPECIFIED', '' ) ;
ENDSEC;
END-ISO-10303-21;
