ISO-10303-21;
HEADER;
FILE_DESCRIPTION (( 'STEP AP203' ),
    '1' );
FILE_NAME ('581229251.STEP',
    '2017-07-31T14:59:14',
    ( '' ),
    ( '' ),
    'SwSTEP 2.0',
    'SolidWorks 2017',
    '' );
FILE_SCHEMA (( 'CONFIG_CONTROL_DESIGN' ));
ENDSEC;

DATA;
#1 = DIRECTION ( 'NONE',  ( 0.0000000000000000000, 0.0000000000000000000, -1.000000000000000000 ) ) ;
#2 = APPLICATION_CONTEXT ( 'configuration controlled 3d designs of mechanical parts and assemblies' ) ;
#3 = CIRCLE ( 'NONE', #151, 0.8031496062992125000 ) ;
#4 = CARTESIAN_POINT ( 'NONE',  ( 2.598425196850394000, 0.0000000000000000000, -1.011811023622047200 ) ) ;
#5 = CC_DESIGN_APPROVAL ( #163, ( #166 ) ) ;
#6 = SECURITY_CLASSIFICATION_LEVEL ( 'unclassified' ) ;
#7 = AXIS2_PLACEMENT_3D ( 'NONE', #51, #165, #35 ) ;
#8 = CALENDAR_DATE ( 2017, 31, 7 ) ;
#9 = FACE_BOUND ( 'NONE', #205, .T. ) ;
#10 = COORDINATED_UNIVERSAL_TIME_OFFSET ( 5, 0, .BEHIND. ) ;
#11 = PERSON_AND_ORGANIZATION ( #235, #91 ) ;
#12 =( LENGTH_UNIT ( ) NAMED_UNIT ( * ) SI_UNIT ( $, .METRE. ) );
#13 = COORDINATED_UNIVERSAL_TIME_OFFSET ( 5, 0, .BEHIND. ) ;
#14 = EDGE_CURVE ( 'NONE', #25, #25, #196, .T. ) ;
#15 = ORIENTED_EDGE ( 'NONE', *, *, #61, .T. ) ;
#16 = FACE_OUTER_BOUND ( 'NONE', #175, .T. ) ;
#17 = FACE_OUTER_BOUND ( 'NONE', #64, .T. ) ;
#18 = PERSON_AND_ORGANIZATION_ROLE ( 'creator' ) ;
#19 = DIRECTION ( 'NONE',  ( -1.000000000000000000, 0.0000000000000000000, 0.0000000000000000000 ) ) ;
#20 = CARTESIAN_POINT ( 'NONE',  ( 5.905511811023622200, 0.8937007874015748800, -2.188863325336059300E-016 ) ) ;
#21 = APPROVAL_PERSON_ORGANIZATION ( #30, #163, #204 ) ;
#22 =( NAMED_UNIT ( * ) PLANE_ANGLE_UNIT ( ) SI_UNIT ( $, .RADIAN. ) );
#23 = CALENDAR_DATE ( 2017, 31, 7 ) ;
#24 = APPROVAL_DATE_TIME ( #221, #163 ) ;
#25 = VERTEX_POINT ( 'NONE', #104 ) ;
#26 = DIRECTION ( 'NONE',  ( 0.0000000000000000000, 1.000000000000000000, -2.449212707644750600E-016 ) ) ;
#27 = ADVANCED_FACE ( 'NONE', ( #239, #211 ), #173, .T. ) ;
#28 = CARTESIAN_POINT ( 'NONE',  ( 4.744094488188975900, 0.0000000000000000000, 0.0000000000000000000 ) ) ;
#29 = CYLINDRICAL_SURFACE ( 'NONE', #45, 1.240157480314960600 ) ;
#30 = PERSON_AND_ORGANIZATION ( #235, #91 ) ;
#31 = PERSON_AND_ORGANIZATION ( #235, #91 ) ;
#32 = ORIENTED_EDGE ( 'NONE', *, *, #133, .T. ) ;
#33 = DATE_AND_TIME ( #178, #112 ) ;
#34 = PERSON_AND_ORGANIZATION ( #235, #91 ) ;
#35 = DIRECTION ( 'NONE',  ( 0.0000000000000000000, 0.0000000000000000000, -1.000000000000000000 ) ) ;
#36 = DIRECTION ( 'NONE',  ( -1.000000000000000000, -0.0000000000000000000, -0.0000000000000000000 ) ) ;
#37 = CC_DESIGN_PERSON_AND_ORGANIZATION_ASSIGNMENT ( #149, #18, ( #183 ) ) ;
#38 = CALENDAR_DATE ( 2017, 31, 7 ) ;
#39 = CARTESIAN_POINT ( 'NONE',  ( 5.905511811023622200, 0.0000000000000000000, 0.0000000000000000000 ) ) ;
#40 = COORDINATED_UNIVERSAL_TIME_OFFSET ( 5, 0, .BEHIND. ) ;
#41 = DIRECTION ( 'NONE',  ( 1.000000000000000000, 0.0000000000000000000, 0.0000000000000000000 ) ) ;
#42 = EDGE_CURVE ( 'NONE', #117, #117, #3, .T. ) ;
#43 = PRODUCT ( '581229251', '581229251', '', ( #129 ) ) ;
#44 = CARTESIAN_POINT ( 'NONE',  ( 2.598425196850394000, 0.0000000000000000000, 0.0000000000000000000 ) ) ;
#45 = AXIS2_PLACEMENT_3D ( 'NONE', #147, #128, #99 ) ;
#46 = ADVANCED_FACE ( 'NONE', ( #249, #226 ), #189, .F. ) ;
#47 = CC_DESIGN_SECURITY_CLASSIFICATION ( #166, ( #183 ) ) ;
#48 = LENGTH_MEASURE_WITH_UNIT ( LENGTH_MEASURE( 0.02539999999999999900 ), #12 );
#49 = CARTESIAN_POINT ( 'NONE',  ( 3.582677165354330600, 0.0000000000000000000, 0.0000000000000000000 ) ) ;
#50 = ORIENTED_EDGE ( 'NONE', *, *, #14, .F. ) ;
#51 = CARTESIAN_POINT ( 'NONE',  ( 0.0000000000000000000, 0.0000000000000000000, 0.0000000000000000000 ) ) ;
#52 = PLANE ( 'NONE',  #237 ) ;
#53 = ORIENTED_EDGE ( 'NONE', *, *, #42, .T. ) ;
#54 = CARTESIAN_POINT ( 'NONE',  ( 5.905511811023622200, 0.0000000000000000000, 0.0000000000000000000 ) ) ;
#55 = ORIENTED_EDGE ( 'NONE', *, *, #113, .T. ) ;
#56 = CARTESIAN_POINT ( 'NONE',  ( 0.0000000000000000000, 0.0000000000000000000, 0.0000000000000000000 ) ) ;
#57 = DIRECTION ( 'NONE',  ( -1.000000000000000000, -0.0000000000000000000, -0.0000000000000000000 ) ) ;
#58 = DIRECTION ( 'NONE',  ( 1.000000000000000000, 0.0000000000000000000, 0.0000000000000000000 ) ) ;
#59 =( CONVERSION_BASED_UNIT ( 'INCH', #48 ) LENGTH_UNIT ( ) NAMED_UNIT ( #207 ) );
#60 = CLOSED_SHELL ( 'NONE', ( #179, #92, #223, #68, #27, #206, #69, #46 ) ) ;
#61 = EDGE_CURVE ( 'NONE', #233, #233, #198, .T. ) ;
#62 = FACE_OUTER_BOUND ( 'NONE', #132, .T. ) ;
#63 = PERSON_AND_ORGANIZATION ( #235, #91 ) ;
#64 = EDGE_LOOP ( 'NONE', ( #240 ) ) ;
#65 = PERSON_AND_ORGANIZATION ( #235, #91 ) ;
#66 = ORIENTED_EDGE ( 'NONE', *, *, #14, .T. ) ;
#67 = EDGE_LOOP ( 'NONE', ( #94 ) ) ;
#68 = ADVANCED_FACE ( 'NONE', ( #70, #62 ), #176, .F. ) ;
#69 = ADVANCED_FACE ( 'NONE', ( #75, #16 ), #52, .T. ) ;
#70 = FACE_OUTER_BOUND ( 'NONE', #67, .T. ) ;
#71 = APPROVAL_PERSON_ORGANIZATION ( #31, #102, #229 ) ;
#72 = EDGE_LOOP ( 'NONE', ( #193 ) ) ;
#73 = PERSON_AND_ORGANIZATION_ROLE ( 'creator' ) ;
#74 = PERSON_AND_ORGANIZATION_ROLE ( 'design_supplier' ) ;
#75 = FACE_BOUND ( 'NONE', #93, .T. ) ;
#76 = LOCAL_TIME ( 10, 59, 14.00000000000000000, #13 ) ;
#77 = PRODUCT_DEFINITION ( 'UNKNOWN', '', #183, #157 ) ;
#78 = DATE_AND_TIME ( #23, #76 ) ;
#79 = DIRECTION ( 'NONE',  ( -1.000000000000000000, -0.0000000000000000000, -0.0000000000000000000 ) ) ;
#80 = DIRECTION ( 'NONE',  ( 1.000000000000000000, 0.0000000000000000000, 0.0000000000000000000 ) ) ;
#81 = CC_DESIGN_PERSON_AND_ORGANIZATION_ASSIGNMENT ( #65, #74, ( #183 ) ) ;
#82 = APPROVAL_STATUS ( 'not_yet_approved' ) ;
#83 = PERSON_AND_ORGANIZATION ( #235, #91 ) ;
#84 = PRODUCT_DEFINITION_SHAPE ( 'NONE', 'NONE',  #77 ) ;
#85 = DIRECTION ( 'NONE',  ( 0.0000000000000000000, 0.0000000000000000000, -1.000000000000000000 ) ) ;
#86 = VERTEX_POINT ( 'NONE', #136 ) ;
#87 = ORIENTED_EDGE ( 'NONE', *, *, #220, .T. ) ;
#88 = EDGE_LOOP ( 'NONE', ( #32 ) ) ;
#89 = APPROVAL_STATUS ( 'not_yet_approved' ) ;
#90 =( GEOMETRIC_REPRESENTATION_CONTEXT ( 3 ) GLOBAL_UNCERTAINTY_ASSIGNED_CONTEXT ( ( #123 ) ) GLOBAL_UNIT_ASSIGNED_CONTEXT ( ( #59, #22, #148 ) ) REPRESENTATION_CONTEXT ( 'NONE', 'WORKASPACE' ) );
#91 = ORGANIZATION ( 'UNSPECIFIED', 'UNSPECIFIED', '' ) ;
#92 = ADVANCED_FACE ( 'NONE', ( #159, #9 ), #224, .T. ) ;
#93 = EDGE_LOOP ( 'NONE', ( #53 ) ) ;
#94 = ORIENTED_EDGE ( 'NONE', *, *, #238, .F. ) ;
#95 = FACE_OUTER_BOUND ( 'NONE', #186, .T. ) ;
#96 = DIRECTION ( 'NONE',  ( 0.0000000000000000000, 0.0000000000000000000, -1.000000000000000000 ) ) ;
#97 = VERTEX_POINT ( 'NONE', #247 ) ;
#98 = CONICAL_SURFACE ( 'NONE', #116, 1.240157480314960600, 0.2543680585532659400 ) ;
#99 = DIRECTION ( 'NONE',  ( 0.0000000000000000000, 0.0000000000000000000, -1.000000000000000000 ) ) ;
#100 = DIRECTION ( 'NONE',  ( 0.0000000000000000000, 0.0000000000000000000, 1.000000000000000000 ) ) ;
#101 = DATE_AND_TIME ( #8, #155 ) ;
#102 = APPROVAL ( #89, 'UNSPECIFIED' ) ;
#103 = EDGE_LOOP ( 'NONE', ( #66 ) ) ;
#104 = CARTESIAN_POINT ( 'NONE',  ( 3.582677165354330600, 0.8031496062992123900, -1.967084221887909300E-016 ) ) ;
#105 = CARTESIAN_POINT ( 'NONE',  ( 2.598425196850394000, 0.0000000000000000000, 0.0000000000000000000 ) ) ;
#106 = EDGE_LOOP ( 'NONE', ( #172 ) ) ;
#107 = AXIS2_PLACEMENT_3D ( 'NONE', #180, #79, #234 ) ;
#108 = DIRECTION ( 'NONE',  ( 0.0000000000000000000, 1.000000000000000000, -2.449212707644750600E-016 ) ) ;
#109 = ORIENTED_EDGE ( 'NONE', *, *, #220, .F. ) ;
#110 = AXIS2_PLACEMENT_3D ( 'NONE', #28, #80, #85 ) ;
#111 = AXIS2_PLACEMENT_3D ( 'NONE', #125, #199, #168 ) ;
#112 = LOCAL_TIME ( 10, 59, 14.00000000000000000, #120 ) ;
#113 = EDGE_CURVE ( 'NONE', #152, #152, #190, .T. ) ;
#114 = CIRCLE ( 'NONE', #216, 1.011811023622047200 ) ;
#115 = APPLICATION_PROTOCOL_DEFINITION ( 'international standard', 'config_control_design', 1994, #2 ) ;
#116 = AXIS2_PLACEMENT_3D ( 'NONE', #44, #118, #122 ) ;
#117 = VERTEX_POINT ( 'NONE', #244 ) ;
#118 = DIRECTION ( 'NONE',  ( -1.000000000000000000, -0.0000000000000000000, 0.0000000000000000000 ) ) ;
#119 = EDGE_LOOP ( 'NONE', ( #227 ) ) ;
#120 = COORDINATED_UNIVERSAL_TIME_OFFSET ( 5, 0, .BEHIND. ) ;
#121 = CC_DESIGN_APPROVAL ( #102, ( #77 ) ) ;
#122 = DIRECTION ( 'NONE',  ( 0.0000000000000000000, 0.0000000000000000000, 1.000000000000000000 ) ) ;
#123 = UNCERTAINTY_MEASURE_WITH_UNIT (LENGTH_MEASURE( 1.000000000000000100E-005 ), #59, 'distance_accuracy_value', 'NONE');
#124 = DIRECTION ( 'NONE',  ( 0.0000000000000000000, 0.0000000000000000000, -1.000000000000000000 ) ) ;
#125 = CARTESIAN_POINT ( 'NONE',  ( 0.0000000000000000000, 1.125984251968503900, -2.757774938529133900E-016 ) ) ;
#126 = CIRCLE ( 'NONE', #107, 1.240157480314960600 ) ;
#127 = ORIENTED_EDGE ( 'NONE', *, *, #42, .F. ) ;
#128 = DIRECTION ( 'NONE',  ( 1.000000000000000000, 0.0000000000000000000, 0.0000000000000000000 ) ) ;
#129 = MECHANICAL_CONTEXT ( 'NONE', #167, 'mechanical' ) ;
#130 = DIRECTION ( 'NONE',  ( 0.0000000000000000000, 0.0000000000000000000, -1.000000000000000000 ) ) ;
#131 = CARTESIAN_POINT ( 'NONE',  ( 3.582677165354330600, 0.0000000000000000000, 0.0000000000000000000 ) ) ;
#132 = EDGE_LOOP ( 'NONE', ( #109 ) ) ;
#133 = EDGE_CURVE ( 'NONE', #97, #97, #210, .T. ) ;
#134 = APPROVAL_PERSON_ORGANIZATION ( #11, #177, #153 ) ;
#135 = DATE_TIME_ROLE ( 'creation_date' ) ;
#136 = CARTESIAN_POINT ( 'NONE',  ( 2.598425196850394000, 0.0000000000000000000, -1.240157480314960600 ) ) ;
#137 = ORIENTED_EDGE ( 'NONE', *, *, #113, .F. ) ;
#138 = AXIS2_PLACEMENT_3D ( 'NONE', #49, #141, #108 ) ;
#139 = COORDINATED_UNIVERSAL_TIME_OFFSET ( 5, 0, .BEHIND. ) ;
#140 = FACE_OUTER_BOUND ( 'NONE', #72, .T. ) ;
#141 = DIRECTION ( 'NONE',  ( -1.000000000000000000, 0.0000000000000000000, 0.0000000000000000000 ) ) ;
#142 = CARTESIAN_POINT ( 'NONE',  ( 0.0000000000000000000, 0.0000000000000000000, -1.240157480314960600 ) ) ;
#143 = VERTEX_POINT ( 'NONE', #4 ) ;
#144 = AXIS2_PLACEMENT_3D ( 'NONE', #158, #242, #248 ) ;
#145 = CC_DESIGN_PERSON_AND_ORGANIZATION_ASSIGNMENT ( #34, #73, ( #77 ) ) ;
#146 = PERSON_AND_ORGANIZATION_ROLE ( 'design_owner' ) ;
#147 = CARTESIAN_POINT ( 'NONE',  ( 1.299212598425197000, 0.0000000000000000000, 0.0000000000000000000 ) ) ;
#148 =( NAMED_UNIT ( * ) SI_UNIT ( $, .STERADIAN. ) SOLID_ANGLE_UNIT ( ) );
#149 = PERSON_AND_ORGANIZATION ( #235, #91 ) ;
#150 = ADVANCED_BREP_SHAPE_REPRESENTATION ( '581229251', ( #160, #185 ), #90 ) ;
#151 = AXIS2_PLACEMENT_3D ( 'NONE', #39, #57, #130 ) ;
#152 = VERTEX_POINT ( 'NONE', #142 ) ;
#153 = APPROVAL_ROLE ( '' ) ;
#154 = AXIS2_PLACEMENT_3D ( 'NONE', #131, #19, #26 ) ;
#155 = LOCAL_TIME ( 10, 59, 14.00000000000000000, #40 ) ;
#156 = AXIS2_PLACEMENT_3D ( 'NONE', #200, #174, #124 ) ;
#157 = DESIGN_CONTEXT ( 'detailed design', #2, 'design' ) ;
#158 = CARTESIAN_POINT ( 'NONE',  ( 1.299212598425197000, 0.0000000000000000000, 0.0000000000000000000 ) ) ;
#159 = FACE_OUTER_BOUND ( 'NONE', #209, .T. ) ;
#160 = MANIFOLD_SOLID_BREP ( '1', #60 ) ;
#161 = AXIS2_PLACEMENT_3D ( 'NONE', #201, #195, #243 ) ;
#162 = LOCAL_TIME ( 10, 59, 14.00000000000000000, #139 ) ;
#163 = APPROVAL ( #82, 'UNSPECIFIED' ) ;
#164 = APPLICATION_PROTOCOL_DEFINITION ( 'international standard', 'config_control_design', 1994, #167 ) ;
#165 = DIRECTION ( 'NONE',  ( 1.000000000000000000, 0.0000000000000000000, 0.0000000000000000000 ) ) ;
#166 = SECURITY_CLASSIFICATION ( '', '', #6 ) ;
#167 = APPLICATION_CONTEXT ( 'configuration controlled 3d designs of mechanical parts and assemblies' ) ;
#168 = DIRECTION ( 'NONE',  ( 0.0000000000000000000, 0.0000000000000000000, 1.000000000000000000 ) ) ;
#169 = CARTESIAN_POINT ( 'NONE',  ( 0.0000000000000000000, 0.0000000000000000000, 0.0000000000000000000 ) ) ;
#170 = FACE_OUTER_BOUND ( 'NONE', #106, .T. ) ;
#171 = CC_DESIGN_DATE_AND_TIME_ASSIGNMENT ( #78, #135, ( #77 ) ) ;
#172 = ORIENTED_EDGE ( 'NONE', *, *, #194, .T. ) ;
#173 = CYLINDRICAL_SURFACE ( 'NONE', #110, 0.9842519685039370400 ) ;
#174 = DIRECTION ( 'NONE',  ( 1.000000000000000000, 0.0000000000000000000, 0.0000000000000000000 ) ) ;
#175 = EDGE_LOOP ( 'NONE', ( #203 ) ) ;
#176 = CYLINDRICAL_SURFACE ( 'NONE', #144, 1.011811023622047200 ) ;
#177 = APPROVAL ( #191, 'UNSPECIFIED' ) ;
#178 = CALENDAR_DATE ( 2017, 31, 7 ) ;
#179 = ADVANCED_FACE ( 'NONE', ( #170, #95 ), #29, .T. ) ;
#180 = CARTESIAN_POINT ( 'NONE',  ( 2.598425196850394000, 0.0000000000000000000, 0.0000000000000000000 ) ) ;
#181 = CIRCLE ( 'NONE', #218, 1.011811023622047200 ) ;
#182 = PERSON_AND_ORGANIZATION_ROLE ( 'classification_officer' ) ;
#183 = PRODUCT_DEFINITION_FORMATION_WITH_SPECIFIED_SOURCE ( 'ANY', '', #43, .NOT_KNOWN. ) ;
#184 = VERTEX_POINT ( 'NONE', #214 ) ;
#185 = AXIS2_PLACEMENT_3D ( 'NONE', #56, #100, #217 ) ;
#186 = EDGE_LOOP ( 'NONE', ( #55 ) ) ;
#187 = LOCAL_TIME ( 10, 59, 14.00000000000000000, #10 ) ;
#188 = DIRECTION ( 'NONE',  ( 0.0000000000000000000, 0.0000000000000000000, -1.000000000000000000 ) ) ;
#189 = CYLINDRICAL_SURFACE ( 'NONE', #156, 0.8031496062992125000 ) ;
#190 = CIRCLE ( 'NONE', #7, 1.240157480314960600 ) ;
#191 = APPROVAL_STATUS ( 'not_yet_approved' ) ;
#192 = APPROVAL_DATE_TIME ( #101, #177 ) ;
#193 = ORIENTED_EDGE ( 'NONE', *, *, #238, .T. ) ;
#194 = EDGE_CURVE ( 'NONE', #86, #86, #126, .T. ) ;
#195 = DIRECTION ( 'NONE',  ( -1.000000000000000000, -0.0000000000000000000, 0.0000000000000000000 ) ) ;
#196 = CIRCLE ( 'NONE', #154, 0.8031496062992123900 ) ;
#197 = DATE_AND_TIME ( #38, #187 ) ;
#198 = CIRCLE ( 'NONE', #138, 0.9842519685039370400 ) ;
#199 = DIRECTION ( 'NONE',  ( -1.000000000000000000, 0.0000000000000000000, 0.0000000000000000000 ) ) ;
#200 = CARTESIAN_POINT ( 'NONE',  ( 4.744094488188975900, 0.0000000000000000000, 0.0000000000000000000 ) ) ;
#201 = CARTESIAN_POINT ( 'NONE',  ( 2.598425196850394000, 0.0000000000000000000, 0.0000000000000000000 ) ) ;
#202 = CC_DESIGN_PERSON_AND_ORGANIZATION_ASSIGNMENT ( #83, #146, ( #43 ) ) ;
#203 = ORIENTED_EDGE ( 'NONE', *, *, #133, .F. ) ;
#204 = APPROVAL_ROLE ( '' ) ;
#205 = EDGE_LOOP ( 'NONE', ( #87 ) ) ;
#206 = ADVANCED_FACE ( 'NONE', ( #236, #140 ), #228, .F. ) ;
#207 = DIMENSIONAL_EXPONENTS ( 1.000000000000000000, 0.0000000000000000000, 0.0000000000000000000, 0.0000000000000000000, 0.0000000000000000000, 0.0000000000000000000, 0.0000000000000000000 ) ;
#208 = CC_DESIGN_PERSON_AND_ORGANIZATION_ASSIGNMENT ( #63, #182, ( #166 ) ) ;
#209 = EDGE_LOOP ( 'NONE', ( #137 ) ) ;
#210 = CIRCLE ( 'NONE', #232, 0.9842519685039370400 ) ;
#211 = FACE_OUTER_BOUND ( 'NONE', #119, .T. ) ;
#212 = CC_DESIGN_DATE_AND_TIME_ASSIGNMENT ( #197, #213, ( #166 ) ) ;
#213 = DATE_TIME_ROLE ( 'classification_date' ) ;
#214 = CARTESIAN_POINT ( 'NONE',  ( 0.0000000000000000000, 0.0000000000000000000, -1.011811023622047200 ) ) ;
#215 = APPROVAL_DATE_TIME ( #33, #102 ) ;
#216 = AXIS2_PLACEMENT_3D ( 'NONE', #105, #36, #188 ) ;
#217 = DIRECTION ( 'NONE',  ( 1.000000000000000000, 0.0000000000000000000, 0.0000000000000000000 ) ) ;
#218 = AXIS2_PLACEMENT_3D ( 'NONE', #169, #58, #1 ) ;
#219 = EDGE_LOOP ( 'NONE', ( #15 ) ) ;
#220 = EDGE_CURVE ( 'NONE', #184, #184, #181, .T. ) ;
#221 = DATE_AND_TIME ( #251, #162 ) ;
#222 = CC_DESIGN_APPROVAL ( #177, ( #183 ) ) ;
#223 = ADVANCED_FACE ( 'NONE', ( #246, #17 ), #98, .T. ) ;
#224 = PLANE ( 'NONE',  #111 ) ;
#225 = DIRECTION ( 'NONE',  ( 0.0000000000000000000, 0.0000000000000000000, -1.000000000000000000 ) ) ;
#226 = FACE_OUTER_BOUND ( 'NONE', #103, .T. ) ;
#227 = ORIENTED_EDGE ( 'NONE', *, *, #61, .F. ) ;
#228 = CONICAL_SURFACE ( 'NONE', #161, 1.011811023622047700, 0.2089069469826351200 ) ;
#229 = APPROVAL_ROLE ( '' ) ;
#230 = EDGE_LOOP ( 'NONE', ( #50 ) ) ;
#231 = SHAPE_DEFINITION_REPRESENTATION ( #84, #150 ) ;
#232 = AXIS2_PLACEMENT_3D ( 'NONE', #54, #241, #225 ) ;
#233 = VERTEX_POINT ( 'NONE', #252 ) ;
#234 = DIRECTION ( 'NONE',  ( 0.0000000000000000000, 0.0000000000000000000, -1.000000000000000000 ) ) ;
#235 = PERSON ( 'UNSPECIFIED', 'UNSPECIFIED', 'UNSPECIFIED', ('UNSPECIFIED'), ('UNSPECIFIED'), ('UNSPECIFIED') ) ;
#236 = FACE_BOUND ( 'NONE', #230, .T. ) ;
#237 = AXIS2_PLACEMENT_3D ( 'NONE', #20, #41, #96 ) ;
#238 = EDGE_CURVE ( 'NONE', #143, #143, #114, .T. ) ;
#239 = FACE_OUTER_BOUND ( 'NONE', #88, .T. ) ;
#240 = ORIENTED_EDGE ( 'NONE', *, *, #194, .F. ) ;
#241 = DIRECTION ( 'NONE',  ( -1.000000000000000000, -0.0000000000000000000, -0.0000000000000000000 ) ) ;
#242 = DIRECTION ( 'NONE',  ( 1.000000000000000000, 0.0000000000000000000, 0.0000000000000000000 ) ) ;
#243 = DIRECTION ( 'NONE',  ( 0.0000000000000000000, 0.0000000000000000000, 1.000000000000000000 ) ) ;
#244 = CARTESIAN_POINT ( 'NONE',  ( 5.905511811023622200, 0.0000000000000000000, -0.8031496062992125000 ) ) ;
#245 = EDGE_LOOP ( 'NONE', ( #127 ) ) ;
#246 = FACE_BOUND ( 'NONE', #219, .T. ) ;
#247 = CARTESIAN_POINT ( 'NONE',  ( 5.905511811023622200, 0.0000000000000000000, -0.9842519685039370400 ) ) ;
#248 = DIRECTION ( 'NONE',  ( 0.0000000000000000000, 0.0000000000000000000, -1.000000000000000000 ) ) ;
#249 = FACE_OUTER_BOUND ( 'NONE', #245, .T. ) ;
#250 = PRODUCT_RELATED_PRODUCT_CATEGORY ( 'detail', '', ( #43 ) ) ;
#251 = CALENDAR_DATE ( 2017, 31, 7 ) ;
#252 = CARTESIAN_POINT ( 'NONE',  ( 3.582677165354330600, 0.9842519685039370400, -2.410642428784203200E-016 ) ) ;
ENDSEC;
END-ISO-10303-21;
