ISO-10303-21;
HEADER;
FILE_DESCRIPTION (( 'STEP AP203' ),
    '1' );
FILE_NAME ('581229338.STEP',
    '2017-07-31T15:01:12',
    ( '' ),
    ( '' ),
    'SwSTEP 2.0',
    'SolidWorks 2017',
    '' );
FILE_SCHEMA (( 'CONFIG_CONTROL_DESIGN' ));
ENDSEC;

DATA;
#1 = CC_DESIGN_APPROVAL ( #58, ( #116 ) ) ;
#2 = EDGE_LOOP ( 'NONE', ( #108 ) ) ;
#3 = ADVANCED_FACE ( 'NONE', ( #244, #69 ), #145, .F. ) ;
#4 = DIRECTION ( 'NONE',  ( 0.0000000000000000000, 5.551115123125790100E-017, 1.000000000000000000 ) ) ;
#5 = ADVANCED_FACE ( 'NONE', ( #30, #76 ), #238, .T. ) ;
#6 = VERTEX_POINT ( 'NONE', #43 ) ;
#7 = CYLINDRICAL_SURFACE ( 'NONE', #243, 1.771653543307084100 ) ;
#8 = FACE_BOUND ( 'NONE', #175, .T. ) ;
#9 = APPROVAL_PERSON_ORGANIZATION ( #41, #12, #125 ) ;
#10 = APPLICATION_CONTEXT ( 'configuration controlled 3d designs of mechanical parts and assemblies' ) ;
#11 = VERTEX_POINT ( 'NONE', #123 ) ;
#12 = APPROVAL ( #77, 'UNSPECIFIED' ) ;
#13 = DIRECTION ( 'NONE',  ( 0.0000000000000000000, -5.551115123125790100E-017, -1.000000000000000000 ) ) ;
#14 = AXIS2_PLACEMENT_3D ( 'NONE', #74, #251, #73 ) ;
#15 = APPLICATION_PROTOCOL_DEFINITION ( 'international standard', 'config_control_design', 1994, #10 ) ;
#16 = EDGE_LOOP ( 'NONE', ( #167 ) ) ;
#17 = APPROVAL_DATE_TIME ( #246, #104 ) ;
#18 = DIRECTION ( 'NONE',  ( 0.0000000000000000000, -5.551115123125790100E-017, -1.000000000000000000 ) ) ;
#19 = ORIENTED_EDGE ( 'NONE', *, *, #131, .T. ) ;
#20 = CIRCLE ( 'NONE', #207, 1.448818897637793400 ) ;
#21 =( CONVERSION_BASED_UNIT ( 'INCH', #57 ) LENGTH_UNIT ( ) NAMED_UNIT ( #182 ) );
#22 = FACE_OUTER_BOUND ( 'NONE', #197, .T. ) ;
#23 = VERTEX_POINT ( 'NONE', #161 ) ;
#24 = VERTEX_POINT ( 'NONE', #150 ) ;
#25 = DATE_AND_TIME ( #158, #242 ) ;
#26 =( NAMED_UNIT ( * ) PLANE_ANGLE_UNIT ( ) SI_UNIT ( $, .RADIAN. ) );
#27 = DIRECTION ( 'NONE',  ( 0.0000000000000000000, 0.0000000000000000000, 1.000000000000000000 ) ) ;
#28 = COORDINATED_UNIVERSAL_TIME_OFFSET ( 5, 0, .BEHIND. ) ;
#29 = PERSON_AND_ORGANIZATION_ROLE ( 'creator' ) ;
#30 = FACE_OUTER_BOUND ( 'NONE', #2, .T. ) ;
#31 = AXIS2_PLACEMENT_3D ( 'NONE', #90, #120, #217 ) ;
#32 = CALENDAR_DATE ( 2017, 31, 7 ) ;
#33 = ORIENTED_EDGE ( 'NONE', *, *, #71, .T. ) ;
#34 = PERSON_AND_ORGANIZATION ( #129, #181 ) ;
#35 = PLANE ( 'NONE',  #141 ) ;
#36 = AXIS2_PLACEMENT_3D ( 'NONE', #79, #185, #153 ) ;
#37 = CIRCLE ( 'NONE', #218, 1.771653543307084100 ) ;
#38 = CARTESIAN_POINT ( 'NONE',  ( 2.834645669291341100, 0.0000000000000000000, 0.0000000000000000000 ) ) ;
#39 = FACE_OUTER_BOUND ( 'NONE', #179, .T. ) ;
#40 = DIRECTION ( 'NONE',  ( -1.000000000000000000, -1.402076999513907700E-031, 2.072300620160665800E-031 ) ) ;
#41 = PERSON_AND_ORGANIZATION ( #129, #181 ) ;
#42 = DIRECTION ( 'NONE',  ( 2.141634098158609300E-031, -5.551115123125790100E-017, -1.000000000000000000 ) ) ;
#43 = CARTESIAN_POINT ( 'NONE',  ( 6.181102362204725900, -5.616679474973724900E-017, -1.011811023622045900 ) ) ;
#44 =( LENGTH_UNIT ( ) NAMED_UNIT ( * ) SI_UNIT ( $, .METRE. ) );
#45 = CARTESIAN_POINT ( 'NONE',  ( 6.181102362204725900, 0.0000000000000000000, 0.0000000000000000000 ) ) ;
#46 = CC_DESIGN_APPROVAL ( #12, ( #220 ) ) ;
#47 = DIRECTION ( 'NONE',  ( 0.0000000000000000000, -5.551115123125790100E-017, -1.000000000000000000 ) ) ;
#48 = LOCAL_TIME ( 11, 1, 12.00000000000000000, #195 ) ;
#49 = SHAPE_DEFINITION_REPRESENTATION ( #164, #252 ) ;
#50 = DIRECTION ( 'NONE',  ( 0.0000000000000000000, -5.551115123125790100E-017, -1.000000000000000000 ) ) ;
#51 = EDGE_LOOP ( 'NONE', ( #166 ) ) ;
#52 = AXIS2_PLACEMENT_3D ( 'NONE', #107, #27, #230 ) ;
#53 = CALENDAR_DATE ( 2017, 31, 7 ) ;
#54 = COORDINATED_UNIVERSAL_TIME_OFFSET ( 5, 0, .BEHIND. ) ;
#55 = DIRECTION ( 'NONE',  ( -1.000000000000000000, -1.402076999513907700E-031, 2.072300620160665800E-031 ) ) ;
#56 = CC_DESIGN_SECURITY_CLASSIFICATION ( #110, ( #116 ) ) ;
#57 = LENGTH_MEASURE_WITH_UNIT ( LENGTH_MEASURE( 0.02539999999999999900 ), #44 );
#58 = APPROVAL ( #219, 'UNSPECIFIED' ) ;
#59 = DATE_TIME_ROLE ( 'classification_date' ) ;
#60 = CYLINDRICAL_SURFACE ( 'NONE', #191, 1.448818897637793400 ) ;
#61 = ORIENTED_EDGE ( 'NONE', *, *, #210, .T. ) ;
#62 = PERSON_AND_ORGANIZATION ( #129, #181 ) ;
#63 = EDGE_LOOP ( 'NONE', ( #100 ) ) ;
#64 = ADVANCED_FACE ( 'NONE', ( #8, #159 ), #169, .T. ) ;
#65 = APPROVAL_ROLE ( '' ) ;
#66 = ORIENTED_EDGE ( 'NONE', *, *, #229, .T. ) ;
#67 = MECHANICAL_CONTEXT ( 'NONE', #132, 'mechanical' ) ;
#68 = CALENDAR_DATE ( 2017, 31, 7 ) ;
#69 = FACE_OUTER_BOUND ( 'NONE', #78, .T. ) ;
#70 = VERTEX_POINT ( 'NONE', #133 ) ;
#71 = EDGE_CURVE ( 'NONE', #168, #168, #237, .T. ) ;
#72 = DIRECTION ( 'NONE',  ( 0.0000000000000000000, 1.000000000000000000, -3.885780586188053300E-016 ) ) ;
#73 = DIRECTION ( 'NONE',  ( 0.0000000000000000000, -5.551115123125790100E-017, -1.000000000000000000 ) ) ;
#74 = CARTESIAN_POINT ( 'NONE',  ( 5.000000000000000000, 0.0000000000000000000, 0.0000000000000000000 ) ) ;
#75 = EDGE_LOOP ( 'NONE', ( #61 ) ) ;
#76 = FACE_BOUND ( 'NONE', #180, .T. ) ;
#77 = APPROVAL_STATUS ( 'not_yet_approved' ) ;
#78 = EDGE_LOOP ( 'NONE', ( #209 ) ) ;
#79 = CARTESIAN_POINT ( 'NONE',  ( 0.0000000000000000000, 1.610236220471066100, 0.0000000000000000000 ) ) ;
#80 = FACE_OUTER_BOUND ( 'NONE', #75, .T. ) ;
#81 = DESIGN_CONTEXT ( 'detailed design', #10, 'design' ) ;
#82 = PERSON_AND_ORGANIZATION ( #129, #181 ) ;
#83 = EDGE_LOOP ( 'NONE', ( #224 ) ) ;
#84 = PRODUCT ( '581229338', '581229338', '', ( #67 ) ) ;
#85 = CIRCLE ( 'NONE', #177, 1.240157480314959100 ) ;
#86 = CC_DESIGN_PERSON_AND_ORGANIZATION_ASSIGNMENT ( #234, #29, ( #116 ) ) ;
#87 = DIRECTION ( 'NONE',  ( -1.000000000000000000, -1.402076999513907700E-031, 2.072300620160665800E-031 ) ) ;
#88 = FACE_OUTER_BOUND ( 'NONE', #16, .T. ) ;
#89 = ORIENTED_EDGE ( 'NONE', *, *, #245, .T. ) ;
#90 = CARTESIAN_POINT ( 'NONE',  ( 6.181102362204725900, 0.0000000000000000000, 0.0000000000000000000 ) ) ;
#91 =( GEOMETRIC_REPRESENTATION_CONTEXT ( 3 ) GLOBAL_UNCERTAINTY_ASSIGNED_CONTEXT ( ( #144 ) ) GLOBAL_UNIT_ASSIGNED_CONTEXT ( ( #21, #26, #225 ) ) REPRESENTATION_CONTEXT ( 'NONE', 'WORKASPACE' ) );
#92 = DIRECTION ( 'NONE',  ( 2.141634098158608900E-031, -5.551115123125790100E-017, -1.000000000000000000 ) ) ;
#93 = DATE_AND_TIME ( #248, #194 ) ;
#94 = ADVANCED_FACE ( 'NONE', ( #88, #22 ), #176, .F. ) ;
#95 = DATE_TIME_ROLE ( 'creation_date' ) ;
#96 = CC_DESIGN_DATE_AND_TIME_ASSIGNMENT ( #25, #59, ( #110 ) ) ;
#97 = CC_DESIGN_PERSON_AND_ORGANIZATION_ASSIGNMENT ( #34, #140, ( #220 ) ) ;
#98 = CARTESIAN_POINT ( 'NONE',  ( 1.417322834645670500, 0.0000000000000000000, 0.0000000000000000000 ) ) ;
#99 = COORDINATED_UNIVERSAL_TIME_OFFSET ( 5, 0, .BEHIND. ) ;
#100 = ORIENTED_EDGE ( 'NONE', *, *, #245, .F. ) ;
#101 = DIRECTION ( 'NONE',  ( -1.000000000000000000, -1.402076999513907700E-031, 2.072300620160665800E-031 ) ) ;
#102 = FACE_OUTER_BOUND ( 'NONE', #211, .T. ) ;
#103 = EDGE_LOOP ( 'NONE', ( #215 ) ) ;
#104 = APPROVAL ( #240, 'UNSPECIFIED' ) ;
#105 = DIRECTION ( 'NONE',  ( 0.0000000000000000000, -5.551115123125790100E-017, -1.000000000000000000 ) ) ;
#106 = ADVANCED_FACE ( 'NONE', ( #102, #135 ), #60, .F. ) ;
#107 = CARTESIAN_POINT ( 'NONE',  ( 0.0000000000000000000, 0.0000000000000000000, 0.0000000000000000000 ) ) ;
#108 = ORIENTED_EDGE ( 'NONE', *, *, #138, .F. ) ;
#109 = ADVANCED_FACE ( 'NONE', ( #80, #186 ), #7, .T. ) ;
#110 = SECURITY_CLASSIFICATION ( '', '', #151 ) ;
#111 = CC_DESIGN_DATE_AND_TIME_ASSIGNMENT ( #239, #95, ( #220 ) ) ;
#112 = CC_DESIGN_APPROVAL ( #104, ( #110 ) ) ;
#113 = APPLICATION_PROTOCOL_DEFINITION ( 'international standard', 'config_control_design', 1994, #132 ) ;
#114 = CC_DESIGN_PERSON_AND_ORGANIZATION_ASSIGNMENT ( #82, #136, ( #84 ) ) ;
#115 = EDGE_LOOP ( 'NONE', ( #249 ) ) ;
#116 = PRODUCT_DEFINITION_FORMATION_WITH_SPECIFIED_SOURCE ( 'ANY', '', #84, .NOT_KNOWN. ) ;
#117 = AXIS2_PLACEMENT_3D ( 'NONE', #38, #200, #13 ) ;
#118 = CARTESIAN_POINT ( 'NONE',  ( 3.818897637795274600, 1.240157480314959100, -4.818979860823760000E-016 ) ) ;
#119 = DIRECTION ( 'NONE',  ( -1.000000000000000000, -1.402076999513907700E-031, 2.072300620160665800E-031 ) ) ;
#120 = DIRECTION ( 'NONE',  ( -1.000000000000000000, -1.402076999513907700E-031, 2.072300620160665800E-031 ) ) ;
#121 = AXIS2_PLACEMENT_3D ( 'NONE', #206, #101, #72 ) ;
#122 = CARTESIAN_POINT ( 'NONE',  ( 2.834645669291341100, 0.0000000000000000000, 0.0000000000000000000 ) ) ;
#123 = CARTESIAN_POINT ( 'NONE',  ( 2.834645669291341100, -8.042560493347591200E-017, -1.448818897637793400 ) ) ;
#124 = CYLINDRICAL_SURFACE ( 'NONE', #214, 1.240157480314959100 ) ;
#125 = APPROVAL_ROLE ( '' ) ;
#126 = FACE_BOUND ( 'NONE', #236, .T. ) ;
#127 = CARTESIAN_POINT ( 'NONE',  ( 3.102839953237665700E-031, -8.042560493347591200E-017, -1.448818897637793400 ) ) ;
#128 = DIRECTION ( 'NONE',  ( 1.000000000000000000, 1.402076999513907900E-031, 2.141634098158608900E-031 ) ) ;
#129 = PERSON ( 'UNSPECIFIED', 'UNSPECIFIED', 'UNSPECIFIED', ('UNSPECIFIED'), ('UNSPECIFIED'), ('UNSPECIFIED') ) ;
#130 = DIRECTION ( 'NONE',  ( 1.000000000000000000, 1.402076999513907700E-031, -2.072300620160665800E-031 ) ) ;
#131 = EDGE_CURVE ( 'NONE', #6, #6, #202, .T. ) ;
#132 = APPLICATION_CONTEXT ( 'configuration controlled 3d designs of mechanical parts and assemblies' ) ;
#133 = CARTESIAN_POINT ( 'NONE',  ( 3.794233638469971700E-031, -9.834652777191347100E-017, -1.771653543307084100 ) ) ;
#134 = CARTESIAN_POINT ( 'NONE',  ( 3.818897637795274600, 1.011811023622046300, -3.931675632481609400E-016 ) ) ;
#135 = FACE_OUTER_BOUND ( 'NONE', #63, .T. ) ;
#136 = PERSON_AND_ORGANIZATION_ROLE ( 'design_owner' ) ;
#137 = MANIFOLD_SOLID_BREP ( '1', #178 ) ;
#138 = EDGE_CURVE ( 'NONE', #70, #70, #37, .T. ) ;
#139 = CARTESIAN_POINT ( 'NONE',  ( 0.0000000000000000000, 0.0000000000000000000, 0.0000000000000000000 ) ) ;
#140 = PERSON_AND_ORGANIZATION_ROLE ( 'creator' ) ;
#141 = AXIS2_PLACEMENT_3D ( 'NONE', #154, #128, #212 ) ;
#142 = VERTEX_POINT ( 'NONE', #134 ) ;
#143 = EDGE_CURVE ( 'NONE', #11, #11, #222, .T. ) ;
#144 = UNCERTAINTY_MEASURE_WITH_UNIT (LENGTH_MEASURE( 1.000000000000000100E-005 ), #21, 'distance_accuracy_value', 'NONE');
#145 = CONICAL_SURFACE ( 'NONE', #189, 1.448818897637792900, 0.4178531343475759800 ) ;
#146 = CC_DESIGN_PERSON_AND_ORGANIZATION_ASSIGNMENT ( #204, #208, ( #116 ) ) ;
#147 = PRODUCT_RELATED_PRODUCT_CATEGORY ( 'detail', '', ( #84 ) ) ;
#148 = FACE_OUTER_BOUND ( 'NONE', #103, .T. ) ;
#149 = ORIENTED_EDGE ( 'NONE', *, *, #143, .F. ) ;
#150 = CARTESIAN_POINT ( 'NONE',  ( 2.834645669291341100, -9.834652777191347100E-017, -1.771653543307084100 ) ) ;
#151 = SECURITY_CLASSIFICATION_LEVEL ( 'unclassified' ) ;
#152 = ORIENTED_EDGE ( 'NONE', *, *, #205, .F. ) ;
#153 = DIRECTION ( 'NONE',  ( -2.141634098158608900E-031, 5.551115123125790100E-017, 1.000000000000000000 ) ) ;
#154 = CARTESIAN_POINT ( 'NONE',  ( 6.181102362204725900, 1.125984251882796700, 0.0000000000000000000 ) ) ;
#155 = DIRECTION ( 'NONE',  ( 1.000000000000000000, 1.402076999513907700E-031, -2.072300620160665800E-031 ) ) ;
#156 = DIRECTION ( 'NONE',  ( 1.000000000000000000, 1.402076999513907700E-031, -2.072300620160665800E-031 ) ) ;
#157 = CIRCLE ( 'NONE', #117, 1.771653543307084100 ) ;
#158 = CALENDAR_DATE ( 2017, 31, 7 ) ;
#159 = FACE_OUTER_BOUND ( 'NONE', #115, .T. ) ;
#160 = ADVANCED_FACE ( 'NONE', ( #148, #39 ), #124, .T. ) ;
#161 = CARTESIAN_POINT ( 'NONE',  ( 6.181102362204725900, -6.884256944033943200E-017, -1.240157480314959100 ) ) ;
#162 = ORIENTED_EDGE ( 'NONE', *, *, #71, .F. ) ;
#163 = CARTESIAN_POINT ( 'NONE',  ( 2.834645669291341100, 0.0000000000000000000, 0.0000000000000000000 ) ) ;
#164 = PRODUCT_DEFINITION_SHAPE ( 'NONE', 'NONE',  #220 ) ;
#165 = LOCAL_TIME ( 11, 1, 12.00000000000000000, #28 ) ;
#166 = ORIENTED_EDGE ( 'NONE', *, *, #138, .T. ) ;
#167 = ORIENTED_EDGE ( 'NONE', *, *, #131, .F. ) ;
#168 = VERTEX_POINT ( 'NONE', #118 ) ;
#169 = CONICAL_SURFACE ( 'NONE', #228, 1.771653543307084100, 0.4951332634684039200 ) ;
#170 = DIRECTION ( 'NONE',  ( 1.000000000000000000, 1.402076999513907700E-031, -2.072300620160665800E-031 ) ) ;
#171 = EDGE_LOOP ( 'NONE', ( #152 ) ) ;
#172 = PERSON_AND_ORGANIZATION ( #129, #181 ) ;
#173 = APPROVAL_PERSON_ORGANIZATION ( #172, #58, #65 ) ;
#174 = CARTESIAN_POINT ( 'NONE',  ( 2.834645669291341100, 0.0000000000000000000, 0.0000000000000000000 ) ) ;
#175 = EDGE_LOOP ( 'NONE', ( #33 ) ) ;
#176 = CYLINDRICAL_SURFACE ( 'NONE', #14, 1.011811023622045900 ) ;
#177 = AXIS2_PLACEMENT_3D ( 'NONE', #45, #55, #105 ) ;
#178 = CLOSED_SHELL ( 'NONE', ( #109, #5, #64, #106, #160, #3, #216, #94 ) ) ;
#179 = EDGE_LOOP ( 'NONE', ( #162 ) ) ;
#180 = EDGE_LOOP ( 'NONE', ( #89 ) ) ;
#181 = ORGANIZATION ( 'UNSPECIFIED', 'UNSPECIFIED', '' ) ;
#182 = DIMENSIONAL_EXPONENTS ( 1.000000000000000000, 0.0000000000000000000, 0.0000000000000000000, 0.0000000000000000000, 0.0000000000000000000, 0.0000000000000000000, 0.0000000000000000000 ) ;
#183 = FACE_OUTER_BOUND ( 'NONE', #171, .T. ) ;
#184 = VERTEX_POINT ( 'NONE', #127 ) ;
#185 = DIRECTION ( 'NONE',  ( -1.000000000000000000, -1.402076999513907900E-031, -2.141634098158608900E-031 ) ) ;
#186 = FACE_OUTER_BOUND ( 'NONE', #51, .T. ) ;
#187 = PERSON_AND_ORGANIZATION ( #129, #181 ) ;
#188 = DIRECTION ( 'NONE',  ( 0.0000000000000000000, 5.551115123125790100E-017, 1.000000000000000000 ) ) ;
#189 = AXIS2_PLACEMENT_3D ( 'NONE', #122, #87, #188 ) ;
#190 = CIRCLE ( 'NONE', #121, 1.011811023622046300 ) ;
#191 = AXIS2_PLACEMENT_3D ( 'NONE', #98, #192, #18 ) ;
#192 = DIRECTION ( 'NONE',  ( 1.000000000000000000, 1.402076999513907700E-031, -2.072300620160665800E-031 ) ) ;
#193 = DIRECTION ( 'NONE',  ( 0.0000000000000000000, -5.551115123125790100E-017, -1.000000000000000000 ) ) ;
#194 = LOCAL_TIME ( 11, 1, 12.00000000000000000, #99 ) ;
#195 = COORDINATED_UNIVERSAL_TIME_OFFSET ( 5, 0, .BEHIND. ) ;
#196 = DIRECTION ( 'NONE',  ( 0.0000000000000000000, 1.000000000000000000, -3.885780586188052300E-016 ) ) ;
#197 = EDGE_LOOP ( 'NONE', ( #66 ) ) ;
#198 = APPROVAL_ROLE ( '' ) ;
#199 = CARTESIAN_POINT ( 'NONE',  ( 3.818897637795274600, 0.0000000000000000000, 0.0000000000000000000 ) ) ;
#200 = DIRECTION ( 'NONE',  ( -1.000000000000000000, -1.402076999513907700E-031, 2.072300620160665800E-031 ) ) ;
#201 = CARTESIAN_POINT ( 'NONE',  ( 0.0000000000000000000, 0.0000000000000000000, 0.0000000000000000000 ) ) ;
#202 = CIRCLE ( 'NONE', #31, 1.011811023622045900 ) ;
#203 = DATE_AND_TIME ( #53, #48 ) ;
#204 = PERSON_AND_ORGANIZATION ( #129, #181 ) ;
#205 = EDGE_CURVE ( 'NONE', #23, #23, #85, .T. ) ;
#206 = CARTESIAN_POINT ( 'NONE',  ( 3.818897637795274600, 0.0000000000000000000, 0.0000000000000000000 ) ) ;
#207 = AXIS2_PLACEMENT_3D ( 'NONE', #139, #156, #92 ) ;
#208 = PERSON_AND_ORGANIZATION_ROLE ( 'design_supplier' ) ;
#209 = ORIENTED_EDGE ( 'NONE', *, *, #143, .T. ) ;
#210 = EDGE_CURVE ( 'NONE', #24, #24, #157, .T. ) ;
#211 = EDGE_LOOP ( 'NONE', ( #149 ) ) ;
#212 = DIRECTION ( 'NONE',  ( 2.141634098158608900E-031, -5.551115123125790100E-017, -1.000000000000000000 ) ) ;
#213 = AXIS2_PLACEMENT_3D ( 'NONE', #199, #227, #196 ) ;
#214 = AXIS2_PLACEMENT_3D ( 'NONE', #233, #170, #50 ) ;
#215 = ORIENTED_EDGE ( 'NONE', *, *, #205, .T. ) ;
#216 = ADVANCED_FACE ( 'NONE', ( #126, #183 ), #35, .T. ) ;
#217 = DIRECTION ( 'NONE',  ( 0.0000000000000000000, -5.551115123125790100E-017, -1.000000000000000000 ) ) ;
#218 = AXIS2_PLACEMENT_3D ( 'NONE', #201, #130, #42 ) ;
#219 = APPROVAL_STATUS ( 'not_yet_approved' ) ;
#220 = PRODUCT_DEFINITION ( 'UNKNOWN', '', #116, #81 ) ;
#221 = APPROVAL_PERSON_ORGANIZATION ( #62, #104, #198 ) ;
#222 = CIRCLE ( 'NONE', #241, 1.448818897637793400 ) ;
#223 = CARTESIAN_POINT ( 'NONE',  ( 1.417322834645670500, 0.0000000000000000000, 0.0000000000000000000 ) ) ;
#224 = ORIENTED_EDGE ( 'NONE', *, *, #229, .F. ) ;
#225 =( NAMED_UNIT ( * ) SI_UNIT ( $, .STERADIAN. ) SOLID_ANGLE_UNIT ( ) );
#226 = APPROVAL_DATE_TIME ( #203, #12 ) ;
#227 = DIRECTION ( 'NONE',  ( -1.000000000000000000, -1.402076999513907700E-031, 2.072300620160665800E-031 ) ) ;
#228 = AXIS2_PLACEMENT_3D ( 'NONE', #163, #119, #4 ) ;
#229 = EDGE_CURVE ( 'NONE', #142, #142, #190, .T. ) ;
#230 = DIRECTION ( 'NONE',  ( 1.000000000000000000, 0.0000000000000000000, 0.0000000000000000000 ) ) ;
#231 = COORDINATED_UNIVERSAL_TIME_OFFSET ( 5, 0, .BEHIND. ) ;
#232 = LOCAL_TIME ( 11, 1, 12.00000000000000000, #231 ) ;
#233 = CARTESIAN_POINT ( 'NONE',  ( 5.000000000000000000, 0.0000000000000000000, 0.0000000000000000000 ) ) ;
#234 = PERSON_AND_ORGANIZATION ( #129, #181 ) ;
#235 = APPROVAL_DATE_TIME ( #93, #58 ) ;
#236 = EDGE_LOOP ( 'NONE', ( #19 ) ) ;
#237 = CIRCLE ( 'NONE', #213, 1.240157480314959100 ) ;
#238 = PLANE ( 'NONE',  #36 ) ;
#239 = DATE_AND_TIME ( #68, #165 ) ;
#240 = APPROVAL_STATUS ( 'not_yet_approved' ) ;
#241 = AXIS2_PLACEMENT_3D ( 'NONE', #174, #40, #193 ) ;
#242 = LOCAL_TIME ( 11, 1, 12.00000000000000000, #54 ) ;
#243 = AXIS2_PLACEMENT_3D ( 'NONE', #223, #155, #47 ) ;
#244 = FACE_BOUND ( 'NONE', #83, .T. ) ;
#245 = EDGE_CURVE ( 'NONE', #184, #184, #20, .T. ) ;
#246 = DATE_AND_TIME ( #32, #232 ) ;
#247 = CC_DESIGN_PERSON_AND_ORGANIZATION_ASSIGNMENT ( #187, #250, ( #110 ) ) ;
#248 = CALENDAR_DATE ( 2017, 31, 7 ) ;
#249 = ORIENTED_EDGE ( 'NONE', *, *, #210, .F. ) ;
#250 = PERSON_AND_ORGANIZATION_ROLE ( 'classification_officer' ) ;
#251 = DIRECTION ( 'NONE',  ( 1.000000000000000000, 1.402076999513907700E-031, -2.072300620160665800E-031 ) ) ;
#252 = ADVANCED_BREP_SHAPE_REPRESENTATION ( '581229338', ( #137, #52 ), #91 ) ;
ENDSEC;
END-ISO-10303-21;
