ISO-10303-21;
HEADER;
FILE_DESCRIPTION (( 'STEP AP203' ),
    '1' );
FILE_NAME ('581229420.STEP',
    '2017-07-31T15:02:22',
    ( '' ),
    ( '' ),
    'SwSTEP 2.0',
    'SolidWorks 2017',
    '' );
FILE_SCHEMA (( 'CONFIG_CONTROL_DESIGN' ));
ENDSEC;

DATA;
#1 = CYLINDRICAL_SURFACE ( 'NONE', #134, 2.165354330708661600 ) ;
#2 = AXIS2_PLACEMENT_3D ( 'NONE', #209, #249, #199 ) ;
#3 = EDGE_LOOP ( 'NONE', ( #90 ) ) ;
#4 = DATE_TIME_ROLE ( 'creation_date' ) ;
#5 = SECURITY_CLASSIFICATION ( '', '', #239 ) ;
#6 = CC_DESIGN_APPROVAL ( #220, ( #113 ) ) ;
#7 = DESIGN_CONTEXT ( 'detailed design', #28, 'design' ) ;
#8 = DIRECTION ( 'NONE',  ( 1.000000000000000000, 0.0000000000000000000, 0.0000000000000000000 ) ) ;
#9 = CARTESIAN_POINT ( 'NONE',  ( 3.267716535433071300, 0.0000000000000000000, -1.771653543307086600 ) ) ;
#10 = FACE_OUTER_BOUND ( 'NONE', #80, .T. ) ;
#11 = MANIFOLD_SOLID_BREP ( '1', #19 ) ;
#12 = DIRECTION ( 'NONE',  ( 0.0000000000000000000, 0.0000000000000000000, -1.000000000000000000 ) ) ;
#13 = CARTESIAN_POINT ( 'NONE',  ( 1.633858267716535600, 0.0000000000000000000, 0.0000000000000000000 ) ) ;
#14 =( NAMED_UNIT ( * ) PLANE_ANGLE_UNIT ( ) SI_UNIT ( $, .RADIAN. ) );
#15 = AXIS2_PLACEMENT_3D ( 'NONE', #36, #42, #38 ) ;
#16 = DATE_AND_TIME ( #164, #126 ) ;
#17 = VERTEX_POINT ( 'NONE', #9 ) ;
#18 = APPROVAL_STATUS ( 'not_yet_approved' ) ;
#19 = CLOSED_SHELL ( 'NONE', ( #50, #44, #234, #69, #235, #133, #29, #204 ) ) ;
#20 = AXIS2_PLACEMENT_3D ( 'NONE', #108, #238, #166 ) ;
#21 = CALENDAR_DATE ( 2017, 31, 7 ) ;
#22 = CARTESIAN_POINT ( 'NONE',  ( 4.606299212598425900, 1.240157480314960600, -3.037409460268095600E-016 ) ) ;
#23 = EDGE_LOOP ( 'NONE', ( #250 ) ) ;
#24 = DIRECTION ( 'NONE',  ( 1.000000000000000000, 0.0000000000000000000, 0.0000000000000000000 ) ) ;
#25 = FACE_OUTER_BOUND ( 'NONE', #156, .T. ) ;
#26 = CARTESIAN_POINT ( 'NONE',  ( 0.0000000000000000000, 0.0000000000000000000, -1.771653543307086600 ) ) ;
#27 = AXIS2_PLACEMENT_3D ( 'NONE', #58, #181, #49 ) ;
#28 = APPLICATION_CONTEXT ( 'configuration controlled 3d designs of mechanical parts and assemblies' ) ;
#29 = ADVANCED_FACE ( 'NONE', ( #77, #248 ), #35, .T. ) ;
#30 = CC_DESIGN_PERSON_AND_ORGANIZATION_ASSIGNMENT ( #64, #106, ( #5 ) ) ;
#31 = APPROVAL_DATE_TIME ( #197, #220 ) ;
#32 = AXIS2_PLACEMENT_3D ( 'NONE', #150, #218, #81 ) ;
#33 = EDGE_LOOP ( 'NONE', ( #194 ) ) ;
#34 = PRODUCT_RELATED_PRODUCT_CATEGORY ( 'detail', '', ( #57 ) ) ;
#35 = PLANE ( 'NONE',  #202 ) ;
#36 = CARTESIAN_POINT ( 'NONE',  ( 3.267716535433071300, 8.245897940889922800E-064, 2.673808048362744000E-048 ) ) ;
#37 = CARTESIAN_POINT ( 'NONE',  ( 3.267716535433071300, 0.0000000000000000000, -2.165354330708661600 ) ) ;
#38 = DIRECTION ( 'NONE',  ( 3.083952846180990300E-016, 0.0000000000000000000, 1.000000000000000000 ) ) ;
#39 = APPROVAL_PERSON_ORGANIZATION ( #41, #173, #129 ) ;
#40 = DIRECTION ( 'NONE',  ( 0.0000000000000000000, 1.000000000000000000, -2.449212707644750100E-016 ) ) ;
#41 = PERSON_AND_ORGANIZATION ( #242, #217 ) ;
#42 = DIRECTION ( 'NONE',  ( -1.000000000000000000, 4.755382578733914900E-032, 1.541976423090495100E-016 ) ) ;
#43 = FACE_OUTER_BOUND ( 'NONE', #96, .T. ) ;
#44 = ADVANCED_FACE ( 'NONE', ( #247, #184 ), #110, .T. ) ;
#45 = DIRECTION ( 'NONE',  ( -1.000000000000000000, -0.0000000000000000000, -0.0000000000000000000 ) ) ;
#46 = EDGE_CURVE ( 'NONE', #17, #17, #172, .T. ) ;
#47 = PERSON_AND_ORGANIZATION ( #242, #217 ) ;
#48 = AXIS2_PLACEMENT_3D ( 'NONE', #61, #132, #40 ) ;
#49 = DIRECTION ( 'NONE',  ( -0.0000000000000000000, 0.0000000000000000000, 1.000000000000000000 ) ) ;
#50 = ADVANCED_FACE ( 'NONE', ( #25, #178 ), #1, .T. ) ;
#51 = FACE_OUTER_BOUND ( 'NONE', #148, .T. ) ;
#52 = APPROVAL_PERSON_ORGANIZATION ( #55, #220, #120 ) ;
#53 = AXIS2_PLACEMENT_3D ( 'NONE', #94, #144, #180 ) ;
#54 = DATE_AND_TIME ( #136, #252 ) ;
#55 = PERSON_AND_ORGANIZATION ( #242, #217 ) ;
#56 = AXIS2_PLACEMENT_3D ( 'NONE', #85, #201, #236 ) ;
#57 = PRODUCT ( '581229420', '581229420', '', ( #229 ) ) ;
#58 = CARTESIAN_POINT ( 'NONE',  ( 0.0000000000000000000, 1.968503937007874100, -4.821284857568425000E-016 ) ) ;
#59 = CARTESIAN_POINT ( 'NONE',  ( 7.086614173228346300, 0.0000000000000000000, -1.240157480314960600 ) ) ;
#60 = LOCAL_TIME ( 11, 2, 22.00000000000000000, #251 ) ;
#61 = CARTESIAN_POINT ( 'NONE',  ( 4.606299212598425900, 0.0000000000000000000, 0.0000000000000000000 ) ) ;
#62 = ORIENTED_EDGE ( 'NONE', *, *, #135, .F. ) ;
#63 = PERSON_AND_ORGANIZATION ( #242, #217 ) ;
#64 = PERSON_AND_ORGANIZATION ( #242, #217 ) ;
#65 = APPROVAL_PERSON_ORGANIZATION ( #47, #89, #111 ) ;
#66 = CARTESIAN_POINT ( 'NONE',  ( 5.846456692913386100, 0.0000000000000000000, 0.0000000000000000000 ) ) ;
#67 = EDGE_LOOP ( 'NONE', ( #142 ) ) ;
#68 = ORIENTED_EDGE ( 'NONE', *, *, #193, .F. ) ;
#69 = ADVANCED_FACE ( 'NONE', ( #211, #43 ), #160, .F. ) ;
#70 = DIRECTION ( 'NONE',  ( 0.0000000000000000000, 0.0000000000000000000, 1.000000000000000000 ) ) ;
#71 = APPLICATION_PROTOCOL_DEFINITION ( 'international standard', 'config_control_design', 1994, #28 ) ;
#72 = ORIENTED_EDGE ( 'NONE', *, *, #86, .T. ) ;
#73 = CARTESIAN_POINT ( 'NONE',  ( 5.846456692913386100, 0.0000000000000000000, 0.0000000000000000000 ) ) ;
#74 = DIRECTION ( 'NONE',  ( 1.000000000000000000, 0.0000000000000000000, 0.0000000000000000000 ) ) ;
#75 = DIRECTION ( 'NONE',  ( 1.000000000000000000, 0.0000000000000000000, 0.0000000000000000000 ) ) ;
#76 = CARTESIAN_POINT ( 'NONE',  ( 4.606299212598425000, 1.011811023622047200, -2.478140416790160800E-016 ) ) ;
#77 = FACE_BOUND ( 'NONE', #23, .T. ) ;
#78 =( NAMED_UNIT ( * ) SI_UNIT ( $, .STERADIAN. ) SOLID_ANGLE_UNIT ( ) );
#79 = DATE_AND_TIME ( #102, #219 ) ;
#80 = EDGE_LOOP ( 'NONE', ( #240 ) ) ;
#81 = DIRECTION ( 'NONE',  ( 0.0000000000000000000, 1.000000000000000000, -2.449212707644750600E-016 ) ) ;
#82 = AXIS2_PLACEMENT_3D ( 'NONE', #205, #24, #185 ) ;
#83 = COORDINATED_UNIVERSAL_TIME_OFFSET ( 5, 0, .BEHIND. ) ;
#84 = EDGE_LOOP ( 'NONE', ( #68 ) ) ;
#85 = CARTESIAN_POINT ( 'NONE',  ( 7.086614173228346300, 0.0000000000000000000, 0.0000000000000000000 ) ) ;
#86 = EDGE_CURVE ( 'NONE', #190, #190, #117, .T. ) ;
#87 = CIRCLE ( 'NONE', #32, 1.011811023622047200 ) ;
#88 = COORDINATED_UNIVERSAL_TIME_OFFSET ( 5, 0, .BEHIND. ) ;
#89 = APPROVAL ( #141, 'UNSPECIFIED' ) ;
#90 = ORIENTED_EDGE ( 'NONE', *, *, #165, .T. ) ;
#91 = ORIENTED_EDGE ( 'NONE', *, *, #135, .T. ) ;
#92 = ORIENTED_EDGE ( 'NONE', *, *, #193, .T. ) ;
#93 = EDGE_CURVE ( 'NONE', #158, #158, #147, .T. ) ;
#94 = CARTESIAN_POINT ( 'NONE',  ( 3.267716535433071300, 0.0000000000000000000, 0.0000000000000000000 ) ) ;
#95 = CC_DESIGN_APPROVAL ( #89, ( #221 ) ) ;
#96 = EDGE_LOOP ( 'NONE', ( #62 ) ) ;
#97 = CARTESIAN_POINT ( 'NONE',  ( 7.086614173228346300, 0.0000000000000000000, -1.011811023622047200 ) ) ;
#98 = CARTESIAN_POINT ( 'NONE',  ( 0.0000000000000000000, 0.0000000000000000000, 0.0000000000000000000 ) ) ;
#99 = CC_DESIGN_DATE_AND_TIME_ASSIGNMENT ( #118, #4, ( #221 ) ) ;
#100 = CARTESIAN_POINT ( 'NONE',  ( 3.267716535433071300, 0.0000000000000000000, 0.0000000000000000000 ) ) ;
#101 = CALENDAR_DATE ( 2017, 31, 7 ) ;
#102 = CALENDAR_DATE ( 2017, 31, 7 ) ;
#103 = CARTESIAN_POINT ( 'NONE',  ( 7.086614173228346300, 1.125984251968503900, -2.757774938529133900E-016 ) ) ;
#104 = PERSON_AND_ORGANIZATION_ROLE ( 'design_supplier' ) ;
#105 = FACE_BOUND ( 'NONE', #170, .T. ) ;
#106 = PERSON_AND_ORGANIZATION_ROLE ( 'classification_officer' ) ;
#107 = FACE_OUTER_BOUND ( 'NONE', #33, .T. ) ;
#108 = CARTESIAN_POINT ( 'NONE',  ( 7.086614173228346300, 0.0000000000000000000, 0.0000000000000000000 ) ) ;
#109 = UNCERTAINTY_MEASURE_WITH_UNIT (LENGTH_MEASURE( 1.000000000000000100E-005 ), #162, 'distance_accuracy_value', 'NONE');
#110 = PLANE ( 'NONE',  #27 ) ;
#111 = APPROVAL_ROLE ( '' ) ;
#112 = CIRCLE ( 'NONE', #207, 1.771653543307086600 ) ;
#113 = PRODUCT_DEFINITION_FORMATION_WITH_SPECIFIED_SOURCE ( 'ANY', '', #57, .NOT_KNOWN. ) ;
#114 = APPLICATION_PROTOCOL_DEFINITION ( 'international standard', 'config_control_design', 1994, #122 ) ;
#115 = DIRECTION ( 'NONE',  ( 0.0000000000000000000, 0.0000000000000000000, -1.000000000000000000 ) ) ;
#116 = EDGE_LOOP ( 'NONE', ( #222 ) ) ;
#117 = CIRCLE ( 'NONE', #53, 2.165354330708661600 ) ;
#118 = DATE_AND_TIME ( #101, #169 ) ;
#119 = AXIS2_PLACEMENT_3D ( 'NONE', #130, #74, #214 ) ;
#120 = APPROVAL_ROLE ( '' ) ;
#121 = CC_DESIGN_DATE_AND_TIME_ASSIGNMENT ( #79, #210, ( #5 ) ) ;
#122 = APPLICATION_CONTEXT ( 'configuration controlled 3d designs of mechanical parts and assemblies' ) ;
#123 = CIRCLE ( 'NONE', #48, 1.240157480314960600 ) ;
#124 = EDGE_CURVE ( 'NONE', #198, #198, #230, .T. ) ;
#125 = LENGTH_MEASURE_WITH_UNIT ( LENGTH_MEASURE( 0.02539999999999999900 ), #223 );
#126 = LOCAL_TIME ( 11, 2, 22.00000000000000000, #224 ) ;
#127 = DIRECTION ( 'NONE',  ( 1.000000000000000000, 0.0000000000000000000, 0.0000000000000000000 ) ) ;
#128 = EDGE_CURVE ( 'NONE', #143, #143, #87, .T. ) ;
#129 = APPROVAL_ROLE ( '' ) ;
#130 = CARTESIAN_POINT ( 'NONE',  ( 1.633858267716535600, 0.0000000000000000000, 0.0000000000000000000 ) ) ;
#131 = PERSON_AND_ORGANIZATION ( #242, #217 ) ;
#132 = DIRECTION ( 'NONE',  ( -1.000000000000000000, 0.0000000000000000000, 0.0000000000000000000 ) ) ;
#133 = ADVANCED_FACE ( 'NONE', ( #208, #139 ), #168, .F. ) ;
#134 = AXIS2_PLACEMENT_3D ( 'NONE', #13, #195, #12 ) ;
#135 = EDGE_CURVE ( 'NONE', #175, #175, #112, .T. ) ;
#136 = CALENDAR_DATE ( 2017, 31, 7 ) ;
#137 = FACE_OUTER_BOUND ( 'NONE', #3, .T. ) ;
#138 = PERSON_AND_ORGANIZATION_ROLE ( 'creator' ) ;
#139 = FACE_OUTER_BOUND ( 'NONE', #153, .T. ) ;
#140 = CC_DESIGN_PERSON_AND_ORGANIZATION_ASSIGNMENT ( #243, #226, ( #57 ) ) ;
#141 = APPROVAL_STATUS ( 'not_yet_approved' ) ;
#142 = ORIENTED_EDGE ( 'NONE', *, *, #124, .T. ) ;
#143 = VERTEX_POINT ( 'NONE', #76 ) ;
#144 = DIRECTION ( 'NONE',  ( -1.000000000000000000, -0.0000000000000000000, -0.0000000000000000000 ) ) ;
#145 = CONICAL_SURFACE ( 'NONE', #2, 2.165354330708661600, 0.6047795528131808500 ) ;
#146 = DIRECTION ( 'NONE',  ( 0.0000000000000000000, 0.0000000000000000000, -1.000000000000000000 ) ) ;
#147 = CIRCLE ( 'NONE', #56, 1.011811023622047200 ) ;
#148 = EDGE_LOOP ( 'NONE', ( #176 ) ) ;
#149 = AXIS2_PLACEMENT_3D ( 'NONE', #66, #75, #157 ) ;
#150 = CARTESIAN_POINT ( 'NONE',  ( 4.606299212598425000, 0.0000000000000000000, 0.0000000000000000000 ) ) ;
#151 = SHAPE_DEFINITION_REPRESENTATION ( #182, #161 ) ;
#152 = CC_DESIGN_PERSON_AND_ORGANIZATION_ASSIGNMENT ( #155, #225, ( #113 ) ) ;
#153 = EDGE_LOOP ( 'NONE', ( #232 ) ) ;
#154 = EDGE_LOOP ( 'NONE', ( #213 ) ) ;
#155 = PERSON_AND_ORGANIZATION ( #242, #217 ) ;
#156 = EDGE_LOOP ( 'NONE', ( #72 ) ) ;
#157 = DIRECTION ( 'NONE',  ( 0.0000000000000000000, 0.0000000000000000000, -1.000000000000000000 ) ) ;
#158 = VERTEX_POINT ( 'NONE', #97 ) ;
#159 = DIMENSIONAL_EXPONENTS ( 1.000000000000000000, 0.0000000000000000000, 0.0000000000000000000, 0.0000000000000000000, 0.0000000000000000000, 0.0000000000000000000, 0.0000000000000000000 ) ;
#160 = CYLINDRICAL_SURFACE ( 'NONE', #119, 1.771653543307086600 ) ;
#161 = ADVANCED_BREP_SHAPE_REPRESENTATION ( '581229420', ( #11, #186 ), #189 ) ;
#162 =( CONVERSION_BASED_UNIT ( 'INCH', #125 ) LENGTH_UNIT ( ) NAMED_UNIT ( #159 ) );
#163 = EDGE_LOOP ( 'NONE', ( #91 ) ) ;
#164 = CALENDAR_DATE ( 2017, 31, 7 ) ;
#165 = EDGE_CURVE ( 'NONE', #167, #167, #196, .T. ) ;
#166 = DIRECTION ( 'NONE',  ( 0.0000000000000000000, 0.0000000000000000000, -1.000000000000000000 ) ) ;
#167 = VERTEX_POINT ( 'NONE', #59 ) ;
#168 = CONICAL_SURFACE ( 'NONE', #15, 1.771653543307086800, 0.5162907920569952400 ) ;
#169 = LOCAL_TIME ( 11, 2, 22.00000000000000000, #88 ) ;
#170 = EDGE_LOOP ( 'NONE', ( #92 ) ) ;
#171 = ORIENTED_EDGE ( 'NONE', *, *, #46, .F. ) ;
#172 = CIRCLE ( 'NONE', #200, 1.771653543307086600 ) ;
#173 = APPROVAL ( #18, 'UNSPECIFIED' ) ;
#174 = ORIENTED_EDGE ( 'NONE', *, *, #128, .F. ) ;
#175 = VERTEX_POINT ( 'NONE', #26 ) ;
#176 = ORIENTED_EDGE ( 'NONE', *, *, #86, .F. ) ;
#177 = EDGE_LOOP ( 'NONE', ( #174 ) ) ;
#178 = FACE_OUTER_BOUND ( 'NONE', #67, .T. ) ;
#179 = CYLINDRICAL_SURFACE ( 'NONE', #149, 1.240157480314960600 ) ;
#180 = DIRECTION ( 'NONE',  ( 0.0000000000000000000, 0.0000000000000000000, -1.000000000000000000 ) ) ;
#181 = DIRECTION ( 'NONE',  ( -1.000000000000000000, 0.0000000000000000000, -0.0000000000000000000 ) ) ;
#182 = PRODUCT_DEFINITION_SHAPE ( 'NONE', 'NONE',  #221 ) ;
#183 = APPROVAL_DATE_TIME ( #54, #173 ) ;
#184 = FACE_BOUND ( 'NONE', #163, .T. ) ;
#185 = DIRECTION ( 'NONE',  ( 0.0000000000000000000, 0.0000000000000000000, -1.000000000000000000 ) ) ;
#186 = AXIS2_PLACEMENT_3D ( 'NONE', #192, #70, #203 ) ;
#187 = CC_DESIGN_APPROVAL ( #173, ( #5 ) ) ;
#188 = COORDINATED_UNIVERSAL_TIME_OFFSET ( 5, 0, .BEHIND. ) ;
#189 =( GEOMETRIC_REPRESENTATION_CONTEXT ( 3 ) GLOBAL_UNCERTAINTY_ASSIGNED_CONTEXT ( ( #109 ) ) GLOBAL_UNIT_ASSIGNED_CONTEXT ( ( #162, #14, #78 ) ) REPRESENTATION_CONTEXT ( 'NONE', 'WORKASPACE' ) );
#190 = VERTEX_POINT ( 'NONE', #37 ) ;
#191 = CYLINDRICAL_SURFACE ( 'NONE', #233, 1.011811023622047200 ) ;
#192 = CARTESIAN_POINT ( 'NONE',  ( 0.0000000000000000000, 0.0000000000000000000, 0.0000000000000000000 ) ) ;
#193 = EDGE_CURVE ( 'NONE', #244, #244, #123, .T. ) ;
#194 = ORIENTED_EDGE ( 'NONE', *, *, #93, .F. ) ;
#195 = DIRECTION ( 'NONE',  ( 1.000000000000000000, 0.0000000000000000000, 0.0000000000000000000 ) ) ;
#196 = CIRCLE ( 'NONE', #20, 1.240157480314960600 ) ;
#197 = DATE_AND_TIME ( #21, #60 ) ;
#198 = VERTEX_POINT ( 'NONE', #215 ) ;
#199 = DIRECTION ( 'NONE',  ( 0.0000000000000000000, 0.0000000000000000000, 1.000000000000000000 ) ) ;
#200 = AXIS2_PLACEMENT_3D ( 'NONE', #100, #45, #237 ) ;
#201 = DIRECTION ( 'NONE',  ( -1.000000000000000000, -0.0000000000000000000, -0.0000000000000000000 ) ) ;
#202 = AXIS2_PLACEMENT_3D ( 'NONE', #103, #8, #115 ) ;
#203 = DIRECTION ( 'NONE',  ( 1.000000000000000000, 0.0000000000000000000, 0.0000000000000000000 ) ) ;
#204 = ADVANCED_FACE ( 'NONE', ( #107, #10 ), #191, .F. ) ;
#205 = CARTESIAN_POINT ( 'NONE',  ( 0.0000000000000000000, 0.0000000000000000000, 0.0000000000000000000 ) ) ;
#206 = APPROVAL_STATUS ( 'not_yet_approved' ) ;
#207 = AXIS2_PLACEMENT_3D ( 'NONE', #98, #127, #146 ) ;
#208 = FACE_BOUND ( 'NONE', #177, .T. ) ;
#209 = CARTESIAN_POINT ( 'NONE',  ( 3.267716535433070400, 0.0000000000000000000, 0.0000000000000000000 ) ) ;
#210 = DATE_TIME_ROLE ( 'classification_date' ) ;
#211 = FACE_OUTER_BOUND ( 'NONE', #231, .T. ) ;
#212 = CC_DESIGN_PERSON_AND_ORGANIZATION_ASSIGNMENT ( #63, #104, ( #113 ) ) ;
#213 = ORIENTED_EDGE ( 'NONE', *, *, #165, .F. ) ;
#214 = DIRECTION ( 'NONE',  ( 0.0000000000000000000, 0.0000000000000000000, -1.000000000000000000 ) ) ;
#215 = CARTESIAN_POINT ( 'NONE',  ( 0.0000000000000000000, 0.0000000000000000000, -2.165354330708661600 ) ) ;
#216 = CC_DESIGN_PERSON_AND_ORGANIZATION_ASSIGNMENT ( #131, #138, ( #221 ) ) ;
#217 = ORGANIZATION ( 'UNSPECIFIED', 'UNSPECIFIED', '' ) ;
#218 = DIRECTION ( 'NONE',  ( -1.000000000000000000, 0.0000000000000000000, 0.0000000000000000000 ) ) ;
#219 = LOCAL_TIME ( 11, 2, 22.00000000000000000, #188 ) ;
#220 = APPROVAL ( #206, 'UNSPECIFIED' ) ;
#221 = PRODUCT_DEFINITION ( 'UNKNOWN', '', #113, #7 ) ;
#222 = ORIENTED_EDGE ( 'NONE', *, *, #124, .F. ) ;
#223 =( LENGTH_UNIT ( ) NAMED_UNIT ( * ) SI_UNIT ( $, .METRE. ) );
#224 = COORDINATED_UNIVERSAL_TIME_OFFSET ( 5, 0, .BEHIND. ) ;
#225 = PERSON_AND_ORGANIZATION_ROLE ( 'creator' ) ;
#226 = PERSON_AND_ORGANIZATION_ROLE ( 'design_owner' ) ;
#227 = DIRECTION ( 'NONE',  ( 1.000000000000000000, 0.0000000000000000000, 0.0000000000000000000 ) ) ;
#228 = APPROVAL_DATE_TIME ( #16, #89 ) ;
#229 = MECHANICAL_CONTEXT ( 'NONE', #122, 'mechanical' ) ;
#230 = CIRCLE ( 'NONE', #82, 2.165354330708661600 ) ;
#231 = EDGE_LOOP ( 'NONE', ( #171 ) ) ;
#232 = ORIENTED_EDGE ( 'NONE', *, *, #46, .T. ) ;
#233 = AXIS2_PLACEMENT_3D ( 'NONE', #73, #227, #245 ) ;
#234 = ADVANCED_FACE ( 'NONE', ( #105, #51 ), #145, .T. ) ;
#235 = ADVANCED_FACE ( 'NONE', ( #137, #246 ), #179, .T. ) ;
#236 = DIRECTION ( 'NONE',  ( 0.0000000000000000000, 0.0000000000000000000, -1.000000000000000000 ) ) ;
#237 = DIRECTION ( 'NONE',  ( 0.0000000000000000000, 0.0000000000000000000, -1.000000000000000000 ) ) ;
#238 = DIRECTION ( 'NONE',  ( -1.000000000000000000, -0.0000000000000000000, -0.0000000000000000000 ) ) ;
#239 = SECURITY_CLASSIFICATION_LEVEL ( 'unclassified' ) ;
#240 = ORIENTED_EDGE ( 'NONE', *, *, #128, .T. ) ;
#241 = CC_DESIGN_SECURITY_CLASSIFICATION ( #5, ( #113 ) ) ;
#242 = PERSON ( 'UNSPECIFIED', 'UNSPECIFIED', 'UNSPECIFIED', ('UNSPECIFIED'), ('UNSPECIFIED'), ('UNSPECIFIED') ) ;
#243 = PERSON_AND_ORGANIZATION ( #242, #217 ) ;
#244 = VERTEX_POINT ( 'NONE', #22 ) ;
#245 = DIRECTION ( 'NONE',  ( 0.0000000000000000000, 0.0000000000000000000, -1.000000000000000000 ) ) ;
#246 = FACE_OUTER_BOUND ( 'NONE', #84, .T. ) ;
#247 = FACE_OUTER_BOUND ( 'NONE', #116, .T. ) ;
#248 = FACE_OUTER_BOUND ( 'NONE', #154, .T. ) ;
#249 = DIRECTION ( 'NONE',  ( -1.000000000000000000, -0.0000000000000000000, 0.0000000000000000000 ) ) ;
#250 = ORIENTED_EDGE ( 'NONE', *, *, #93, .T. ) ;
#251 = COORDINATED_UNIVERSAL_TIME_OFFSET ( 5, 0, .BEHIND. ) ;
#252 = LOCAL_TIME ( 11, 2, 22.00000000000000000, #83 ) ;
ENDSEC;
END-ISO-10303-21;
