ISO-10303-21;
HEADER;
FILE_DESCRIPTION (( 'STEP AP203' ),
    '1' );
FILE_NAME ('581229422.STEP',
    '2017-07-31T15:05:16',
    ( '' ),
    ( '' ),
    'SwSTEP 2.0',
    'SolidWorks 2017',
    '' );
FILE_SCHEMA (( 'CONFIG_CONTROL_DESIGN' ));
ENDSEC;

DATA;
#1 = CC_DESIGN_PERSON_AND_ORGANIZATION_ASSIGNMENT ( #166, #228, ( #88 ) ) ;
#2 = AXIS2_PLACEMENT_3D ( 'NONE', #212, #161, #48 ) ;
#3 = AXIS2_PLACEMENT_3D ( 'NONE', #117, #54, #69 ) ;
#4 = APPROVAL_PERSON_ORGANIZATION ( #202, #105, #110 ) ;
#5 = CYLINDRICAL_SURFACE ( 'NONE', #42, 1.771653543307086600 ) ;
#6 = CARTESIAN_POINT ( 'NONE',  ( 1.614173228346456700, 2.149424175082822800E-016, 0.0000000000000000000 ) ) ;
#7 = ADVANCED_FACE ( 'NONE', ( #181, #207 ), #125, .T. ) ;
#8 =( NAMED_UNIT ( * ) SI_UNIT ( $, .STERADIAN. ) SOLID_ANGLE_UNIT ( ) );
#9 = FACE_BOUND ( 'NONE', #195, .T. ) ;
#10 = CARTESIAN_POINT ( 'NONE',  ( 6.968503937007874100, 1.771653543307086600, -1.988816718104629100E-048 ) ) ;
#11 = MANIFOLD_SOLID_BREP ( '1', #236 ) ;
#12 = DESIGN_CONTEXT ( 'detailed design', #176, 'design' ) ;
#13 = CONICAL_SURFACE ( 'NONE', #64, 2.165354330708661100, 0.4266274931268757600 ) ;
#14 = MECHANICAL_CONTEXT ( 'NONE', #158, 'mechanical' ) ;
#15 = APPROVAL_DATE_TIME ( #78, #105 ) ;
#16 = AXIS2_PLACEMENT_3D ( 'NONE', #6, #190, #70 ) ;
#17 = EDGE_CURVE ( 'NONE', #157, #157, #61, .T. ) ;
#18 = EDGE_LOOP ( 'NONE', ( #142 ) ) ;
#19 = EDGE_CURVE ( 'NONE', #206, #206, #244, .T. ) ;
#20 = EDGE_LOOP ( 'NONE', ( #34 ) ) ;
#21 = EDGE_LOOP ( 'NONE', ( #149 ) ) ;
#22 = ORIENTED_EDGE ( 'NONE', *, *, #19, .F. ) ;
#23 = CC_DESIGN_PERSON_AND_ORGANIZATION_ASSIGNMENT ( #252, #187, ( #26 ) ) ;
#24 = EDGE_LOOP ( 'NONE', ( #33 ) ) ;
#25 = PERSON_AND_ORGANIZATION_ROLE ( 'design_supplier' ) ;
#26 = PRODUCT_DEFINITION ( 'UNKNOWN', '', #88, #12 ) ;
#27 = CONICAL_SURFACE ( 'NONE', #93, 1.771653543307086100, 0.3567766549672136700 ) ;
#28 = EDGE_LOOP ( 'NONE', ( #144 ) ) ;
#29 =( GEOMETRIC_REPRESENTATION_CONTEXT ( 3 ) GLOBAL_UNCERTAINTY_ASSIGNED_CONTEXT ( ( #83 ) ) GLOBAL_UNIT_ASSIGNED_CONTEXT ( ( #45, #179, #8 ) ) REPRESENTATION_CONTEXT ( 'NONE', 'WORKASPACE' ) );
#30 = PERSON_AND_ORGANIZATION ( #248, #199 ) ;
#31 = CARTESIAN_POINT ( 'NONE',  ( 7.112065285200525800E-017, 1.771653543307086800, -2.234013299788762600E-048 ) ) ;
#32 = CC_DESIGN_APPROVAL ( #126, ( #172 ) ) ;
#33 = ORIENTED_EDGE ( 'NONE', *, *, #218, .T. ) ;
#34 = ORIENTED_EDGE ( 'NONE', *, *, #159, .F. ) ;
#35 = VERTEX_POINT ( 'NONE', #188 ) ;
#36 = ORIENTED_EDGE ( 'NONE', *, *, #38, .T. ) ;
#37 = DIRECTION ( 'NONE',  ( -1.000000000000000000, 4.014365738757630000E-017, -3.363116314379560100E-048 ) ) ;
#38 = EDGE_CURVE ( 'NONE', #35, #35, #245, .T. ) ;
#39 = DIRECTION ( 'NONE',  ( 0.0000000000000000000, 1.000000000000000000, -2.449212707644750600E-016 ) ) ;
#40 = PERSON_AND_ORGANIZATION_ROLE ( 'design_owner' ) ;
#41 = DIRECTION ( 'NONE',  ( 0.0000000000000000000, 1.000000000000000000, 0.0000000000000000000 ) ) ;
#42 = AXIS2_PLACEMENT_3D ( 'NONE', #124, #200, #193 ) ;
#43 = CIRCLE ( 'NONE', #2, 2.165354330708661600 ) ;
#44 = PERSON_AND_ORGANIZATION ( #248, #199 ) ;
#45 =( CONVERSION_BASED_UNIT ( 'INCH', #156 ) LENGTH_UNIT ( ) NAMED_UNIT ( #111 ) );
#46 = COORDINATED_UNIVERSAL_TIME_OFFSET ( 5, 0, .BEHIND. ) ;
#47 = CARTESIAN_POINT ( 'NONE',  ( 1.614173228346456700, 2.149424175082822800E-016, 0.0000000000000000000 ) ) ;
#48 = DIRECTION ( 'NONE',  ( 0.0000000000000000000, 1.000000000000000000, 0.0000000000000000000 ) ) ;
#49 = APPROVAL_PERSON_ORGANIZATION ( #44, #126, #58 ) ;
#50 = CC_DESIGN_APPROVAL ( #86, ( #88 ) ) ;
#51 = FACE_BOUND ( 'NONE', #21, .T. ) ;
#52 = PERSON_AND_ORGANIZATION ( #248, #199 ) ;
#53 = ADVANCED_FACE ( 'NONE', ( #9, #203 ), #13, .T. ) ;
#54 = DIRECTION ( 'NONE',  ( 0.0000000000000000000, 0.0000000000000000000, 1.000000000000000000 ) ) ;
#55 = DIRECTION ( 'NONE',  ( 0.0000000000000000000, 0.0000000000000000000, 1.000000000000000000 ) ) ;
#56 = CALENDAR_DATE ( 2017, 31, 7 ) ;
#57 = DIRECTION ( 'NONE',  ( 4.014365738757629400E-017, 1.000000000000000000, 0.0000000000000000000 ) ) ;
#58 = APPROVAL_ROLE ( '' ) ;
#59 = FACE_OUTER_BOUND ( 'NONE', #18, .T. ) ;
#60 = DIRECTION ( 'NONE',  ( -1.000000000000000000, 4.014365738757630000E-017, 1.383998483283770000E-048 ) ) ;
#61 = CIRCLE ( 'NONE', #84, 1.771653543307086600 ) ;
#62 = DATE_AND_TIME ( #90, #241 ) ;
#63 = COORDINATED_UNIVERSAL_TIME_OFFSET ( 5, 0, .BEHIND. ) ;
#64 = AXIS2_PLACEMENT_3D ( 'NONE', #205, #80, #230 ) ;
#65 = CARTESIAN_POINT ( 'NONE',  ( 3.228346456692913400, 2.165354330708661600, 2.990993012940326300E-048 ) ) ;
#66 = EDGE_LOOP ( 'NONE', ( #85 ) ) ;
#67 = DIRECTION ( 'NONE',  ( 0.0000000000000000000, 1.000000000000000000, 0.0000000000000000000 ) ) ;
#68 = CARTESIAN_POINT ( 'NONE',  ( 3.228346456692913400, 1.771653543307086800, 2.234013299788762600E-048 ) ) ;
#69 = DIRECTION ( 'NONE',  ( 1.000000000000000000, 0.0000000000000000000, 0.0000000000000000000 ) ) ;
#70 = DIRECTION ( 'NONE',  ( 0.0000000000000000000, 1.000000000000000000, 0.0000000000000000000 ) ) ;
#71 = LOCAL_TIME ( 11, 5, 16.00000000000000000, #46 ) ;
#72 = ADVANCED_FACE ( 'NONE', ( #51, #59 ), #120, .T. ) ;
#73 = CARTESIAN_POINT ( 'NONE',  ( 0.0000000000000000000, 2.797412345512204400E-016, -2.990993012940326300E-048 ) ) ;
#74 = APPLICATION_PROTOCOL_DEFINITION ( 'international standard', 'config_control_design', 1994, #176 ) ;
#75 = ORIENTED_EDGE ( 'NONE', *, *, #237, .F. ) ;
#76 = AXIS2_PLACEMENT_3D ( 'NONE', #132, #116, #153 ) ;
#77 = VERTEX_POINT ( 'NONE', #65 ) ;
#78 = DATE_AND_TIME ( #240, #81 ) ;
#79 = FACE_OUTER_BOUND ( 'NONE', #66, .T. ) ;
#80 = DIRECTION ( 'NONE',  ( -1.000000000000000000, -0.0000000000000000000, 0.0000000000000000000 ) ) ;
#81 = LOCAL_TIME ( 11, 5, 16.00000000000000000, #63 ) ;
#82 = ORIENTED_EDGE ( 'NONE', *, *, #38, .F. ) ;
#83 = UNCERTAINTY_MEASURE_WITH_UNIT (LENGTH_MEASURE( 1.000000000000000100E-005 ), #45, 'distance_accuracy_value', 'NONE');
#84 = AXIS2_PLACEMENT_3D ( 'NONE', #208, #242, #143 ) ;
#85 = ORIENTED_EDGE ( 'NONE', *, *, #218, .F. ) ;
#86 = APPROVAL ( #112, 'UNSPECIFIED' ) ;
#87 = DATE_AND_TIME ( #56, #71 ) ;
#88 = PRODUCT_DEFINITION_FORMATION_WITH_SPECIFIED_SOURCE ( 'ANY', '', #210, .NOT_KNOWN. ) ;
#89 = CC_DESIGN_DATE_AND_TIME_ASSIGNMENT ( #170, #171, ( #26 ) ) ;
#90 = CALENDAR_DATE ( 2017, 31, 7 ) ;
#91 = COORDINATED_UNIVERSAL_TIME_OFFSET ( 5, 0, .BEHIND. ) ;
#92 = CC_DESIGN_APPROVAL ( #105, ( #26 ) ) ;
#93 = AXIS2_PLACEMENT_3D ( 'NONE', #191, #135, #55 ) ;
#94 = PRODUCT_DEFINITION_SHAPE ( 'NONE', 'NONE',  #26 ) ;
#95 = CYLINDRICAL_SURFACE ( 'NONE', #137, 1.771653543307086600 ) ;
#96 = DIRECTION ( 'NONE',  ( 0.0000000000000000000, 1.000000000000000000, 0.0000000000000000000 ) ) ;
#97 = FACE_OUTER_BOUND ( 'NONE', #28, .T. ) ;
#98 = EDGE_LOOP ( 'NONE', ( #36 ) ) ;
#99 = CARTESIAN_POINT ( 'NONE',  ( 6.968503937007874100, 1.448818897637795400, -5.947769751538690200E-048 ) ) ;
#100 = APPLICATION_PROTOCOL_DEFINITION ( 'international standard', 'config_control_design', 1994, #158 ) ;
#101 = EDGE_CURVE ( 'NONE', #145, #145, #118, .T. ) ;
#102 = DIRECTION ( 'NONE',  ( 9.832035580498910300E-033, 0.0000000000000000000, 1.000000000000000000 ) ) ;
#103 = EDGE_CURVE ( 'NONE', #138, #138, #148, .T. ) ;
#104 = ORIENTED_EDGE ( 'NONE', *, *, #17, .T. ) ;
#105 = APPROVAL ( #123, 'UNSPECIFIED' ) ;
#106 = APPROVAL_ROLE ( '' ) ;
#107 = EDGE_LOOP ( 'NONE', ( #104 ) ) ;
#108 = APPROVAL_DATE_TIME ( #62, #86 ) ;
#109 = CIRCLE ( 'NONE', #155, 1.448818897637795400 ) ;
#110 = APPROVAL_ROLE ( '' ) ;
#111 = DIMENSIONAL_EXPONENTS ( 1.000000000000000000, 0.0000000000000000000, 0.0000000000000000000, 0.0000000000000000000, 0.0000000000000000000, 0.0000000000000000000, 0.0000000000000000000 ) ;
#112 = APPROVAL_STATUS ( 'not_yet_approved' ) ;
#113 = CYLINDRICAL_SURFACE ( 'NONE', #115, 1.448818897637795400 ) ;
#114 = PERSON_AND_ORGANIZATION_ROLE ( 'classification_officer' ) ;
#115 = AXIS2_PLACEMENT_3D ( 'NONE', #197, #214, #136 ) ;
#116 = DIRECTION ( 'NONE',  ( 1.000000000000000000, -2.408074648577329900E-048, -9.832035580498910300E-033 ) ) ;
#117 = CARTESIAN_POINT ( 'NONE',  ( 0.0000000000000000000, 0.0000000000000000000, 0.0000000000000000000 ) ) ;
#118 = CIRCLE ( 'NONE', #247, 1.771653543307086600 ) ;
#119 = ADVANCED_BREP_SHAPE_REPRESENTATION ( '581229422', ( #11, #3 ), #29 ) ;
#120 = PLANE ( 'NONE',  #76 ) ;
#121 = DIRECTION ( 'NONE',  ( -1.000000000000000000, 4.014365738757630000E-017, 1.675382696570220100E-048 ) ) ;
#122 = EDGE_LOOP ( 'NONE', ( #185 ) ) ;
#123 = APPROVAL_STATUS ( 'not_yet_approved' ) ;
#124 = CARTESIAN_POINT ( 'NONE',  ( 5.531496062992126800, 5.768675175773740400E-017, 0.0000000000000000000 ) ) ;
#125 = CYLINDRICAL_SURFACE ( 'NONE', #16, 2.165354330708661600 ) ;
#126 = APPROVAL ( #198, 'UNSPECIFIED' ) ;
#127 = VERTEX_POINT ( 'NONE', #167 ) ;
#128 = AXIS2_PLACEMENT_3D ( 'NONE', #246, #141, #102 ) ;
#129 = LOCAL_TIME ( 11, 5, 16.00000000000000000, #178 ) ;
#130 = CIRCLE ( 'NONE', #196, 2.165354330708661600 ) ;
#131 = AXIS2_PLACEMENT_3D ( 'NONE', #165, #37, #39 ) ;
#132 = CARTESIAN_POINT ( 'NONE',  ( 6.968503937007874100, 1.610236220472441000, -3.943811013490945000E-016 ) ) ;
#133 = ADVANCED_FACE ( 'NONE', ( #164, #229 ), #113, .F. ) ;
#134 = CC_DESIGN_PERSON_AND_ORGANIZATION_ASSIGNMENT ( #30, #40, ( #210 ) ) ;
#135 = DIRECTION ( 'NONE',  ( -1.000000000000000000, -0.0000000000000000000, 0.0000000000000000000 ) ) ;
#136 = DIRECTION ( 'NONE',  ( 0.0000000000000000000, 1.000000000000000000, 0.0000000000000000000 ) ) ;
#137 = AXIS2_PLACEMENT_3D ( 'NONE', #47, #238, #41 ) ;
#138 = VERTEX_POINT ( 'NONE', #139 ) ;
#139 = CARTESIAN_POINT ( 'NONE',  ( 4.094488188976378700, 1.771653543307086400, -4.339156371811565300E-016 ) ) ;
#140 = ORIENTED_EDGE ( 'NONE', *, *, #159, .T. ) ;
#141 = DIRECTION ( 'NONE',  ( -1.000000000000000000, 2.408074648577329900E-048, 9.832035580498910300E-033 ) ) ;
#142 = ORIENTED_EDGE ( 'NONE', *, *, #101, .F. ) ;
#143 = DIRECTION ( 'NONE',  ( 4.014365738757630000E-017, 1.000000000000000000, 0.0000000000000000000 ) ) ;
#144 = ORIENTED_EDGE ( 'NONE', *, *, #103, .F. ) ;
#145 = VERTEX_POINT ( 'NONE', #10 ) ;
#146 = FACE_OUTER_BOUND ( 'NONE', #122, .T. ) ;
#147 = APPROVAL_PERSON_ORGANIZATION ( #52, #86, #106 ) ;
#148 = CIRCLE ( 'NONE', #131, 1.771653543307086400 ) ;
#149 = ORIENTED_EDGE ( 'NONE', *, *, #237, .T. ) ;
#150 = CARTESIAN_POINT ( 'NONE',  ( 6.968503937007874100, -1.516480271171051900E-031, -5.947769751538690200E-048 ) ) ;
#151 = VERTEX_POINT ( 'NONE', #99 ) ;
#152 = DIRECTION ( 'NONE',  ( -1.000000000000000000, 4.014365738757630000E-017, -1.383998483283770000E-048 ) ) ;
#153 = DIRECTION ( 'NONE',  ( -9.832035580498910300E-033, 0.0000000000000000000, -1.000000000000000000 ) ) ;
#154 = AXIS2_PLACEMENT_3D ( 'NONE', #224, #121, #201 ) ;
#155 = AXIS2_PLACEMENT_3D ( 'NONE', #150, #204, #96 ) ;
#156 = LENGTH_MEASURE_WITH_UNIT ( LENGTH_MEASURE( 0.02539999999999999900 ), #182 );
#157 = VERTEX_POINT ( 'NONE', #31 ) ;
#158 = APPLICATION_CONTEXT ( 'configuration controlled 3d designs of mechanical parts and assemblies' ) ;
#159 = EDGE_CURVE ( 'NONE', #77, #77, #43, .T. ) ;
#160 = DIRECTION ( 'NONE',  ( 1.000000000000000000, -4.014365738757630000E-017, 1.852956647041080000E-048 ) ) ;
#161 = DIRECTION ( 'NONE',  ( -1.000000000000000000, 4.014365738757630000E-017, -1.852956647041080000E-048 ) ) ;
#162 = PERSON_AND_ORGANIZATION ( #248, #199 ) ;
#163 = COORDINATED_UNIVERSAL_TIME_OFFSET ( 5, 0, .BEHIND. ) ;
#164 = FACE_OUTER_BOUND ( 'NONE', #169, .T. ) ;
#165 = CARTESIAN_POINT ( 'NONE',  ( 4.094488188976378700, 1.153735035154752000E-016, 1.456467695203747900E-048 ) ) ;
#166 = PERSON_AND_ORGANIZATION ( #248, #199 ) ;
#167 = CARTESIAN_POINT ( 'NONE',  ( 8.692524237467308400E-017, 2.165354330708661600, -2.990993012940326300E-048 ) ) ;
#168 = FACE_BOUND ( 'NONE', #194, .T. ) ;
#169 = EDGE_LOOP ( 'NONE', ( #75 ) ) ;
#170 = DATE_AND_TIME ( #222, #129 ) ;
#171 = DATE_TIME_ROLE ( 'creation_date' ) ;
#172 = SECURITY_CLASSIFICATION ( '', '', #211 ) ;
#173 = APPROVAL_DATE_TIME ( #239, #126 ) ;
#174 = CARTESIAN_POINT ( 'NONE',  ( 6.968503937007874100, -1.516480271171051900E-031, -1.988816718104629100E-048 ) ) ;
#175 = PERSON_AND_ORGANIZATION ( #248, #199 ) ;
#176 = APPLICATION_CONTEXT ( 'configuration controlled 3d designs of mechanical parts and assemblies' ) ;
#177 = CC_DESIGN_PERSON_AND_ORGANIZATION_ASSIGNMENT ( #175, #114, ( #172 ) ) ;
#178 = COORDINATED_UNIVERSAL_TIME_OFFSET ( 5, 0, .BEHIND. ) ;
#179 =( NAMED_UNIT ( * ) PLANE_ANGLE_UNIT ( ) SI_UNIT ( $, .RADIAN. ) );
#180 = EDGE_LOOP ( 'NONE', ( #22 ) ) ;
#181 = FACE_OUTER_BOUND ( 'NONE', #226, .T. ) ;
#182 =( LENGTH_UNIT ( ) NAMED_UNIT ( * ) SI_UNIT ( $, .METRE. ) );
#183 = ADVANCED_FACE ( 'NONE', ( #186, #97 ), #5, .T. ) ;
#184 = ORIENTED_EDGE ( 'NONE', *, *, #103, .T. ) ;
#185 = ORIENTED_EDGE ( 'NONE', *, *, #17, .F. ) ;
#186 = FACE_OUTER_BOUND ( 'NONE', #221, .T. ) ;
#187 = PERSON_AND_ORGANIZATION_ROLE ( 'creator' ) ;
#188 = CARTESIAN_POINT ( 'NONE',  ( 4.094488188976378700, 1.448818897637795400, -3.548465655170346900E-016 ) ) ;
#189 = CC_DESIGN_DATE_AND_TIME_ASSIGNMENT ( #87, #217, ( #172 ) ) ;
#190 = DIRECTION ( 'NONE',  ( 1.000000000000000000, -4.014365738757630000E-017, 1.852956647041080000E-048 ) ) ;
#191 = CARTESIAN_POINT ( 'NONE',  ( 3.228346456692913400, 1.365923996832131600E-016, 0.0000000000000000000 ) ) ;
#192 = CC_DESIGN_PERSON_AND_ORGANIZATION_ASSIGNMENT ( #162, #25, ( #88 ) ) ;
#193 = DIRECTION ( 'NONE',  ( 0.0000000000000000000, 1.000000000000000000, 0.0000000000000000000 ) ) ;
#194 = EDGE_LOOP ( 'NONE', ( #82 ) ) ;
#195 = EDGE_LOOP ( 'NONE', ( #184 ) ) ;
#196 = AXIS2_PLACEMENT_3D ( 'NONE', #73, #160, #57 ) ;
#197 = CARTESIAN_POINT ( 'NONE',  ( 5.531496062992126800, 5.768675175773740400E-017, 0.0000000000000000000 ) ) ;
#198 = APPROVAL_STATUS ( 'not_yet_approved' ) ;
#199 = ORGANIZATION ( 'UNSPECIFIED', 'UNSPECIFIED', '' ) ;
#200 = DIRECTION ( 'NONE',  ( 1.000000000000000000, -4.014365738757630000E-017, -1.383998483283770000E-048 ) ) ;
#201 = DIRECTION ( 'NONE',  ( 0.0000000000000000000, 1.000000000000000000, -2.449212707644750100E-016 ) ) ;
#202 = PERSON_AND_ORGANIZATION ( #248, #199 ) ;
#203 = FACE_OUTER_BOUND ( 'NONE', #20, .T. ) ;
#204 = DIRECTION ( 'NONE',  ( -1.000000000000000000, 4.014365738757630000E-017, 4.138995936687200300E-048 ) ) ;
#205 = CARTESIAN_POINT ( 'NONE',  ( 3.228346456692913400, 1.365923996832131600E-016, 0.0000000000000000000 ) ) ;
#206 = VERTEX_POINT ( 'NONE', #68 ) ;
#207 = FACE_OUTER_BOUND ( 'NONE', #24, .T. ) ;
#208 = CARTESIAN_POINT ( 'NONE',  ( 0.0000000000000000000, 2.797412345512204400E-016, -2.234013299788762600E-048 ) ) ;
#209 = FACE_BOUND ( 'NONE', #107, .T. ) ;
#210 = PRODUCT ( '581229422', '581229422', '', ( #14 ) ) ;
#211 = SECURITY_CLASSIFICATION_LEVEL ( 'unclassified' ) ;
#212 = CARTESIAN_POINT ( 'NONE',  ( 3.228346456692913400, 1.501436004653441700E-016, 2.990993012940326300E-048 ) ) ;
#213 = AXIS2_PLACEMENT_3D ( 'NONE', #232, #152, #67 ) ;
#214 = DIRECTION ( 'NONE',  ( 1.000000000000000000, -4.014365738757630000E-017, -4.138995936687200300E-048 ) ) ;
#215 = ADVANCED_FACE ( 'NONE', ( #168, #227 ), #27, .F. ) ;
#216 = EDGE_LOOP ( 'NONE', ( #233 ) ) ;
#217 = DATE_TIME_ROLE ( 'classification_date' ) ;
#218 = EDGE_CURVE ( 'NONE', #127, #127, #130, .T. ) ;
#219 = SHAPE_DEFINITION_REPRESENTATION ( #94, #119 ) ;
#220 = DIRECTION ( 'NONE',  ( 0.0000000000000000000, 1.000000000000000000, 0.0000000000000000000 ) ) ;
#221 = EDGE_LOOP ( 'NONE', ( #250 ) ) ;
#222 = CALENDAR_DATE ( 2017, 31, 7 ) ;
#223 = PRODUCT_RELATED_PRODUCT_CATEGORY ( 'detail', '', ( #210 ) ) ;
#224 = CARTESIAN_POINT ( 'NONE',  ( 4.094488188976378700, 1.153735035154752300E-016, -7.255594355225364600E-049 ) ) ;
#225 = ADVANCED_FACE ( 'NONE', ( #79, #209 ), #235, .T. ) ;
#226 = EDGE_LOOP ( 'NONE', ( #140 ) ) ;
#227 = FACE_OUTER_BOUND ( 'NONE', #216, .T. ) ;
#228 = PERSON_AND_ORGANIZATION_ROLE ( 'creator' ) ;
#229 = FACE_OUTER_BOUND ( 'NONE', #98, .T. ) ;
#230 = DIRECTION ( 'NONE',  ( 0.0000000000000000000, 0.0000000000000000000, 1.000000000000000000 ) ) ;
#231 = ADVANCED_FACE ( 'NONE', ( #251, #146 ), #95, .F. ) ;
#232 = CARTESIAN_POINT ( 'NONE',  ( 3.228346456692913400, 1.501436004653441700E-016, 2.234013299788762600E-048 ) ) ;
#233 = ORIENTED_EDGE ( 'NONE', *, *, #19, .T. ) ;
#234 = CALENDAR_DATE ( 2017, 31, 7 ) ;
#235 = PLANE ( 'NONE',  #128 ) ;
#236 = CLOSED_SHELL ( 'NONE', ( #7, #225, #53, #231, #183, #215, #72, #133 ) ) ;
#237 = EDGE_CURVE ( 'NONE', #151, #151, #109, .T. ) ;
#238 = DIRECTION ( 'NONE',  ( 1.000000000000000000, -4.014365738757630000E-017, 1.383998483283770000E-048 ) ) ;
#239 = DATE_AND_TIME ( #234, #243 ) ;
#240 = CALENDAR_DATE ( 2017, 31, 7 ) ;
#241 = LOCAL_TIME ( 11, 5, 16.00000000000000000, #163 ) ;
#242 = DIRECTION ( 'NONE',  ( 1.000000000000000000, -4.014365738757630000E-017, 1.383998483283770000E-048 ) ) ;
#243 = LOCAL_TIME ( 11, 5, 16.00000000000000000, #91 ) ;
#244 = CIRCLE ( 'NONE', #213, 1.771653543307086600 ) ;
#245 = CIRCLE ( 'NONE', #154, 1.448818897637795400 ) ;
#246 = CARTESIAN_POINT ( 'NONE',  ( 0.0000000000000000000, 1.968503937007874100, -4.821284857568425000E-016 ) ) ;
#247 = AXIS2_PLACEMENT_3D ( 'NONE', #174, #60, #220 ) ;
#248 = PERSON ( 'UNSPECIFIED', 'UNSPECIFIED', 'UNSPECIFIED', ('UNSPECIFIED'), ('UNSPECIFIED'), ('UNSPECIFIED') ) ;
#249 = CC_DESIGN_SECURITY_CLASSIFICATION ( #172, ( #88 ) ) ;
#250 = ORIENTED_EDGE ( 'NONE', *, *, #101, .T. ) ;
#251 = FACE_OUTER_BOUND ( 'NONE', #180, .T. ) ;
#252 = PERSON_AND_ORGANIZATION ( #248, #199 ) ;
ENDSEC;
END-ISO-10303-21;
