ISO-10303-21;
HEADER;
FILE_DESCRIPTION (( 'STEP AP203' ),
    '1' );
FILE_NAME ('581229531.STEP',
    '2017-07-31T15:09:46',
    ( '' ),
    ( '' ),
    'SwSTEP 2.0',
    'SolidWorks 2017',
    '' );
FILE_SCHEMA (( 'CONFIG_CONTROL_DESIGN' ));
ENDSEC;

DATA;
#1 = AXIS2_PLACEMENT_3D ( 'NONE', #205, #178, #243 ) ;
#2 = DATE_TIME_ROLE ( 'classification_date' ) ;
#3 = APPROVAL ( #116, 'UNSPECIFIED' ) ;
#4 = APPROVAL_STATUS ( 'not_yet_approved' ) ;
#5 = AXIS2_PLACEMENT_3D ( 'NONE', #148, #110, #66 ) ;
#6 = EDGE_LOOP ( 'NONE', ( #145 ) ) ;
#7 = CARTESIAN_POINT ( 'NONE',  ( 5.629921259842519500, 1.771653543307085500, -4.339156371811562800E-016 ) ) ;
#8 = EDGE_LOOP ( 'NONE', ( #240 ) ) ;
#9 = PLANE ( 'NONE',  #94 ) ;
#10 = DIRECTION ( 'NONE',  ( -1.000000000000000000, 4.502824173954764800E-032, 1.060992951667771900E-016 ) ) ;
#11 = MANIFOLD_SOLID_BREP ( '1', #12 ) ;
#12 = CLOSED_SHELL ( 'NONE', ( #245, #157, #232, #177, #74, #42, #212, #46 ) ) ;
#13 = PERSON_AND_ORGANIZATION_ROLE ( 'design_owner' ) ;
#14 = CYLINDRICAL_SURFACE ( 'NONE', #231, 1.448818897637795400 ) ;
#15 = PERSON_AND_ORGANIZATION_ROLE ( 'classification_officer' ) ;
#16 = EDGE_CURVE ( 'NONE', #92, #92, #77, .T. ) ;
#17 = VERTEX_POINT ( 'NONE', #121 ) ;
#18 = EDGE_LOOP ( 'NONE', ( #215 ) ) ;
#19 = APPLICATION_PROTOCOL_DEFINITION ( 'international standard', 'config_control_design', 1994, #150 ) ;
#20 = FACE_OUTER_BOUND ( 'NONE', #127, .T. ) ;
#21 = EDGE_CURVE ( 'NONE', #142, #142, #120, .T. ) ;
#22 = DIRECTION ( 'NONE',  ( -1.000000000000000000, 0.0000000000000000000, 0.0000000000000000000 ) ) ;
#23 = EDGE_LOOP ( 'NONE', ( #128 ) ) ;
#24 = LENGTH_MEASURE_WITH_UNIT ( LENGTH_MEASURE( 0.02539999999999999900 ), #125 );
#25 = CARTESIAN_POINT ( 'NONE',  ( 2.007874015748031500, 0.0000000000000000000, 0.0000000000000000000 ) ) ;
#26 = EDGE_LOOP ( 'NONE', ( #210 ) ) ;
#27 = EDGE_LOOP ( 'NONE', ( #54 ) ) ;
#28 = AXIS2_PLACEMENT_3D ( 'NONE', #242, #189, #32 ) ;
#29 = DIRECTION ( 'NONE',  ( 0.0000000000000000000, 0.0000000000000000000, -1.000000000000000000 ) ) ;
#30 = PERSON_AND_ORGANIZATION ( #52, #179 ) ;
#31 = CARTESIAN_POINT ( 'NONE',  ( 8.543307086614174000, 1.610236220472441000, -3.943811013490945000E-016 ) ) ;
#32 = DIRECTION ( 'NONE',  ( 0.0000000000000000000, 0.0000000000000000000, -1.000000000000000000 ) ) ;
#33 = PRODUCT_DEFINITION_FORMATION_WITH_SPECIFIED_SOURCE ( 'ANY', '', #201, .NOT_KNOWN. ) ;
#34 = AXIS2_PLACEMENT_3D ( 'NONE', #247, #58, #180 ) ;
#35 = PRODUCT_DEFINITION_SHAPE ( 'NONE', 'NONE',  #96 ) ;
#36 = CC_DESIGN_PERSON_AND_ORGANIZATION_ASSIGNMENT ( #239, #190, ( #96 ) ) ;
#37 = DIRECTION ( 'NONE',  ( 0.0000000000000000000, 0.0000000000000000000, -1.000000000000000000 ) ) ;
#38 = CARTESIAN_POINT ( 'NONE',  ( 4.015748031496063000, 0.0000000000000000000, -3.149606299212598600 ) ) ;
#39 = DIRECTION ( 'NONE',  ( 2.121985903335544100E-016, 0.0000000000000000000, 1.000000000000000000 ) ) ;
#40 = CONICAL_SURFACE ( 'NONE', #45, 2.574803149606299100, 0.6090871589077729900 ) ;
#41 = ORIENTED_EDGE ( 'NONE', *, *, #147, .T. ) ;
#42 = ADVANCED_FACE ( 'NONE', ( #57, #20 ), #40, .F. ) ;
#43 = EDGE_CURVE ( 'NONE', #17, #17, #233, .T. ) ;
#44 = CARTESIAN_POINT ( 'NONE',  ( 0.0000000000000000000, 0.0000000000000000000, -2.574803149606300000 ) ) ;
#45 = AXIS2_PLACEMENT_3D ( 'NONE', #250, #10, #39 ) ;
#46 = ADVANCED_FACE ( 'NONE', ( #59, #223 ), #14, .F. ) ;
#47 = DIRECTION ( 'NONE',  ( 1.000000000000000000, 0.0000000000000000000, 0.0000000000000000000 ) ) ;
#48 = EDGE_LOOP ( 'NONE', ( #97 ) ) ;
#49 = CYLINDRICAL_SURFACE ( 'NONE', #99, 3.149606299212598600 ) ;
#50 = DATE_AND_TIME ( #159, #131 ) ;
#51 = PERSON_AND_ORGANIZATION ( #52, #179 ) ;
#52 = PERSON ( 'UNSPECIFIED', 'UNSPECIFIED', 'UNSPECIFIED', ('UNSPECIFIED'), ('UNSPECIFIED'), ('UNSPECIFIED') ) ;
#53 = CC_DESIGN_APPROVAL ( #3, ( #96 ) ) ;
#54 = ORIENTED_EDGE ( 'NONE', *, *, #21, .F. ) ;
#55 = FACE_OUTER_BOUND ( 'NONE', #195, .T. ) ;
#56 = CYLINDRICAL_SURFACE ( 'NONE', #249, 2.574803149606300000 ) ;
#57 = FACE_BOUND ( 'NONE', #132, .T. ) ;
#58 = DIRECTION ( 'NONE',  ( 0.0000000000000000000, 0.0000000000000000000, 1.000000000000000000 ) ) ;
#59 = FACE_OUTER_BOUND ( 'NONE', #85, .T. ) ;
#60 = CARTESIAN_POINT ( 'NONE',  ( 0.0000000000000000000, 0.0000000000000000000, 0.0000000000000000000 ) ) ;
#61 = FACE_BOUND ( 'NONE', #221, .T. ) ;
#62 = ORIENTED_EDGE ( 'NONE', *, *, #164, .T. ) ;
#63 = CC_DESIGN_PERSON_AND_ORGANIZATION_ASSIGNMENT ( #112, #251, ( #33 ) ) ;
#64 = CARTESIAN_POINT ( 'NONE',  ( 7.086614173228346300, 0.0000000000000000000, 0.0000000000000000000 ) ) ;
#65 = MECHANICAL_CONTEXT ( 'NONE', #175, 'mechanical' ) ;
#66 = DIRECTION ( 'NONE',  ( 0.0000000000000000000, 0.0000000000000000000, -1.000000000000000000 ) ) ;
#67 = DATE_AND_TIME ( #124, #220 ) ;
#68 = APPROVAL_STATUS ( 'not_yet_approved' ) ;
#69 = COORDINATED_UNIVERSAL_TIME_OFFSET ( 5, 0, .BEHIND. ) ;
#70 = FACE_OUTER_BOUND ( 'NONE', #8, .T. ) ;
#71 = DIRECTION ( 'NONE',  ( -1.000000000000000000, -0.0000000000000000000, -0.0000000000000000000 ) ) ;
#72 = PERSON_AND_ORGANIZATION ( #52, #179 ) ;
#73 = CARTESIAN_POINT ( 'NONE',  ( 8.543307086614174000, 0.0000000000000000000, -1.448818897637795400 ) ) ;
#74 = ADVANCED_FACE ( 'NONE', ( #171, #226 ), #199, .T. ) ;
#75 = AXIS2_PLACEMENT_3D ( 'NONE', #218, #88, #236 ) ;
#76 = EDGE_LOOP ( 'NONE', ( #62 ) ) ;
#77 = CIRCLE ( 'NONE', #95, 1.771653543307085500 ) ;
#78 = CIRCLE ( 'NONE', #107, 3.149606299212598600 ) ;
#79 = COORDINATED_UNIVERSAL_TIME_OFFSET ( 5, 0, .BEHIND. ) ;
#80 = DIRECTION ( 'NONE',  ( 0.0000000000000000000, 1.000000000000000000, -2.449212707644750600E-016 ) ) ;
#81 = EDGE_LOOP ( 'NONE', ( #162 ) ) ;
#82 = COORDINATED_UNIVERSAL_TIME_OFFSET ( 5, 0, .BEHIND. ) ;
#83 = DIRECTION ( 'NONE',  ( 0.0000000000000000000, 0.0000000000000000000, -1.000000000000000000 ) ) ;
#84 = CC_DESIGN_PERSON_AND_ORGANIZATION_ASSIGNMENT ( #30, #156, ( #33 ) ) ;
#85 = EDGE_LOOP ( 'NONE', ( #89 ) ) ;
#86 = CIRCLE ( 'NONE', #217, 2.574803149606300000 ) ;
#87 = AXIS2_PLACEMENT_3D ( 'NONE', #182, #152, #134 ) ;
#88 = DIRECTION ( 'NONE',  ( -1.000000000000000000, 4.513898307157582400E-032, 8.673617379884034200E-017 ) ) ;
#89 = ORIENTED_EDGE ( 'NONE', *, *, #147, .F. ) ;
#90 = LOCAL_TIME ( 11, 9, 46.00000000000000000, #174 ) ;
#91 = CC_DESIGN_APPROVAL ( #169, ( #33 ) ) ;
#92 = VERTEX_POINT ( 'NONE', #7 ) ;
#93 = SECURITY_CLASSIFICATION ( '', '', #241 ) ;
#94 = AXIS2_PLACEMENT_3D ( 'NONE', #31, #229, #161 ) ;
#95 = AXIS2_PLACEMENT_3D ( 'NONE', #222, #22, #80 ) ;
#96 = PRODUCT_DEFINITION ( 'UNKNOWN', '', #33, #149 ) ;
#97 = ORIENTED_EDGE ( 'NONE', *, *, #16, .T. ) ;
#98 = APPROVAL_DATE_TIME ( #50, #169 ) ;
#99 = AXIS2_PLACEMENT_3D ( 'NONE', #213, #141, #200 ) ;
#100 = DIRECTION ( 'NONE',  ( 0.0000000000000000000, 0.0000000000000000000, -1.000000000000000000 ) ) ;
#101 = AXIS2_PLACEMENT_3D ( 'NONE', #115, #193, #37 ) ;
#102 =( NAMED_UNIT ( * ) PLANE_ANGLE_UNIT ( ) SI_UNIT ( $, .RADIAN. ) );
#103 = DIRECTION ( 'NONE',  ( 1.000000000000000000, 0.0000000000000000000, 0.0000000000000000000 ) ) ;
#104 = LOCAL_TIME ( 11, 9, 46.00000000000000000, #82 ) ;
#105 = CARTESIAN_POINT ( 'NONE',  ( 8.543307086614174000, 0.0000000000000000000, 0.0000000000000000000 ) ) ;
#106 = EDGE_CURVE ( 'NONE', #187, #187, #78, .T. ) ;
#107 = AXIS2_PLACEMENT_3D ( 'NONE', #227, #103, #225 ) ;
#108 = FACE_OUTER_BOUND ( 'NONE', #81, .T. ) ;
#109 = COORDINATED_UNIVERSAL_TIME_OFFSET ( 5, 0, .BEHIND. ) ;
#110 = DIRECTION ( 'NONE',  ( -1.000000000000000000, -0.0000000000000000000, -0.0000000000000000000 ) ) ;
#111 = APPROVAL_DATE_TIME ( #118, #135 ) ;
#112 = PERSON_AND_ORGANIZATION ( #52, #179 ) ;
#113 = ORIENTED_EDGE ( 'NONE', *, *, #21, .T. ) ;
#114 =( CONVERSION_BASED_UNIT ( 'INCH', #24 ) LENGTH_UNIT ( ) NAMED_UNIT ( #194 ) );
#115 = CARTESIAN_POINT ( 'NONE',  ( 7.086614173228346300, 0.0000000000000000000, 0.0000000000000000000 ) ) ;
#116 = APPROVAL_STATUS ( 'not_yet_approved' ) ;
#117 = CARTESIAN_POINT ( 'NONE',  ( 4.015748031496063000, 0.0000000000000000000, 0.0000000000000000000 ) ) ;
#118 = DATE_AND_TIME ( #146, #151 ) ;
#119 = ORIENTED_EDGE ( 'NONE', *, *, #16, .F. ) ;
#120 = CIRCLE ( 'NONE', #130, 3.149606299212598600 ) ;
#121 = CARTESIAN_POINT ( 'NONE',  ( 5.629921259842520300, 1.448818897637794700, -3.548465655170345400E-016 ) ) ;
#122 = VERTEX_POINT ( 'NONE', #44 ) ;
#123 = PERSON_AND_ORGANIZATION ( #52, #179 ) ;
#124 = CALENDAR_DATE ( 2017, 31, 7 ) ;
#125 =( LENGTH_UNIT ( ) NAMED_UNIT ( * ) SI_UNIT ( $, .METRE. ) );
#126 = APPROVAL_PERSON_ORGANIZATION ( #51, #3, #211 ) ;
#127 = EDGE_LOOP ( 'NONE', ( #158 ) ) ;
#128 = ORIENTED_EDGE ( 'NONE', *, *, #164, .F. ) ;
#129 = DIRECTION ( 'NONE',  ( 1.000000000000000000, 0.0000000000000000000, 0.0000000000000000000 ) ) ;
#130 = AXIS2_PLACEMENT_3D ( 'NONE', #117, #137, #143 ) ;
#131 = LOCAL_TIME ( 11, 9, 46.00000000000000000, #109 ) ;
#132 = EDGE_LOOP ( 'NONE', ( #252 ) ) ;
#133 = CC_DESIGN_PERSON_AND_ORGANIZATION_ASSIGNMENT ( #184, #13, ( #201 ) ) ;
#134 = DIRECTION ( 'NONE',  ( 0.0000000000000000000, 1.000000000000000000, -2.449212707644750100E-016 ) ) ;
#135 = APPROVAL ( #68, 'UNSPECIFIED' ) ;
#136 = CALENDAR_DATE ( 2017, 31, 7 ) ;
#137 = DIRECTION ( 'NONE',  ( -1.000000000000000000, -0.0000000000000000000, -0.0000000000000000000 ) ) ;
#138 = CC_DESIGN_PERSON_AND_ORGANIZATION_ASSIGNMENT ( #183, #15, ( #93 ) ) ;
#139 = CC_DESIGN_DATE_AND_TIME_ASSIGNMENT ( #202, #2, ( #93 ) ) ;
#140 = VERTEX_POINT ( 'NONE', #166 ) ;
#141 = DIRECTION ( 'NONE',  ( 1.000000000000000000, 0.0000000000000000000, 0.0000000000000000000 ) ) ;
#142 = VERTEX_POINT ( 'NONE', #38 ) ;
#143 = DIRECTION ( 'NONE',  ( 0.0000000000000000000, 0.0000000000000000000, -1.000000000000000000 ) ) ;
#144 = EDGE_LOOP ( 'NONE', ( #119 ) ) ;
#145 = ORIENTED_EDGE ( 'NONE', *, *, #106, .F. ) ;
#146 = CALENDAR_DATE ( 2017, 31, 7 ) ;
#147 = EDGE_CURVE ( 'NONE', #237, #237, #153, .T. ) ;
#148 = CARTESIAN_POINT ( 'NONE',  ( 4.015748031496063000, 0.0000000000000000000, 0.0000000000000000000 ) ) ;
#149 = DESIGN_CONTEXT ( 'detailed design', #150, 'design' ) ;
#150 = APPLICATION_CONTEXT ( 'configuration controlled 3d designs of mechanical parts and assemblies' ) ;
#151 = LOCAL_TIME ( 11, 9, 46.00000000000000000, #69 ) ;
#152 = DIRECTION ( 'NONE',  ( -1.000000000000000000, 0.0000000000000000000, 0.0000000000000000000 ) ) ;
#153 = CIRCLE ( 'NONE', #207, 1.448818897637795400 ) ;
#154 = CALENDAR_DATE ( 2017, 31, 7 ) ;
#155 = PRODUCT_RELATED_PRODUCT_CATEGORY ( 'detail', '', ( #201 ) ) ;
#156 = PERSON_AND_ORGANIZATION_ROLE ( 'creator' ) ;
#157 = ADVANCED_FACE ( 'NONE', ( #204, #209 ), #160, .T. ) ;
#158 = ORIENTED_EDGE ( 'NONE', *, *, #206, .T. ) ;
#159 = CALENDAR_DATE ( 2017, 31, 7 ) ;
#160 = PLANE ( 'NONE',  #1 ) ;
#161 = DIRECTION ( 'NONE',  ( 0.0000000000000000000, 0.0000000000000000000, -1.000000000000000000 ) ) ;
#162 = ORIENTED_EDGE ( 'NONE', *, *, #206, .F. ) ;
#163 = DATE_TIME_ROLE ( 'creation_date' ) ;
#164 = EDGE_CURVE ( 'NONE', #170, #170, #168, .T. ) ;
#165 = UNCERTAINTY_MEASURE_WITH_UNIT (LENGTH_MEASURE( 1.000000000000000100E-005 ), #114, 'distance_accuracy_value', 'NONE');
#166 = CARTESIAN_POINT ( 'NONE',  ( 4.015748031496063000, 0.0000000000000000000, -2.574803149606300000 ) ) ;
#167 = ORIENTED_EDGE ( 'NONE', *, *, #219, .F. ) ;
#168 = CIRCLE ( 'NONE', #28, 1.771653543307086600 ) ;
#169 = APPROVAL ( #4, 'UNSPECIFIED' ) ;
#170 = VERTEX_POINT ( 'NONE', #176 ) ;
#171 = FACE_OUTER_BOUND ( 'NONE', #76, .T. ) ;
#172 = FACE_BOUND ( 'NONE', #48, .T. ) ;
#173 = APPROVAL_ROLE ( '' ) ;
#174 = COORDINATED_UNIVERSAL_TIME_OFFSET ( 5, 0, .BEHIND. ) ;
#175 = APPLICATION_CONTEXT ( 'configuration controlled 3d designs of mechanical parts and assemblies' ) ;
#176 = CARTESIAN_POINT ( 'NONE',  ( 8.543307086614174000, 0.0000000000000000000, -1.771653543307086600 ) ) ;
#177 = ADVANCED_FACE ( 'NONE', ( #108, #55 ), #56, .F. ) ;
#178 = DIRECTION ( 'NONE',  ( -1.000000000000000000, 0.0000000000000000000, -0.0000000000000000000 ) ) ;
#179 = ORGANIZATION ( 'UNSPECIFIED', 'UNSPECIFIED', '' ) ;
#180 = DIRECTION ( 'NONE',  ( 1.000000000000000000, 0.0000000000000000000, 0.0000000000000000000 ) ) ;
#181 = CC_DESIGN_DATE_AND_TIME_ASSIGNMENT ( #67, #163, ( #96 ) ) ;
#182 = CARTESIAN_POINT ( 'NONE',  ( 5.629921259842520300, 0.0000000000000000000, 0.0000000000000000000 ) ) ;
#183 = PERSON_AND_ORGANIZATION ( #52, #179 ) ;
#184 = PERSON_AND_ORGANIZATION ( #52, #179 ) ;
#185 = SHAPE_DEFINITION_REPRESENTATION ( #35, #244 ) ;
#186 = CARTESIAN_POINT ( 'NONE',  ( 0.0000000000000000000, 0.0000000000000000000, -3.149606299212598600 ) ) ;
#187 = VERTEX_POINT ( 'NONE', #186 ) ;
#188 = DATE_AND_TIME ( #136, #104 ) ;
#189 = DIRECTION ( 'NONE',  ( -1.000000000000000000, -0.0000000000000000000, -0.0000000000000000000 ) ) ;
#190 = PERSON_AND_ORGANIZATION_ROLE ( 'creator' ) ;
#191 = APPROVAL_ROLE ( '' ) ;
#192 = FACE_OUTER_BOUND ( 'NONE', #27, .T. ) ;
#193 = DIRECTION ( 'NONE',  ( 1.000000000000000000, 0.0000000000000000000, 0.0000000000000000000 ) ) ;
#194 = DIMENSIONAL_EXPONENTS ( 1.000000000000000000, 0.0000000000000000000, 0.0000000000000000000, 0.0000000000000000000, 0.0000000000000000000, 0.0000000000000000000, 0.0000000000000000000 ) ;
#195 = EDGE_LOOP ( 'NONE', ( #167 ) ) ;
#196 = APPROVAL_PERSON_ORGANIZATION ( #123, #135, #173 ) ;
#197 = CC_DESIGN_SECURITY_CLASSIFICATION ( #93, ( #33 ) ) ;
#198 = CIRCLE ( 'NONE', #5, 2.574803149606300000 ) ;
#199 = CYLINDRICAL_SURFACE ( 'NONE', #101, 1.771653543307086600 ) ;
#200 = DIRECTION ( 'NONE',  ( 0.0000000000000000000, 0.0000000000000000000, -1.000000000000000000 ) ) ;
#201 = PRODUCT ( '581229531', '581229531', '', ( #65 ) ) ;
#202 = DATE_AND_TIME ( #154, #90 ) ;
#203 = APPLICATION_PROTOCOL_DEFINITION ( 'international standard', 'config_control_design', 1994, #175 ) ;
#204 = FACE_OUTER_BOUND ( 'NONE', #6, .T. ) ;
#205 = CARTESIAN_POINT ( 'NONE',  ( 0.0000000000000000000, 2.862204724409449100, -7.010148182904488300E-016 ) ) ;
#206 = EDGE_CURVE ( 'NONE', #140, #140, #198, .T. ) ;
#207 = AXIS2_PLACEMENT_3D ( 'NONE', #105, #71, #29 ) ;
#208 = APPROVAL_DATE_TIME ( #188, #3 ) ;
#209 = FACE_BOUND ( 'NONE', #18, .T. ) ;
#210 = ORIENTED_EDGE ( 'NONE', *, *, #43, .T. ) ;
#211 = APPROVAL_ROLE ( '' ) ;
#212 = ADVANCED_FACE ( 'NONE', ( #61, #214 ), #9, .T. ) ;
#213 = CARTESIAN_POINT ( 'NONE',  ( 2.007874015748031500, 0.0000000000000000000, 0.0000000000000000000 ) ) ;
#214 = FACE_OUTER_BOUND ( 'NONE', #23, .T. ) ;
#215 = ORIENTED_EDGE ( 'NONE', *, *, #219, .T. ) ;
#216 = CONICAL_SURFACE ( 'NONE', #75, 3.149606299212599000, 0.7066142024083049700 ) ;
#217 = AXIS2_PLACEMENT_3D ( 'NONE', #60, #228, #100 ) ;
#218 = CARTESIAN_POINT ( 'NONE',  ( 4.015748031496063000, 3.397216615053942000E-063, 6.527873485505617800E-048 ) ) ;
#219 = EDGE_CURVE ( 'NONE', #122, #122, #86, .T. ) ;
#220 = LOCAL_TIME ( 11, 9, 46.00000000000000000, #79 ) ;
#221 = EDGE_LOOP ( 'NONE', ( #41 ) ) ;
#222 = CARTESIAN_POINT ( 'NONE',  ( 5.629921259842519500, 0.0000000000000000000, 0.0000000000000000000 ) ) ;
#223 = FACE_OUTER_BOUND ( 'NONE', #26, .T. ) ;
#224 = CC_DESIGN_APPROVAL ( #135, ( #93 ) ) ;
#225 = DIRECTION ( 'NONE',  ( 0.0000000000000000000, 0.0000000000000000000, -1.000000000000000000 ) ) ;
#226 = FACE_OUTER_BOUND ( 'NONE', #144, .T. ) ;
#227 = CARTESIAN_POINT ( 'NONE',  ( 0.0000000000000000000, 0.0000000000000000000, 0.0000000000000000000 ) ) ;
#228 = DIRECTION ( 'NONE',  ( 1.000000000000000000, 0.0000000000000000000, 0.0000000000000000000 ) ) ;
#229 = DIRECTION ( 'NONE',  ( 1.000000000000000000, 0.0000000000000000000, 0.0000000000000000000 ) ) ;
#230 = EDGE_LOOP ( 'NONE', ( #113 ) ) ;
#231 = AXIS2_PLACEMENT_3D ( 'NONE', #64, #47, #238 ) ;
#232 = ADVANCED_FACE ( 'NONE', ( #172, #192 ), #216, .T. ) ;
#233 = CIRCLE ( 'NONE', #87, 1.448818897637794700 ) ;
#234 =( NAMED_UNIT ( * ) SI_UNIT ( $, .STERADIAN. ) SOLID_ANGLE_UNIT ( ) );
#235 = FACE_OUTER_BOUND ( 'NONE', #230, .T. ) ;
#236 = DIRECTION ( 'NONE',  ( 1.734723475976806800E-016, 0.0000000000000000000, 1.000000000000000000 ) ) ;
#237 = VERTEX_POINT ( 'NONE', #73 ) ;
#238 = DIRECTION ( 'NONE',  ( 0.0000000000000000000, 0.0000000000000000000, -1.000000000000000000 ) ) ;
#239 = PERSON_AND_ORGANIZATION ( #52, #179 ) ;
#240 = ORIENTED_EDGE ( 'NONE', *, *, #106, .T. ) ;
#241 = SECURITY_CLASSIFICATION_LEVEL ( 'unclassified' ) ;
#242 = CARTESIAN_POINT ( 'NONE',  ( 8.543307086614174000, 0.0000000000000000000, 0.0000000000000000000 ) ) ;
#243 = DIRECTION ( 'NONE',  ( -0.0000000000000000000, 0.0000000000000000000, 1.000000000000000000 ) ) ;
#244 = ADVANCED_BREP_SHAPE_REPRESENTATION ( '581229531', ( #11, #34 ), #248 ) ;
#245 = ADVANCED_FACE ( 'NONE', ( #235, #70 ), #49, .T. ) ;
#246 = APPROVAL_PERSON_ORGANIZATION ( #72, #169, #191 ) ;
#247 = CARTESIAN_POINT ( 'NONE',  ( 0.0000000000000000000, 0.0000000000000000000, 0.0000000000000000000 ) ) ;
#248 =( GEOMETRIC_REPRESENTATION_CONTEXT ( 3 ) GLOBAL_UNCERTAINTY_ASSIGNED_CONTEXT ( ( #165 ) ) GLOBAL_UNIT_ASSIGNED_CONTEXT ( ( #114, #102, #234 ) ) REPRESENTATION_CONTEXT ( 'NONE', 'WORKASPACE' ) );
#249 = AXIS2_PLACEMENT_3D ( 'NONE', #25, #129, #83 ) ;
#250 = CARTESIAN_POINT ( 'NONE',  ( 4.015748031496063000, 2.207738764747745900E-063, 5.202058037420057100E-048 ) ) ;
#251 = PERSON_AND_ORGANIZATION_ROLE ( 'design_supplier' ) ;
#252 = ORIENTED_EDGE ( 'NONE', *, *, #43, .F. ) ;
ENDSEC;
END-ISO-10303-21;
