ISO-10303-21;
HEADER;
FILE_DESCRIPTION (( 'STEP AP203' ),
    '1' );
FILE_NAME ('581229532.STEP',
    '2017-07-31T15:17:12',
    ( '' ),
    ( '' ),
    'SwSTEP 2.0',
    'SolidWorks 2017',
    '' );
FILE_SCHEMA (( 'CONFIG_CONTROL_DESIGN' ));
ENDSEC;

DATA;
#1 = DIRECTION ( 'NONE',  ( -1.000000000000000000, 0.0000000000000000000, 0.0000000000000000000 ) ) ;
#2 = VERTEX_POINT ( 'NONE', #239 ) ;
#3 = MANIFOLD_SOLID_BREP ( 'Revolve1', #9 ) ;
#4 = CARTESIAN_POINT ( 'NONE',  ( 0.0000000000000000000, 0.0000000000000000000, 3.149606299212598600 ) ) ;
#5 = FACE_OUTER_BOUND ( 'NONE', #23, .T. ) ;
#6 = AXIS2_PLACEMENT_3D ( 'NONE', #192, #203, #19 ) ;
#7 = EDGE_LOOP ( 'NONE', ( #133 ) ) ;
#8 = ORIENTED_EDGE ( 'NONE', *, *, #194, .F. ) ;
#9 = CLOSED_SHELL ( 'NONE', ( #113, #114, #237, #95, #61, #111, #59, #130 ) ) ;
#10 = CIRCLE ( 'NONE', #68, 1.771653543307086600 ) ;
#11 = PRODUCT_DEFINITION_FORMATION_WITH_SPECIFIED_SOURCE ( 'ANY', '', #161, .NOT_KNOWN. ) ;
#12 = EDGE_LOOP ( 'NONE', ( #158 ) ) ;
#13 = EDGE_LOOP ( 'NONE', ( #67 ) ) ;
#14 = CIRCLE ( 'NONE', #94, 3.149606299212598600 ) ;
#15 = CARTESIAN_POINT ( 'NONE',  ( 8.858267716535433300, 0.0000000000000000000, 0.0000000000000000000 ) ) ;
#16 = VERTEX_POINT ( 'NONE', #233 ) ;
#17 = EDGE_LOOP ( 'NONE', ( #84 ) ) ;
#18 = CYLINDRICAL_SURFACE ( 'NONE', #174, 1.771653543307086600 ) ;
#19 = DIRECTION ( 'NONE',  ( 0.0000000000000000000, 0.0000000000000000000, 1.000000000000000000 ) ) ;
#20 = CYLINDRICAL_SURFACE ( 'NONE', #104, 2.574803149606299100 ) ;
#21 = DIRECTION ( 'NONE',  ( -0.0000000000000000000, 0.0000000000000000000, -1.000000000000000000 ) ) ;
#22 = EDGE_LOOP ( 'NONE', ( #74 ) ) ;
#23 = EDGE_LOOP ( 'NONE', ( #119 ) ) ;
#24 = PRODUCT_DEFINITION ( 'UNKNOWN', '', #11, #188 ) ;
#25 = FACE_OUTER_BOUND ( 'NONE', #63, .T. ) ;
#26 = FACE_OUTER_BOUND ( 'NONE', #12, .T. ) ;
#27 = APPROVAL ( #198, 'UNSPECIFIED' ) ;
#28 = FACE_BOUND ( 'NONE', #17, .T. ) ;
#29 = ORIENTED_EDGE ( 'NONE', *, *, #194, .T. ) ;
#30 = DIMENSIONAL_EXPONENTS ( 1.000000000000000000, 0.0000000000000000000, 0.0000000000000000000, 0.0000000000000000000, 0.0000000000000000000, 0.0000000000000000000, 0.0000000000000000000 ) ;
#31 = CARTESIAN_POINT ( 'NONE',  ( 3.858267716535433300, 0.0000000000000000000, 0.0000000000000000000 ) ) ;
#32 = DIRECTION ( 'NONE',  ( 0.0000000000000000000, 0.0000000000000000000, 1.000000000000000000 ) ) ;
#33 = LOCAL_TIME ( 11, 17, 12.00000000000000000, #128 ) ;
#34 = DATE_AND_TIME ( #246, #57 ) ;
#35 = CC_DESIGN_PERSON_AND_ORGANIZATION_ASSIGNMENT ( #152, #217, ( #161 ) ) ;
#36 = CIRCLE ( 'NONE', #6, 1.771653543307086600 ) ;
#37 = AXIS2_PLACEMENT_3D ( 'NONE', #96, #121, #40 ) ;
#38 = FACE_OUTER_BOUND ( 'NONE', #219, .T. ) ;
#39 = CARTESIAN_POINT ( 'NONE',  ( 8.858267716535433300, 0.0000000000000000000, 0.0000000000000000000 ) ) ;
#40 = DIRECTION ( 'NONE',  ( 0.0000000000000000000, 0.0000000000000000000, 1.000000000000000000 ) ) ;
#41 = APPROVAL_ROLE ( '' ) ;
#42 = COORDINATED_UNIVERSAL_TIME_OFFSET ( 5, 0, .BEHIND. ) ;
#43 = DIRECTION ( 'NONE',  ( -1.000000000000000000, 0.0000000000000000000, 0.0000000000000000000 ) ) ;
#44 = PERSON_AND_ORGANIZATION ( #125, #106 ) ;
#45 = EDGE_LOOP ( 'NONE', ( #204 ) ) ;
#46 = CC_DESIGN_PERSON_AND_ORGANIZATION_ASSIGNMENT ( #186, #142, ( #11 ) ) ;
#47 = PLANE ( 'NONE',  #205 ) ;
#48 = DIRECTION ( 'NONE',  ( -1.000000000000000000, 0.0000000000000000000, 0.0000000000000000000 ) ) ;
#49 = ORIENTED_EDGE ( 'NONE', *, *, #177, .F. ) ;
#50 = ORIENTED_EDGE ( 'NONE', *, *, #89, .T. ) ;
#51 = AXIS2_PLACEMENT_3D ( 'NONE', #164, #143, #249 ) ;
#52 = APPROVAL_PERSON_ORGANIZATION ( #199, #175, #241 ) ;
#53 = DIRECTION ( 'NONE',  ( -1.000000000000000000, 0.0000000000000000000, 0.0000000000000000000 ) ) ;
#54 = CIRCLE ( 'NONE', #115, 2.165354330708661600 ) ;
#55 = FACE_OUTER_BOUND ( 'NONE', #209, .T. ) ;
#56 = APPROVAL_PERSON_ORGANIZATION ( #147, #146, #41 ) ;
#57 = LOCAL_TIME ( 11, 17, 12.00000000000000000, #81 ) ;
#58 = EDGE_LOOP ( 'NONE', ( #50 ) ) ;
#59 = ADVANCED_FACE ( 'NONE', ( #26, #65 ), #242, .T. ) ;
#60 = DIRECTION ( 'NONE',  ( 0.0000000000000000000, 0.0000000000000000000, 1.000000000000000000 ) ) ;
#61 = ADVANCED_FACE ( 'NONE', ( #55, #138 ), #18, .F. ) ;
#62 = DIRECTION ( 'NONE',  ( 0.0000000000000000000, 0.0000000000000000000, 1.000000000000000000 ) ) ;
#63 = EDGE_LOOP ( 'NONE', ( #221 ) ) ;
#64 = CC_DESIGN_PERSON_AND_ORGANIZATION_ASSIGNMENT ( #107, #148, ( #11 ) ) ;
#65 = FACE_OUTER_BOUND ( 'NONE', #110, .T. ) ;
#66 = APPROVAL_STATUS ( 'not_yet_approved' ) ;
#67 = ORIENTED_EDGE ( 'NONE', *, *, #225, .F. ) ;
#68 = AXIS2_PLACEMENT_3D ( 'NONE', #240, #43, #62 ) ;
#69 = PERSON_AND_ORGANIZATION_ROLE ( 'classification_officer' ) ;
#70 = DATE_TIME_ROLE ( 'classification_date' ) ;
#71 = EDGE_LOOP ( 'NONE', ( #73 ) ) ;
#72 = SECURITY_CLASSIFICATION_LEVEL ( 'unclassified' ) ;
#73 = ORIENTED_EDGE ( 'NONE', *, *, #134, .T. ) ;
#74 = ORIENTED_EDGE ( 'NONE', *, *, #200, .T. ) ;
#75 = CARTESIAN_POINT ( 'NONE',  ( 8.858267716535433300, 0.0000000000000000000, 2.165354330708661600 ) ) ;
#76 = DATE_TIME_ROLE ( 'creation_date' ) ;
#77 = VERTEX_POINT ( 'NONE', #75 ) ;
#78 = CC_DESIGN_PERSON_AND_ORGANIZATION_ASSIGNMENT ( #117, #69, ( #190 ) ) ;
#79 = EDGE_LOOP ( 'NONE', ( #157 ) ) ;
#80 = CONICAL_SURFACE ( 'NONE', #184, 2.574803149606299100, 0.4716155678623276100 ) ;
#81 = COORDINATED_UNIVERSAL_TIME_OFFSET ( 5, 0, .BEHIND. ) ;
#82 = CC_DESIGN_APPROVAL ( #175, ( #24 ) ) ;
#83 = DIRECTION ( 'NONE',  ( 1.000000000000000000, 0.0000000000000000000, -0.0000000000000000000 ) ) ;
#84 = ORIENTED_EDGE ( 'NONE', *, *, #252, .T. ) ;
#85 = CC_DESIGN_PERSON_AND_ORGANIZATION_ASSIGNMENT ( #245, #160, ( #24 ) ) ;
#86 = DIRECTION ( 'NONE',  ( -1.000000000000000000, 0.0000000000000000000, 0.0000000000000000000 ) ) ;
#87 = DIRECTION ( 'NONE',  ( 0.0000000000000000000, 0.0000000000000000000, 1.000000000000000000 ) ) ;
#88 = CALENDAR_DATE ( 2017, 31, 7 ) ;
#89 = EDGE_CURVE ( 'NONE', #250, #250, #36, .T. ) ;
#90 = PLANE ( 'NONE',  #150 ) ;
#91 = CALENDAR_DATE ( 2017, 31, 7 ) ;
#92 = CC_DESIGN_DATE_AND_TIME_ASSIGNMENT ( #171, #70, ( #190 ) ) ;
#93 = EDGE_LOOP ( 'NONE', ( #8 ) ) ;
#94 = AXIS2_PLACEMENT_3D ( 'NONE', #156, #155, #60 ) ;
#95 = ADVANCED_FACE ( 'NONE', ( #238, #25 ), #80, .F. ) ;
#96 = CARTESIAN_POINT ( 'NONE',  ( 0.0000000000000000000, 0.0000000000000000000, 0.0000000000000000000 ) ) ;
#97 = DATE_AND_TIME ( #91, #137 ) ;
#98 = FACE_OUTER_BOUND ( 'NONE', #13, .T. ) ;
#99 = CC_DESIGN_APPROVAL ( #146, ( #190 ) ) ;
#100 = CARTESIAN_POINT ( 'NONE',  ( 5.433070866141733300, 0.0000000000000000000, 0.0000000000000000000 ) ) ;
#101 = DIRECTION ( 'NONE',  ( -1.000000000000000000, 0.0000000000000000000, 0.0000000000000000000 ) ) ;
#102 = CARTESIAN_POINT ( 'NONE',  ( 0.0000000000000000000, 0.0000000000000000000, 0.0000000000000000000 ) ) ;
#103 = DIRECTION ( 'NONE',  ( -1.000000000000000000, 0.0000000000000000000, 0.0000000000000000000 ) ) ;
#104 = AXIS2_PLACEMENT_3D ( 'NONE', #15, #112, #180 ) ;
#105 = DIRECTION ( 'NONE',  ( -1.000000000000000000, 0.0000000000000000000, 0.0000000000000000000 ) ) ;
#106 = ORGANIZATION ( 'UNSPECIFIED', 'UNSPECIFIED', '' ) ;
#107 = PERSON_AND_ORGANIZATION ( #125, #106 ) ;
#108 = CC_DESIGN_SECURITY_CLASSIFICATION ( #190, ( #11 ) ) ;
#109 = DIRECTION ( 'NONE',  ( -1.000000000000000000, 0.0000000000000000000, 0.0000000000000000000 ) ) ;
#110 = EDGE_LOOP ( 'NONE', ( #230 ) ) ;
#111 = ADVANCED_FACE ( 'NONE', ( #189, #196 ), #47, .F. ) ;
#112 = DIRECTION ( 'NONE',  ( -1.000000000000000000, 0.0000000000000000000, 0.0000000000000000000 ) ) ;
#113 = ADVANCED_FACE ( 'NONE', ( #38, #178 ), #127, .T. ) ;
#114 = ADVANCED_FACE ( 'NONE', ( #176, #5 ), #90, .F. ) ;
#115 = AXIS2_PLACEMENT_3D ( 'NONE', #100, #101, #87 ) ;
#116 = DIRECTION ( 'NONE',  ( 0.0000000000000000000, 0.0000000000000000000, 1.000000000000000000 ) ) ;
#117 = PERSON_AND_ORGANIZATION ( #125, #106 ) ;
#118 = DIRECTION ( 'NONE',  ( 0.0000000000000000000, 0.0000000000000000000, 1.000000000000000000 ) ) ;
#119 = ORIENTED_EDGE ( 'NONE', *, *, #177, .T. ) ;
#120 = DIRECTION ( 'NONE',  ( 0.0000000000000000000, 0.0000000000000000000, 1.000000000000000000 ) ) ;
#121 = DIRECTION ( 'NONE',  ( -1.000000000000000000, 0.0000000000000000000, 0.0000000000000000000 ) ) ;
#122 = EDGE_LOOP ( 'NONE', ( #29 ) ) ;
#123 = DIRECTION ( 'NONE',  ( 0.0000000000000000000, 0.0000000000000000000, 1.000000000000000000 ) ) ;
#124 = AXIS2_PLACEMENT_3D ( 'NONE', #149, #86, #116 ) ;
#125 = PERSON ( 'UNSPECIFIED', 'UNSPECIFIED', 'UNSPECIFIED', ('UNSPECIFIED'), ('UNSPECIFIED'), ('UNSPECIFIED') ) ;
#126 = DIRECTION ( 'NONE',  ( 0.0000000000000000000, 0.0000000000000000000, 1.000000000000000000 ) ) ;
#127 = CYLINDRICAL_SURFACE ( 'NONE', #51, 3.149606299212598600 ) ;
#128 = COORDINATED_UNIVERSAL_TIME_OFFSET ( 5, 0, .BEHIND. ) ;
#129 = COORDINATED_UNIVERSAL_TIME_OFFSET ( 5, 0, .BEHIND. ) ;
#130 = ADVANCED_FACE ( 'NONE', ( #223, #28 ), #165, .T. ) ;
#131 = APPROVAL_DATE_TIME ( #97, #175 ) ;
#132 = VERTEX_POINT ( 'NONE', #144 ) ;
#133 = ORIENTED_EDGE ( 'NONE', *, *, #200, .F. ) ;
#134 = EDGE_CURVE ( 'NONE', #235, #235, #10, .T. ) ;
#135 = DIRECTION ( 'NONE',  ( -1.000000000000000000, 0.0000000000000000000, 0.0000000000000000000 ) ) ;
#136 = AXIS2_PLACEMENT_3D ( 'NONE', #31, #109, #243 ) ;
#137 = LOCAL_TIME ( 11, 17, 12.00000000000000000, #42 ) ;
#138 = FACE_OUTER_BOUND ( 'NONE', #71, .T. ) ;
#139 = CIRCLE ( 'NONE', #136, 2.574803149606299100 ) ;
#140 = CARTESIAN_POINT ( 'NONE',  ( 5.433070866141733300, 0.0000000000000000000, 1.771653543307086600 ) ) ;
#141 = CARTESIAN_POINT ( 'NONE',  ( 0.0000000000000000000, 3.149606299212598600, 0.0000000000000000000 ) ) ;
#142 = PERSON_AND_ORGANIZATION_ROLE ( 'creator' ) ;
#143 = DIRECTION ( 'NONE',  ( -1.000000000000000000, 0.0000000000000000000, 0.0000000000000000000 ) ) ;
#144 = CARTESIAN_POINT ( 'NONE',  ( 5.433070866141733300, 0.0000000000000000000, 2.165354330708661600 ) ) ;
#145 = CIRCLE ( 'NONE', #37, 3.149606299212598600 ) ;
#146 = APPROVAL ( #66, 'UNSPECIFIED' ) ;
#147 = PERSON_AND_ORGANIZATION ( #125, #106 ) ;
#148 = PERSON_AND_ORGANIZATION_ROLE ( 'design_supplier' ) ;
#149 = CARTESIAN_POINT ( 'NONE',  ( 0.0000000000000000000, 0.0000000000000000000, 0.0000000000000000000 ) ) ;
#150 = AXIS2_PLACEMENT_3D ( 'NONE', #141, #83, #21 ) ;
#151 = COORDINATED_UNIVERSAL_TIME_OFFSET ( 5, 0, .BEHIND. ) ;
#152 = PERSON_AND_ORGANIZATION ( #125, #106 ) ;
#153 = APPROVAL_ROLE ( '' ) ;
#154 = PRODUCT_RELATED_PRODUCT_CATEGORY ( 'detail', '', ( #161 ) ) ;
#155 = DIRECTION ( 'NONE',  ( -1.000000000000000000, 0.0000000000000000000, 0.0000000000000000000 ) ) ;
#156 = CARTESIAN_POINT ( 'NONE',  ( 3.858267716535433300, 0.0000000000000000000, 0.0000000000000000000 ) ) ;
#157 = ORIENTED_EDGE ( 'NONE', *, *, #134, .F. ) ;
#158 = ORIENTED_EDGE ( 'NONE', *, *, #252, .F. ) ;
#159 = CARTESIAN_POINT ( 'NONE',  ( 5.433070866141733300, 0.0000000000000000000, 0.0000000000000000000 ) ) ;
#160 = PERSON_AND_ORGANIZATION_ROLE ( 'creator' ) ;
#161 = PRODUCT ( '581229532', '581229532', '', ( #201 ) ) ;
#162 = VERTEX_POINT ( 'NONE', #224 ) ;
#163 = AXIS2_PLACEMENT_3D ( 'NONE', #159, #1, #32 ) ;
#164 = CARTESIAN_POINT ( 'NONE',  ( 8.858267716535433300, 0.0000000000000000000, 0.0000000000000000000 ) ) ;
#165 = CONICAL_SURFACE ( 'NONE', #163, 2.165354330708661600, 0.5585993153435623300 ) ;
#166 = DATE_AND_TIME ( #88, #33 ) ;
#167 = LOCAL_TIME ( 11, 17, 12.00000000000000000, #151 ) ;
#168 = ORIENTED_EDGE ( 'NONE', *, *, #89, .F. ) ;
#169 = APPROVAL_DATE_TIME ( #34, #27 ) ;
#170 = CALENDAR_DATE ( 2017, 31, 7 ) ;
#171 = DATE_AND_TIME ( #170, #167 ) ;
#172 = LENGTH_MEASURE_WITH_UNIT ( LENGTH_MEASURE( 0.02539999999999999900 ), #215 );
#173 = UNCERTAINTY_MEASURE_WITH_UNIT (LENGTH_MEASURE( 1.000000000000000100E-005 ), #214, 'distance_accuracy_value', 'NONE');
#174 = AXIS2_PLACEMENT_3D ( 'NONE', #244, #48, #126 ) ;
#175 = APPROVAL ( #251, 'UNSPECIFIED' ) ;
#176 = FACE_BOUND ( 'NONE', #7, .T. ) ;
#177 = EDGE_CURVE ( 'NONE', #193, #193, #145, .T. ) ;
#178 = FACE_OUTER_BOUND ( 'NONE', #122, .T. ) ;
#179 = CC_DESIGN_APPROVAL ( #27, ( #11 ) ) ;
#180 = DIRECTION ( 'NONE',  ( 0.0000000000000000000, 0.0000000000000000000, 1.000000000000000000 ) ) ;
#181 = APPROVAL_DATE_TIME ( #210, #146 ) ;
#182 = LOCAL_TIME ( 11, 17, 12.00000000000000000, #129 ) ;
#183 = CC_DESIGN_DATE_AND_TIME_ASSIGNMENT ( #166, #76, ( #24 ) ) ;
#184 = AXIS2_PLACEMENT_3D ( 'NONE', #220, #105, #123 ) ;
#185 = CALENDAR_DATE ( 2017, 31, 7 ) ;
#186 = PERSON_AND_ORGANIZATION ( #125, #106 ) ;
#187 = EDGE_CURVE ( 'NONE', #77, #77, #213, .T. ) ;
#188 = DESIGN_CONTEXT ( 'detailed design', #218, 'design' ) ;
#189 = FACE_OUTER_BOUND ( 'NONE', #45, .T. ) ;
#190 = SECURITY_CLASSIFICATION ( '', '', #72 ) ;
#191 = PRODUCT_DEFINITION_SHAPE ( 'NONE', 'NONE',  #24 ) ;
#192 = CARTESIAN_POINT ( 'NONE',  ( 8.858267716535433300, 0.0000000000000000000, 0.0000000000000000000 ) ) ;
#193 = VERTEX_POINT ( 'NONE', #4 ) ;
#194 = EDGE_CURVE ( 'NONE', #2, #2, #14, .T. ) ;
#195 = DIRECTION ( 'NONE',  ( 0.0000000000000000000, 0.0000000000000000000, 1.000000000000000000 ) ) ;
#196 = FACE_BOUND ( 'NONE', #58, .T. ) ;
#197 = FACE_OUTER_BOUND ( 'NONE', #22, .T. ) ;
#198 = APPROVAL_STATUS ( 'not_yet_approved' ) ;
#199 = PERSON_AND_ORGANIZATION ( #125, #106 ) ;
#200 = EDGE_CURVE ( 'NONE', #16, #16, #248, .T. ) ;
#201 = MECHANICAL_CONTEXT ( 'NONE', #226, 'mechanical' ) ;
#202 = APPROVAL_PERSON_ORGANIZATION ( #44, #27, #153 ) ;
#203 = DIRECTION ( 'NONE',  ( -1.000000000000000000, 0.0000000000000000000, 0.0000000000000000000 ) ) ;
#204 = ORIENTED_EDGE ( 'NONE', *, *, #187, .F. ) ;
#205 = AXIS2_PLACEMENT_3D ( 'NONE', #234, #135, #206 ) ;
#206 = DIRECTION ( 'NONE',  ( 0.0000000000000000000, 0.0000000000000000000, 1.000000000000000000 ) ) ;
#207 = AXIS2_PLACEMENT_3D ( 'NONE', #39, #53, #118 ) ;
#208 =( GEOMETRIC_REPRESENTATION_CONTEXT ( 3 ) GLOBAL_UNCERTAINTY_ASSIGNED_CONTEXT ( ( #173 ) ) GLOBAL_UNIT_ASSIGNED_CONTEXT ( ( #214, #229, #232 ) ) REPRESENTATION_CONTEXT ( 'NONE', 'WORKASPACE' ) );
#209 = EDGE_LOOP ( 'NONE', ( #168 ) ) ;
#210 = DATE_AND_TIME ( #185, #182 ) ;
#211 = ADVANCED_BREP_SHAPE_REPRESENTATION ( '581229532', ( #3, #222 ), #208 ) ;
#212 = AXIS2_PLACEMENT_3D ( 'NONE', #216, #103, #120 ) ;
#213 = CIRCLE ( 'NONE', #207, 2.165354330708661600 ) ;
#214 =( CONVERSION_BASED_UNIT ( 'INCH', #172 ) LENGTH_UNIT ( ) NAMED_UNIT ( #30 ) );
#215 =( LENGTH_UNIT ( ) NAMED_UNIT ( * ) SI_UNIT ( $, .METRE. ) );
#216 = CARTESIAN_POINT ( 'NONE',  ( 8.858267716535433300, 0.0000000000000000000, 0.0000000000000000000 ) ) ;
#217 = PERSON_AND_ORGANIZATION_ROLE ( 'design_owner' ) ;
#218 = APPLICATION_CONTEXT ( 'configuration controlled 3d designs of mechanical parts and assemblies' ) ;
#219 = EDGE_LOOP ( 'NONE', ( #49 ) ) ;
#220 = CARTESIAN_POINT ( 'NONE',  ( 3.858267716535433300, 0.0000000000000000000, 0.0000000000000000000 ) ) ;
#221 = ORIENTED_EDGE ( 'NONE', *, *, #225, .T. ) ;
#222 = AXIS2_PLACEMENT_3D ( 'NONE', #102, #195, #228 ) ;
#223 = FACE_OUTER_BOUND ( 'NONE', #93, .T. ) ;
#224 = CARTESIAN_POINT ( 'NONE',  ( 3.858267716535433300, 0.0000000000000000000, 2.574803149606299100 ) ) ;
#225 = EDGE_CURVE ( 'NONE', #162, #162, #139, .T. ) ;
#226 = APPLICATION_CONTEXT ( 'configuration controlled 3d designs of mechanical parts and assemblies' ) ;
#227 = APPLICATION_PROTOCOL_DEFINITION ( 'international standard', 'config_control_design', 1994, #226 ) ;
#228 = DIRECTION ( 'NONE',  ( 1.000000000000000000, 0.0000000000000000000, 0.0000000000000000000 ) ) ;
#229 =( NAMED_UNIT ( * ) PLANE_ANGLE_UNIT ( ) SI_UNIT ( $, .RADIAN. ) );
#230 = ORIENTED_EDGE ( 'NONE', *, *, #187, .T. ) ;
#231 = SHAPE_DEFINITION_REPRESENTATION ( #191, #211 ) ;
#232 =( NAMED_UNIT ( * ) SI_UNIT ( $, .STERADIAN. ) SOLID_ANGLE_UNIT ( ) );
#233 = CARTESIAN_POINT ( 'NONE',  ( 0.0000000000000000000, 0.0000000000000000000, 2.574803149606299100 ) ) ;
#234 = CARTESIAN_POINT ( 'NONE',  ( 8.858267716535433300, 1.771653543307086600, 0.0000000000000000000 ) ) ;
#235 = VERTEX_POINT ( 'NONE', #140 ) ;
#236 = APPLICATION_PROTOCOL_DEFINITION ( 'international standard', 'config_control_design', 1994, #218 ) ;
#237 = ADVANCED_FACE ( 'NONE', ( #98, #197 ), #20, .F. ) ;
#238 = FACE_BOUND ( 'NONE', #79, .T. ) ;
#239 = CARTESIAN_POINT ( 'NONE',  ( 3.858267716535433300, 0.0000000000000000000, 3.149606299212598600 ) ) ;
#240 = CARTESIAN_POINT ( 'NONE',  ( 5.433070866141733300, 0.0000000000000000000, 0.0000000000000000000 ) ) ;
#241 = APPROVAL_ROLE ( '' ) ;
#242 = CYLINDRICAL_SURFACE ( 'NONE', #212, 2.165354330708661600 ) ;
#243 = DIRECTION ( 'NONE',  ( 0.0000000000000000000, 0.0000000000000000000, 1.000000000000000000 ) ) ;
#244 = CARTESIAN_POINT ( 'NONE',  ( 8.858267716535433300, 0.0000000000000000000, 0.0000000000000000000 ) ) ;
#245 = PERSON_AND_ORGANIZATION ( #125, #106 ) ;
#246 = CALENDAR_DATE ( 2017, 31, 7 ) ;
#247 = CARTESIAN_POINT ( 'NONE',  ( 8.858267716535433300, 0.0000000000000000000, 1.771653543307086600 ) ) ;
#248 = CIRCLE ( 'NONE', #124, 2.574803149606299100 ) ;
#249 = DIRECTION ( 'NONE',  ( 0.0000000000000000000, 0.0000000000000000000, 1.000000000000000000 ) ) ;
#250 = VERTEX_POINT ( 'NONE', #247 ) ;
#251 = APPROVAL_STATUS ( 'not_yet_approved' ) ;
#252 = EDGE_CURVE ( 'NONE', #132, #132, #54, .T. ) ;
ENDSEC;
END-ISO-10303-21;
