ISO-10303-21;
HEADER;
FILE_DESCRIPTION (( 'STEP AP203' ),
    '1' );
FILE_NAME ('581229673.STEP',
    '2017-07-31T15:35:28',
    ( '' ),
    ( '' ),
    'SwSTEP 2.0',
    'SolidWorks 2017',
    '' );
FILE_SCHEMA (( 'CONFIG_CONTROL_DESIGN' ));
ENDSEC;

DATA;
#1 = APPROVAL ( #172, 'UNSPECIFIED' ) ;
#2 = LOCAL_TIME ( 11, 35, 28.00000000000000000, #169 ) ;
#3 = PERSON_AND_ORGANIZATION_ROLE ( 'design_owner' ) ;
#4 = ORIENTED_EDGE ( 'NONE', *, *, #96, .F. ) ;
#5 = CIRCLE ( 'NONE', #139, 5.074803149606300000 ) ;
#6 = CARTESIAN_POINT ( 'NONE',  ( 6.692913385826772200, 0.0000000000000000000, -5.074803149606300000 ) ) ;
#7 = ORIENTED_EDGE ( 'NONE', *, *, #96, .T. ) ;
#8 = SECURITY_CLASSIFICATION_LEVEL ( 'unclassified' ) ;
#9 = PLANE ( 'NONE',  #237 ) ;
#10 = EDGE_LOOP ( 'NONE', ( #76 ) ) ;
#11 = MECHANICAL_CONTEXT ( 'NONE', #53, 'mechanical' ) ;
#12 = CC_DESIGN_APPROVAL ( #222, ( #230 ) ) ;
#13 = CONICAL_SURFACE ( 'NONE', #39, 6.200787401574804600, 0.5763752205911841800 ) ;
#14 = EDGE_LOOP ( 'NONE', ( #27 ) ) ;
#15 = APPROVAL ( #38, 'UNSPECIFIED' ) ;
#16 = VERTEX_POINT ( 'NONE', #135 ) ;
#17 = EDGE_LOOP ( 'NONE', ( #4 ) ) ;
#18 = ORIENTED_EDGE ( 'NONE', *, *, #206, .T. ) ;
#19 = FACE_OUTER_BOUND ( 'NONE', #176, .T. ) ;
#20 = CARTESIAN_POINT ( 'NONE',  ( 6.692913385826772200, 0.0000000000000000000, 0.0000000000000000000 ) ) ;
#21 = DATE_AND_TIME ( #136, #202 ) ;
#22 = EDGE_LOOP ( 'NONE', ( #26 ) ) ;
#23 = EDGE_CURVE ( 'NONE', #141, #141, #215, .T. ) ;
#24 = PERSON_AND_ORGANIZATION_ROLE ( 'creator' ) ;
#25 = DIRECTION ( 'NONE',  ( 1.000000000000000000, 0.0000000000000000000, 0.0000000000000000000 ) ) ;
#26 = ORIENTED_EDGE ( 'NONE', *, *, #131, .T. ) ;
#27 = ORIENTED_EDGE ( 'NONE', *, *, #23, .F. ) ;
#28 = ORIENTED_EDGE ( 'NONE', *, *, #131, .F. ) ;
#29 = CC_DESIGN_APPROVAL ( #15, ( #109 ) ) ;
#30 = DIRECTION ( 'NONE',  ( 0.0000000000000000000, 0.0000000000000000000, -1.000000000000000000 ) ) ;
#31 = DIRECTION ( 'NONE',  ( -1.000000000000000000, 0.0000000000000000000, 0.0000000000000000000 ) ) ;
#32 = APPLICATION_CONTEXT ( 'configuration controlled 3d designs of mechanical parts and assemblies' ) ;
#33 = EDGE_CURVE ( 'NONE', #89, #89, #195, .T. ) ;
#34 = AXIS2_PLACEMENT_3D ( 'NONE', #79, #140, #234 ) ;
#35 = CARTESIAN_POINT ( 'NONE',  ( 14.76377952755905600, 4.474409448818898100, -1.095878048125299400E-015 ) ) ;
#36 = COORDINATED_UNIVERSAL_TIME_OFFSET ( 5, 0, .BEHIND. ) ;
#37 = EDGE_LOOP ( 'NONE', ( #28 ) ) ;
#38 = APPROVAL_STATUS ( 'not_yet_approved' ) ;
#39 = AXIS2_PLACEMENT_3D ( 'NONE', #20, #153, #41 ) ;
#40 = DIRECTION ( 'NONE',  ( 1.000000000000000000, 0.0000000000000000000, 0.0000000000000000000 ) ) ;
#41 = DIRECTION ( 'NONE',  ( 0.0000000000000000000, 0.0000000000000000000, 1.000000000000000000 ) ) ;
#42 = CYLINDRICAL_SURFACE ( 'NONE', #183, 4.921259842519685200 ) ;
#43 = FACE_OUTER_BOUND ( 'NONE', #37, .T. ) ;
#44 = VERTEX_POINT ( 'NONE', #6 ) ;
#45 = AXIS2_PLACEMENT_3D ( 'NONE', #160, #164, #30 ) ;
#46 = CC_DESIGN_PERSON_AND_ORGANIZATION_ASSIGNMENT ( #132, #3, ( #233 ) ) ;
#47 = ADVANCED_FACE ( 'NONE', ( #216, #251 ), #148, .F. ) ;
#48 = CC_DESIGN_PERSON_AND_ORGANIZATION_ASSIGNMENT ( #208, #163, ( #109 ) ) ;
#49 = PERSON_AND_ORGANIZATION_ROLE ( 'design_supplier' ) ;
#50 = FACE_BOUND ( 'NONE', #78, .T. ) ;
#51 = EDGE_CURVE ( 'NONE', #16, #16, #5, .T. ) ;
#52 = PRODUCT_DEFINITION_FORMATION_WITH_SPECIFIED_SOURCE ( 'ANY', '', #233, .NOT_KNOWN. ) ;
#53 = APPLICATION_CONTEXT ( 'configuration controlled 3d designs of mechanical parts and assemblies' ) ;
#54 = CARTESIAN_POINT ( 'NONE',  ( 6.692913385826772200, 0.0000000000000000000, 0.0000000000000000000 ) ) ;
#55 = AXIS2_PLACEMENT_3D ( 'NONE', #112, #87, #73 ) ;
#56 = ADVANCED_FACE ( 'NONE', ( #240, #100 ), #9, .T. ) ;
#57 = CIRCLE ( 'NONE', #232, 6.200787401574803700 ) ;
#58 = DATE_AND_TIME ( #115, #64 ) ;
#59 = CARTESIAN_POINT ( 'NONE',  ( 0.0000000000000000000, 0.0000000000000000000, 0.0000000000000000000 ) ) ;
#60 = APPROVAL_DATE_TIME ( #107, #1 ) ;
#61 = AXIS2_PLACEMENT_3D ( 'NONE', #158, #168, #122 ) ;
#62 = CALENDAR_DATE ( 2017, 31, 7 ) ;
#63 = LOCAL_TIME ( 11, 35, 28.00000000000000000, #137 ) ;
#64 = LOCAL_TIME ( 11, 35, 28.00000000000000000, #74 ) ;
#65 = APPROVAL_PERSON_ORGANIZATION ( #114, #1, #86 ) ;
#66 = ADVANCED_FACE ( 'NONE', ( #227, #43 ), #13, .T. ) ;
#67 = APPLICATION_PROTOCOL_DEFINITION ( 'international standard', 'config_control_design', 1994, #53 ) ;
#68 = DIRECTION ( 'NONE',  ( -1.000000000000000000, -0.0000000000000000000, -0.0000000000000000000 ) ) ;
#69 = APPROVAL_DATE_TIME ( #58, #222 ) ;
#70 = EDGE_LOOP ( 'NONE', ( #18 ) ) ;
#71 = ADVANCED_FACE ( 'NONE', ( #50, #250 ), #91, .T. ) ;
#72 = CARTESIAN_POINT ( 'NONE',  ( 8.661417322834646300, 4.027559055118110200, -9.864348818584957900E-016 ) ) ;
#73 = DIRECTION ( 'NONE',  ( 0.0000000000000000000, 0.0000000000000000000, -1.000000000000000000 ) ) ;
#74 = COORDINATED_UNIVERSAL_TIME_OFFSET ( 5, 0, .BEHIND. ) ;
#75 = UNCERTAINTY_MEASURE_WITH_UNIT (LENGTH_MEASURE( 1.000000000000000100E-005 ), #212, 'distance_accuracy_value', 'NONE');
#76 = ORIENTED_EDGE ( 'NONE', *, *, #242, .T. ) ;
#77 = EDGE_CURVE ( 'NONE', #44, #44, #186, .T. ) ;
#78 = EDGE_LOOP ( 'NONE', ( #225 ) ) ;
#79 = CARTESIAN_POINT ( 'NONE',  ( 11.71259842519685000, 0.0000000000000000000, 0.0000000000000000000 ) ) ;
#80 = DIRECTION ( 'NONE',  ( -1.000000000000000000, 0.0000000000000000000, 0.0000000000000000000 ) ) ;
#81 = CARTESIAN_POINT ( 'NONE',  ( 11.71259842519685000, 0.0000000000000000000, 0.0000000000000000000 ) ) ;
#82 = APPLICATION_PROTOCOL_DEFINITION ( 'international standard', 'config_control_design', 1994, #32 ) ;
#83 = CC_DESIGN_PERSON_AND_ORGANIZATION_ASSIGNMENT ( #175, #49, ( #52 ) ) ;
#84 = DIRECTION ( 'NONE',  ( 0.0000000000000000000, 0.0000000000000000000, -1.000000000000000000 ) ) ;
#85 = AXIS2_PLACEMENT_3D ( 'NONE', #35, #147, #145 ) ;
#86 = APPROVAL_ROLE ( '' ) ;
#87 = DIRECTION ( 'NONE',  ( 1.000000000000000000, 0.0000000000000000000, 0.0000000000000000000 ) ) ;
#88 = APPROVAL_ROLE ( '' ) ;
#89 = VERTEX_POINT ( 'NONE', #72 ) ;
#90 = CARTESIAN_POINT ( 'NONE',  ( 8.661417322834646300, 4.921259842519685200, -1.205321214392101400E-015 ) ) ;
#91 = PLANE ( 'NONE',  #85 ) ;
#92 = ADVANCED_FACE ( 'NONE', ( #252, #179 ), #42, .T. ) ;
#93 = EDGE_LOOP ( 'NONE', ( #150 ) ) ;
#94 = ORIENTED_EDGE ( 'NONE', *, *, #51, .F. ) ;
#95 = CARTESIAN_POINT ( 'NONE',  ( 14.76377952755905600, 0.0000000000000000000, -4.921259842519685200 ) ) ;
#96 = EDGE_CURVE ( 'NONE', #207, #207, #149, .T. ) ;
#97 = ORIENTED_EDGE ( 'NONE', *, *, #206, .F. ) ;
#98 = FACE_BOUND ( 'NONE', #120, .T. ) ;
#99 = CYLINDRICAL_SURFACE ( 'NONE', #34, 4.027559055118110200 ) ;
#100 = FACE_BOUND ( 'NONE', #156, .T. ) ;
#101 = PERSON_AND_ORGANIZATION ( #151, #196 ) ;
#102 = PERSON_AND_ORGANIZATION ( #151, #196 ) ;
#103 = CC_DESIGN_DATE_AND_TIME_ASSIGNMENT ( #123, #106, ( #230 ) ) ;
#104 = DIRECTION ( 'NONE',  ( 0.0000000000000000000, 0.0000000000000000000, -1.000000000000000000 ) ) ;
#105 = AXIS2_PLACEMENT_3D ( 'NONE', #231, #248, #84 ) ;
#106 = DATE_TIME_ROLE ( 'creation_date' ) ;
#107 = DATE_AND_TIME ( #213, #2 ) ;
#108 = PRODUCT_DEFINITION_SHAPE ( 'NONE', 'NONE',  #230 ) ;
#109 = SECURITY_CLASSIFICATION ( '', '', #8 ) ;
#110 = FACE_OUTER_BOUND ( 'NONE', #22, .T. ) ;
#111 = AXIS2_PLACEMENT_3D ( 'NONE', #165, #185, #25 ) ;
#112 = CARTESIAN_POINT ( 'NONE',  ( 0.0000000000000000000, 0.0000000000000000000, 0.0000000000000000000 ) ) ;
#113 = DIRECTION ( 'NONE',  ( 0.0000000000000000000, 1.000000000000000000, -2.449212707644750100E-016 ) ) ;
#114 = PERSON_AND_ORGANIZATION ( #151, #196 ) ;
#115 = CALENDAR_DATE ( 2017, 31, 7 ) ;
#116 = CLOSED_SHELL ( 'NONE', ( #243, #56, #66, #47, #92, #239, #71, #220 ) ) ;
#117 = CALENDAR_DATE ( 2017, 31, 7 ) ;
#118 = CARTESIAN_POINT ( 'NONE',  ( 0.0000000000000000000, 5.637795275590550900, -1.380815983207594800E-015 ) ) ;
#119 = DIRECTION ( 'NONE',  ( -1.000000000000000000, -0.0000000000000000000, 0.0000000000000000000 ) ) ;
#120 = EDGE_LOOP ( 'NONE', ( #189 ) ) ;
#121 = CC_DESIGN_SECURITY_CLASSIFICATION ( #109, ( #52 ) ) ;
#122 = DIRECTION ( 'NONE',  ( 0.0000000000000000000, 0.0000000000000000000, -1.000000000000000000 ) ) ;
#123 = DATE_AND_TIME ( #62, #63 ) ;
#124 = DIRECTION ( 'NONE',  ( 0.0000000000000000000, 0.0000000000000000000, -1.000000000000000000 ) ) ;
#125 = CC_DESIGN_DATE_AND_TIME_ASSIGNMENT ( #21, #161, ( #109 ) ) ;
#126 = DIRECTION ( 'NONE',  ( 0.0000000000000000000, 0.0000000000000000000, -1.000000000000000000 ) ) ;
#127 = CARTESIAN_POINT ( 'NONE',  ( 8.661417322834646300, 0.0000000000000000000, 0.0000000000000000000 ) ) ;
#128 = DATE_AND_TIME ( #117, #174 ) ;
#129 = CARTESIAN_POINT ( 'NONE',  ( 3.346456692913386100, 0.0000000000000000000, 0.0000000000000000000 ) ) ;
#130 = APPROVAL_STATUS ( 'not_yet_approved' ) ;
#131 = EDGE_CURVE ( 'NONE', #244, #244, #57, .T. ) ;
#132 = PERSON_AND_ORGANIZATION ( #151, #196 ) ;
#133 = CARTESIAN_POINT ( 'NONE',  ( 6.692913385826772200, 0.0000000000000000000, -6.200787401574803700 ) ) ;
#134 = DIRECTION ( 'NONE',  ( 1.000000000000000000, 0.0000000000000000000, 0.0000000000000000000 ) ) ;
#135 = CARTESIAN_POINT ( 'NONE',  ( 0.0000000000000000000, 0.0000000000000000000, -5.074803149606300000 ) ) ;
#136 = CALENDAR_DATE ( 2017, 31, 7 ) ;
#137 = COORDINATED_UNIVERSAL_TIME_OFFSET ( 5, 0, .BEHIND. ) ;
#138 = DIRECTION ( 'NONE',  ( 0.0000000000000000000, 0.0000000000000000000, -1.000000000000000000 ) ) ;
#139 = AXIS2_PLACEMENT_3D ( 'NONE', #59, #134, #126 ) ;
#140 = DIRECTION ( 'NONE',  ( 1.000000000000000000, 0.0000000000000000000, 0.0000000000000000000 ) ) ;
#141 = VERTEX_POINT ( 'NONE', #193 ) ;
#142 =( LENGTH_UNIT ( ) NAMED_UNIT ( * ) SI_UNIT ( $, .METRE. ) );
#143 = EDGE_LOOP ( 'NONE', ( #171 ) ) ;
#144 = LENGTH_MEASURE_WITH_UNIT ( LENGTH_MEASURE( 0.02539999999999999900 ), #142 );
#145 = DIRECTION ( 'NONE',  ( 0.0000000000000000000, 0.0000000000000000000, -1.000000000000000000 ) ) ;
#146 = APPROVAL_ROLE ( '' ) ;
#147 = DIRECTION ( 'NONE',  ( 1.000000000000000000, 0.0000000000000000000, 0.0000000000000000000 ) ) ;
#148 = CYLINDRICAL_SURFACE ( 'NONE', #105, 5.074803149606300000 ) ;
#149 = CIRCLE ( 'NONE', #55, 6.200787401574803700 ) ;
#150 = ORIENTED_EDGE ( 'NONE', *, *, #33, .T. ) ;
#151 = PERSON ( 'UNSPECIFIED', 'UNSPECIFIED', 'UNSPECIFIED', ('UNSPECIFIED'), ('UNSPECIFIED'), ('UNSPECIFIED') ) ;
#152 = DIRECTION ( 'NONE',  ( 0.0000000000000000000, 0.0000000000000000000, 1.000000000000000000 ) ) ;
#153 = DIRECTION ( 'NONE',  ( -1.000000000000000000, -0.0000000000000000000, 0.0000000000000000000 ) ) ;
#154 = CONICAL_SURFACE ( 'NONE', #177, 5.074803149606300000, 0.4889186893193591700 ) ;
#155 = COORDINATED_UNIVERSAL_TIME_OFFSET ( 5, 0, .BEHIND. ) ;
#156 = EDGE_LOOP ( 'NONE', ( #219 ) ) ;
#157 =( GEOMETRIC_REPRESENTATION_CONTEXT ( 3 ) GLOBAL_UNCERTAINTY_ASSIGNED_CONTEXT ( ( #75 ) ) GLOBAL_UNIT_ASSIGNED_CONTEXT ( ( #212, #182, #170 ) ) REPRESENTATION_CONTEXT ( 'NONE', 'WORKASPACE' ) );
#158 = CARTESIAN_POINT ( 'NONE',  ( 6.692913385826772200, 0.0000000000000000000, 0.0000000000000000000 ) ) ;
#159 = AXIS2_PLACEMENT_3D ( 'NONE', #205, #197, #221 ) ;
#160 = CARTESIAN_POINT ( 'NONE',  ( 14.76377952755905600, 0.0000000000000000000, 0.0000000000000000000 ) ) ;
#161 = DATE_TIME_ROLE ( 'classification_date' ) ;
#162 = APPROVAL_PERSON_ORGANIZATION ( #101, #15, #146 ) ;
#163 = PERSON_AND_ORGANIZATION_ROLE ( 'classification_officer' ) ;
#164 = DIRECTION ( 'NONE',  ( -1.000000000000000000, -0.0000000000000000000, -0.0000000000000000000 ) ) ;
#165 = CARTESIAN_POINT ( 'NONE',  ( 0.0000000000000000000, 0.0000000000000000000, 0.0000000000000000000 ) ) ;
#166 = CC_DESIGN_PERSON_AND_ORGANIZATION_ASSIGNMENT ( #199, #167, ( #52 ) ) ;
#167 = PERSON_AND_ORGANIZATION_ROLE ( 'creator' ) ;
#168 = DIRECTION ( 'NONE',  ( -1.000000000000000000, -0.0000000000000000000, -0.0000000000000000000 ) ) ;
#169 = COORDINATED_UNIVERSAL_TIME_OFFSET ( 5, 0, .BEHIND. ) ;
#170 =( NAMED_UNIT ( * ) SI_UNIT ( $, .STERADIAN. ) SOLID_ANGLE_UNIT ( ) );
#171 = ORIENTED_EDGE ( 'NONE', *, *, #77, .F. ) ;
#172 = APPROVAL_STATUS ( 'not_yet_approved' ) ;
#173 = SHAPE_DEFINITION_REPRESENTATION ( #108, #211 ) ;
#174 = LOCAL_TIME ( 11, 35, 28.00000000000000000, #36 ) ;
#175 = PERSON_AND_ORGANIZATION ( #151, #196 ) ;
#176 = EDGE_LOOP ( 'NONE', ( #7 ) ) ;
#177 = AXIS2_PLACEMENT_3D ( 'NONE', #238, #119, #152 ) ;
#178 = EDGE_LOOP ( 'NONE', ( #204 ) ) ;
#179 = FACE_OUTER_BOUND ( 'NONE', #201, .T. ) ;
#180 = ORIENTED_EDGE ( 'NONE', *, *, #242, .F. ) ;
#181 = VERTEX_POINT ( 'NONE', #95 ) ;
#182 =( NAMED_UNIT ( * ) PLANE_ANGLE_UNIT ( ) SI_UNIT ( $, .RADIAN. ) );
#183 = AXIS2_PLACEMENT_3D ( 'NONE', #81, #40, #198 ) ;
#184 = DESIGN_CONTEXT ( 'detailed design', #32, 'design' ) ;
#185 = DIRECTION ( 'NONE',  ( 0.0000000000000000000, 0.0000000000000000000, 1.000000000000000000 ) ) ;
#186 = CIRCLE ( 'NONE', #61, 5.074803149606300000 ) ;
#187 = CARTESIAN_POINT ( 'NONE',  ( 0.0000000000000000000, 0.0000000000000000000, -6.200787401574803700 ) ) ;
#188 = FACE_OUTER_BOUND ( 'NONE', #178, .T. ) ;
#189 = ORIENTED_EDGE ( 'NONE', *, *, #33, .F. ) ;
#190 = DIRECTION ( 'NONE',  ( 1.000000000000000000, 0.0000000000000000000, 0.0000000000000000000 ) ) ;
#191 = EDGE_LOOP ( 'NONE', ( #97 ) ) ;
#192 = AXIS2_PLACEMENT_3D ( 'NONE', #228, #247, #104 ) ;
#193 = CARTESIAN_POINT ( 'NONE',  ( 14.76377952755905600, 0.0000000000000000000, -4.027559055118110200 ) ) ;
#194 = DIRECTION ( 'NONE',  ( 0.0000000000000000000, 0.0000000000000000000, 1.000000000000000000 ) ) ;
#195 = CIRCLE ( 'NONE', #217, 4.027559055118110200 ) ;
#196 = ORGANIZATION ( 'UNSPECIFIED', 'UNSPECIFIED', '' ) ;
#197 = DIRECTION ( 'NONE',  ( -1.000000000000000000, 0.0000000000000000000, 0.0000000000000000000 ) ) ;
#198 = DIRECTION ( 'NONE',  ( 0.0000000000000000000, 0.0000000000000000000, -1.000000000000000000 ) ) ;
#199 = PERSON_AND_ORGANIZATION ( #151, #196 ) ;
#200 = CIRCLE ( 'NONE', #159, 4.921259842519685200 ) ;
#201 = EDGE_LOOP ( 'NONE', ( #180 ) ) ;
#202 = LOCAL_TIME ( 11, 35, 28.00000000000000000, #155 ) ;
#203 = CC_DESIGN_APPROVAL ( #1, ( #52 ) ) ;
#204 = ORIENTED_EDGE ( 'NONE', *, *, #77, .T. ) ;
#205 = CARTESIAN_POINT ( 'NONE',  ( 8.661417322834646300, 0.0000000000000000000, 0.0000000000000000000 ) ) ;
#206 = EDGE_CURVE ( 'NONE', #181, #181, #241, .T. ) ;
#207 = VERTEX_POINT ( 'NONE', #187 ) ;
#208 = PERSON_AND_ORGANIZATION ( #151, #196 ) ;
#209 = FACE_OUTER_BOUND ( 'NONE', #93, .T. ) ;
#210 = CYLINDRICAL_SURFACE ( 'NONE', #224, 6.200787401574803700 ) ;
#211 = ADVANCED_BREP_SHAPE_REPRESENTATION ( '581229673', ( #214, #111 ), #157 ) ;
#212 =( CONVERSION_BASED_UNIT ( 'INCH', #144 ) LENGTH_UNIT ( ) NAMED_UNIT ( #223 ) );
#213 = CALENDAR_DATE ( 2017, 31, 7 ) ;
#214 = MANIFOLD_SOLID_BREP ( '1', #116 ) ;
#215 = CIRCLE ( 'NONE', #45, 4.027559055118110200 ) ;
#216 = FACE_OUTER_BOUND ( 'NONE', #143, .T. ) ;
#217 = AXIS2_PLACEMENT_3D ( 'NONE', #127, #80, #113 ) ;
#218 = PRODUCT_RELATED_PRODUCT_CATEGORY ( 'detail', '', ( #233 ) ) ;
#219 = ORIENTED_EDGE ( 'NONE', *, *, #51, .T. ) ;
#220 = ADVANCED_FACE ( 'NONE', ( #246, #209 ), #99, .F. ) ;
#221 = DIRECTION ( 'NONE',  ( 0.0000000000000000000, 1.000000000000000000, -2.449212707644750100E-016 ) ) ;
#222 = APPROVAL ( #130, 'UNSPECIFIED' ) ;
#223 = DIMENSIONAL_EXPONENTS ( 1.000000000000000000, 0.0000000000000000000, 0.0000000000000000000, 0.0000000000000000000, 0.0000000000000000000, 0.0000000000000000000, 0.0000000000000000000 ) ;
#224 = AXIS2_PLACEMENT_3D ( 'NONE', #129, #190, #124 ) ;
#225 = ORIENTED_EDGE ( 'NONE', *, *, #23, .T. ) ;
#226 = APPROVAL_DATE_TIME ( #128, #15 ) ;
#227 = FACE_BOUND ( 'NONE', #10, .T. ) ;
#228 = CARTESIAN_POINT ( 'NONE',  ( 14.76377952755905600, 0.0000000000000000000, 0.0000000000000000000 ) ) ;
#229 = APPROVAL_PERSON_ORGANIZATION ( #249, #222, #88 ) ;
#230 = PRODUCT_DEFINITION ( 'UNKNOWN', '', #52, #184 ) ;
#231 = CARTESIAN_POINT ( 'NONE',  ( 3.346456692913386100, 0.0000000000000000000, 0.0000000000000000000 ) ) ;
#232 = AXIS2_PLACEMENT_3D ( 'NONE', #54, #68, #138 ) ;
#233 = PRODUCT ( '581229673', '581229673', '', ( #11 ) ) ;
#234 = DIRECTION ( 'NONE',  ( 0.0000000000000000000, 0.0000000000000000000, -1.000000000000000000 ) ) ;
#235 = EDGE_LOOP ( 'NONE', ( #94 ) ) ;
#236 = VERTEX_POINT ( 'NONE', #90 ) ;
#237 = AXIS2_PLACEMENT_3D ( 'NONE', #118, #31, #194 ) ;
#238 = CARTESIAN_POINT ( 'NONE',  ( 6.692913385826772200, 0.0000000000000000000, 0.0000000000000000000 ) ) ;
#239 = ADVANCED_FACE ( 'NONE', ( #98, #188 ), #154, .F. ) ;
#240 = FACE_OUTER_BOUND ( 'NONE', #17, .T. ) ;
#241 = CIRCLE ( 'NONE', #192, 4.921259842519685200 ) ;
#242 = EDGE_CURVE ( 'NONE', #236, #236, #200, .T. ) ;
#243 = ADVANCED_FACE ( 'NONE', ( #110, #19 ), #210, .T. ) ;
#244 = VERTEX_POINT ( 'NONE', #133 ) ;
#245 = CC_DESIGN_PERSON_AND_ORGANIZATION_ASSIGNMENT ( #102, #24, ( #230 ) ) ;
#246 = FACE_OUTER_BOUND ( 'NONE', #14, .T. ) ;
#247 = DIRECTION ( 'NONE',  ( -1.000000000000000000, -0.0000000000000000000, -0.0000000000000000000 ) ) ;
#248 = DIRECTION ( 'NONE',  ( 1.000000000000000000, 0.0000000000000000000, 0.0000000000000000000 ) ) ;
#249 = PERSON_AND_ORGANIZATION ( #151, #196 ) ;
#250 = FACE_OUTER_BOUND ( 'NONE', #191, .T. ) ;
#251 = FACE_OUTER_BOUND ( 'NONE', #235, .T. ) ;
#252 = FACE_OUTER_BOUND ( 'NONE', #70, .T. ) ;
ENDSEC;
END-ISO-10303-21;
