ISO-10303-21;
HEADER;
FILE_DESCRIPTION (( 'STEP AP203' ),
    '1' );
FILE_NAME ('581245010.STEP',
    '2015-12-04T21:17:40',
    ( '' ),
    ( '' ),
    'SwSTEP 2.0',
    'SolidWorks 2015',
    '' );
FILE_SCHEMA (( 'CONFIG_CONTROL_DESIGN' ));
ENDSEC;

DATA;
#1 = DIRECTION ( 'NONE',  ( 1.000000000000000000, 0.0000000000000000000, 0.0000000000000000000 ) ) ;
#2 = DATE_AND_TIME ( #135, #368 ) ;
#3 = CARTESIAN_POINT ( 'NONE',  ( 0.0000000000000000000, 0.0000000000000000000, 0.0000000000000000000 ) ) ;
#4 = CARTESIAN_POINT ( 'NONE',  ( -2.834645669291338900, 2.795275590551181500, 0.0000000000000000000 ) ) ;
#5 = FACE_OUTER_BOUND ( 'NONE', #272, .T. ) ;
#6 = PRODUCT_DEFINITION_FORMATION_WITH_SPECIFIED_SOURCE ( 'ANY', '', #13, .NOT_KNOWN. ) ;
#7 = CARTESIAN_POINT ( 'NONE',  ( -2.834645669291338900, 0.0000000000000000000, -0.6889763779527559000 ) ) ;
#8 = PERSON_AND_ORGANIZATION_ROLE ( 'classification_officer' ) ;
#9 = DIRECTION ( 'NONE',  ( 1.000000000000000000, 0.0000000000000000000, 0.0000000000000000000 ) ) ;
#10 = FACE_OUTER_BOUND ( 'NONE', #204, .T. ) ;
#11 = FACE_BOUND ( 'NONE', #38, .T. ) ;
#12 = CC_DESIGN_PERSON_AND_ORGANIZATION_ASSIGNMENT ( #126, #321, ( #13 ) ) ;
#13 = PRODUCT ( '581245010', '581245010', '', ( #244 ) ) ;
#14 = APPLICATION_CONTEXT ( 'configuration controlled 3d designs of mechanical parts and assemblies' ) ;
#15 = COORDINATED_UNIVERSAL_TIME_OFFSET ( 5, 0, .BEHIND. ) ;
#16 = EDGE_CURVE ( 'NONE', #289, #289, #127, .T. ) ;
#17 = AXIS2_PLACEMENT_3D ( 'NONE', #149, #286, #52 ) ;
#18 = ADVANCED_FACE ( 'NONE', ( #223, #229 ), #202, .T. ) ;
#19 = CARTESIAN_POINT ( 'NONE',  ( -1.456692913385827300, 1.377952755905511400, 0.6889763779527555700 ) ) ;
#20 = EDGE_CURVE ( 'NONE', #103, #103, #307, .T. ) ;
#21 = ADVANCED_FACE ( 'NONE', ( #5, #242 ), #181, .T. ) ;
#22 =( NAMED_UNIT ( * ) SI_UNIT ( $, .STERADIAN. ) SOLID_ANGLE_UNIT ( ) );
#23 = LENGTH_MEASURE_WITH_UNIT ( LENGTH_MEASURE( 0.02539999999999999900 ), #128 );
#24 = CIRCLE ( 'NONE', #40, 0.6299212598425196800 ) ;
#25 =( CONVERSION_BASED_UNIT ( 'INCH', #23 ) LENGTH_UNIT ( ) NAMED_UNIT ( #203 ) );
#26 = CC_DESIGN_DATE_AND_TIME_ASSIGNMENT ( #157, #268, ( #344 ) ) ;
#27 = CARTESIAN_POINT ( 'NONE',  ( -1.811023622047244900, 1.023622047244094700, 0.5118110236220470000 ) ) ;
#28 = APPROVAL_STATUS ( 'not_yet_approved' ) ;
#29 = ORIENTED_EDGE ( 'NONE', *, *, #63, .F. ) ;
#30 = DIRECTION ( 'NONE',  ( 0.0000000000000000000, 0.0000000000000000000, -1.000000000000000000 ) ) ;
#31 = EDGE_LOOP ( 'NONE', ( #318, #80 ) ) ;
#32 = AXIS2_PLACEMENT_3D ( 'NONE', #251, #284, #219 ) ;
#33 = CARTESIAN_POINT ( 'NONE',  ( -3.838582677165354600, 0.0000000000000000000, 0.0000000000000000000 ) ) ;
#34 = LOCAL_TIME ( 16, 17, 40.00000000000000000, #163 ) ;
#35 = EDGE_CURVE ( 'NONE', #375, #57, #81, .T. ) ;
#36 = EDGE_LOOP ( 'NONE', ( #87 ) ) ;
#37 = CARTESIAN_POINT ( 'NONE',  ( -3.897637795275590700, 0.0000000000000000000, -0.6299212598425196800 ) ) ;
#38 = EDGE_LOOP ( 'NONE', ( #349 ) ) ;
#39 = DIRECTION ( 'NONE',  ( 0.0000000000000000000, 0.0000000000000000000, -1.000000000000000000 ) ) ;
#40 = AXIS2_PLACEMENT_3D ( 'NONE', #111, #116, #30 ) ;
#41 = LOCAL_TIME ( 16, 17, 40.00000000000000000, #15 ) ;
#42 = EDGE_CURVE ( 'NONE', #314, #314, #69, .T. ) ;
#43 = EDGE_LOOP ( 'NONE', ( #165 ) ) ;
#44 = CARTESIAN_POINT ( 'NONE',  ( -4.212598425196850900, 1.377952755905511400, 0.6889763779527555700 ) ) ;
#45 = COORDINATED_UNIVERSAL_TIME_OFFSET ( 5, 0, .BEHIND. ) ;
#46 = CARTESIAN_POINT ( 'NONE',  ( -2.834645669291338900, 2.795275590551181500, -0.6299212598425196800 ) ) ;
#47 = DIRECTION ( 'NONE',  ( 0.0000000000000000000, 1.000000000000000000, 0.0000000000000000000 ) ) ;
#48 = ORGANIZATION ( 'UNSPECIFIED', 'UNSPECIFIED', '' ) ;
#49 = EDGE_LOOP ( 'NONE', ( #366 ) ) ;
#50 = EDGE_CURVE ( 'NONE', #59, #376, #305, .T. ) ;
#51 = CARTESIAN_POINT ( 'NONE',  ( -2.834645669291338900, 1.023622047244094700, -0.6299212598425196800 ) ) ;
#52 = DIRECTION ( 'NONE',  ( 0.0000000000000000000, 0.0000000000000000000, -1.000000000000000000 ) ) ;
#53 = APPROVAL ( #28, 'UNSPECIFIED' ) ;
#54 = PRODUCT_DEFINITION_SHAPE ( 'NONE', 'NONE',  #344 ) ;
#55 = CARTESIAN_POINT ( 'NONE',  ( -2.145669291338583300, 0.9645669291338584400, -1.687449700149465200E-016 ) ) ;
#56 = CARTESIAN_POINT ( 'NONE',  ( -4.783464566929134200, 0.0000000000000000000, 0.0000000000000000000 ) ) ;
#57 = VERTEX_POINT ( 'NONE', #192 ) ;
#58 = ORIENTED_EDGE ( 'NONE', *, *, #310, .T. ) ;
#59 = VERTEX_POINT ( 'NONE', #319 ) ;
#60 = ADVANCED_FACE ( 'NONE', ( #382, #154 ), #249, .T. ) ;
#61 = PERSON_AND_ORGANIZATION ( #266, #48 ) ;
#62 = DIRECTION ( 'NONE',  ( 1.000000000000000000, 0.0000000000000000000, 0.0000000000000000000 ) ) ;
#63 = EDGE_CURVE ( 'NONE', #214, #214, #147, .T. ) ;
#64 = CARTESIAN_POINT ( 'NONE',  ( -2.834645669291338900, 0.0000000000000000000, -0.6889763779527559000 ) ) ;
#65 = ORIENTED_EDGE ( 'NONE', *, *, #68, .F. ) ;
#66 = DIRECTION ( 'NONE',  ( 0.0000000000000000000, 1.000000000000000000, 0.0000000000000000000 ) ) ;
#67 = CARTESIAN_POINT ( 'NONE',  ( -2.834645669291338900, 0.0000000000000000000, 0.0000000000000000000 ) ) ;
#68 = EDGE_CURVE ( 'NONE', #57, #375, #260, .T. ) ;
#69 = CIRCLE ( 'NONE', #17, 0.6299212598425196800 ) ;
#70 = FACE_BOUND ( 'NONE', #290, .T. ) ;
#71 = EDGE_CURVE ( 'NONE', #364, #364, #370, .T. ) ;
#72 = ADVANCED_FACE ( 'NONE', ( #75, #100 ), #92, .T. ) ;
#73 = VERTEX_POINT ( 'NONE', #51 ) ;
#74 = DIRECTION ( 'NONE',  ( -1.000000000000000000, -0.0000000000000000000, -0.0000000000000000000 ) ) ;
#75 = FACE_OUTER_BOUND ( 'NONE', #323, .T. ) ;
#76 = CLOSED_SHELL ( 'NONE', ( #176, #21, #110, #353, #60, #300, #72, #246, #18, #198, #373, #296, #121 ) ) ;
#77 = CARTESIAN_POINT ( 'NONE',  ( -2.834645669291338900, 0.0000000000000000000, -0.5118110236220472200 ) ) ;
#78 = PERSON_AND_ORGANIZATION ( #266, #48 ) ;
#79 = AXIS2_PLACEMENT_3D ( 'NONE', #3, #281, #82 ) ;
#80 = ORIENTED_EDGE ( 'NONE', *, *, #83, .F. ) ;
#81 =( BOUNDED_CURVE ( )  B_SPLINE_CURVE ( 3, ( #232, #117, #19, #274 ),
 .UNSPECIFIED., .F., .T. ) 
 B_SPLINE_CURVE_WITH_KNOTS ( ( 4, 4 ),
 ( 1.570796326794896600, 4.712388980384689700 ),
 .UNSPECIFIED. ) 
 CURVE ( )  GEOMETRIC_REPRESENTATION_ITEM ( )  RATIONAL_B_SPLINE_CURVE ( ( 1.000000000000000000, 0.3333333333333333700, 0.3333333333333333700, 1.000000000000000000 ) ) 
 REPRESENTATION_ITEM ( '' )  );
#82 = DIRECTION ( 'NONE',  ( 0.0000000000000000000, 0.0000000000000000000, -1.000000000000000000 ) ) ;
#83 = EDGE_CURVE ( 'NONE', #376, #59, #141, .T. ) ;
#84 = COORDINATED_UNIVERSAL_TIME_OFFSET ( 5, 0, .BEHIND. ) ;
#85 = ORIENTED_EDGE ( 'NONE', *, *, #367, .T. ) ;
#86 = CC_DESIGN_SECURITY_CLASSIFICATION ( #115, ( #6 ) ) ;
#87 = ORIENTED_EDGE ( 'NONE', *, *, #16, .T. ) ;
#88 = AXIS2_PLACEMENT_3D ( 'NONE', #258, #282, #254 ) ;
#89 = APPLICATION_PROTOCOL_DEFINITION ( 'international standard', 'config_control_design', 1994, #156 ) ;
#90 = AXIS2_PLACEMENT_3D ( 'NONE', #139, #132, #279 ) ;
#91 = EDGE_LOOP ( 'NONE', ( #351 ) ) ;
#92 = PLANE ( 'NONE',  #230 ) ;
#93 = EDGE_LOOP ( 'NONE', ( #259 ) ) ;
#94 = PERSON_AND_ORGANIZATION ( #266, #48 ) ;
#95 = PRODUCT_RELATED_PRODUCT_CATEGORY ( 'detail', '', ( #13 ) ) ;
#96 = FACE_OUTER_BOUND ( 'NONE', #356, .T. ) ;
#97 = DIRECTION ( 'NONE',  ( 0.0000000000000000000, 1.000000000000000000, -2.449212707644750100E-016 ) ) ;
#98 = MANIFOLD_SOLID_BREP ( '1', #76 ) ;
#99 = AXIS2_PLACEMENT_3D ( 'NONE', #185, #1, #386 ) ;
#100 = FACE_BOUND ( 'NONE', #283, .T. ) ;
#101 = AXIS2_PLACEMENT_3D ( 'NONE', #153, #352, #332 ) ;
#102 = CARTESIAN_POINT ( 'NONE',  ( -5.669291338582677800, 0.3149606299212598400, -7.714055772109449500E-017 ) ) ;
#103 = VERTEX_POINT ( 'NONE', #224 ) ;
#104 = AXIS2_PLACEMENT_3D ( 'NONE', #4, #208, #190 ) ;
#105 = CYLINDRICAL_SURFACE ( 'NONE', #32, 0.6889763779527560100 ) ;
#106 = AXIS2_PLACEMENT_3D ( 'NONE', #222, #123, #211 ) ;
#107 = CARTESIAN_POINT ( 'NONE',  ( -5.669291338582677800, 0.0000000000000000000, -0.5118110236220473300 ) ) ;
#108 = DIRECTION ( 'NONE',  ( 0.0000000000000000000, -1.000000000000000000, 0.0000000000000000000 ) ) ;
#109 = ORIENTED_EDGE ( 'NONE', *, *, #215, .T. ) ;
#110 = ADVANCED_FACE ( 'NONE', ( #306, #248 ), #158, .T. ) ;
#111 = CARTESIAN_POINT ( 'NONE',  ( -2.834645669291338900, 1.023622047244094700, 0.0000000000000000000 ) ) ;
#112 = AXIS2_PLACEMENT_3D ( 'NONE', #102, #280, #206 ) ;
#113 = CARTESIAN_POINT ( 'NONE',  ( -1.830708661417322900, 0.0000000000000000000, 0.0000000000000000000 ) ) ;
#114 = CYLINDRICAL_SURFACE ( 'NONE', #88, 0.5118110236220473300 ) ;
#115 = SECURITY_CLASSIFICATION ( '', '', #205 ) ;
#116 = DIRECTION ( 'NONE',  ( 0.0000000000000000000, 1.000000000000000000, 0.0000000000000000000 ) ) ;
#117 = CARTESIAN_POINT ( 'NONE',  ( -1.456692913385827300, 1.377952755905511400, -0.6889763779527560100 ) ) ;
#118 = CYLINDRICAL_SURFACE ( 'NONE', #101, 0.6889763779527560100 ) ;
#119 = ORIENTED_EDGE ( 'NONE', *, *, #215, .F. ) ;
#120 = CC_DESIGN_PERSON_AND_ORGANIZATION_ASSIGNMENT ( #186, #8, ( #115 ) ) ;
#121 = ADVANCED_FACE ( 'NONE', ( #362, #238 ), #105, .T. ) ;
#122 = ORIENTED_EDGE ( 'NONE', *, *, #68, .T. ) ;
#123 = DIRECTION ( 'NONE',  ( -1.000000000000000000, -0.0000000000000000000, -0.0000000000000000000 ) ) ;
#124 = AXIS2_PLACEMENT_3D ( 'NONE', #350, #168, #381 ) ;
#125 = CALENDAR_DATE ( 2015, 4, 12 ) ;
#126 = PERSON_AND_ORGANIZATION ( #266, #48 ) ;
#127 = CIRCLE ( 'NONE', #79, 0.6299212598425196800 ) ;
#128 =( LENGTH_UNIT ( ) NAMED_UNIT ( * ) SI_UNIT ( $, .METRE. ) );
#129 = CC_DESIGN_DATE_AND_TIME_ASSIGNMENT ( #233, #226, ( #115 ) ) ;
#130 = FACE_OUTER_BOUND ( 'NONE', #263, .T. ) ;
#131 = FACE_BOUND ( 'NONE', #93, .T. ) ;
#132 = DIRECTION ( 'NONE',  ( 0.0000000000000000000, 0.0000000000000000000, 1.000000000000000000 ) ) ;
#133 = DIRECTION ( 'NONE',  ( 0.0000000000000000000, 0.0000000000000000000, 1.000000000000000000 ) ) ;
#134 = APPROVAL_DATE_TIME ( #2, #180 ) ;
#135 = CALENDAR_DATE ( 2015, 4, 12 ) ;
#136 = VERTEX_POINT ( 'NONE', #46 ) ;
#137 = ORIENTED_EDGE ( 'NONE', *, *, #374, .F. ) ;
#138 =( GEOMETRIC_REPRESENTATION_CONTEXT ( 3 ) GLOBAL_UNCERTAINTY_ASSIGNED_CONTEXT ( ( #357 ) ) GLOBAL_UNIT_ASSIGNED_CONTEXT ( ( #25, #252, #22 ) ) REPRESENTATION_CONTEXT ( 'NONE', 'WORKASPACE' ) );
#139 = CARTESIAN_POINT ( 'NONE',  ( 0.0000000000000000000, 0.0000000000000000000, 0.0000000000000000000 ) ) ;
#140 = CARTESIAN_POINT ( 'NONE',  ( -1.811023622047244900, 1.023622047244094200, -0.5118110236220473300 ) ) ;
#141 =( BOUNDED_CURVE ( )  B_SPLINE_CURVE ( 3, ( #77, #140, #27, #358 ),
 .UNSPECIFIED., .F., .T. ) 
 B_SPLINE_CURVE_WITH_KNOTS ( ( 4, 4 ),
 ( 1.570796326794896600, 4.712388980384689700 ),
 .UNSPECIFIED. ) 
 CURVE ( )  GEOMETRIC_REPRESENTATION_ITEM ( )  RATIONAL_B_SPLINE_CURVE ( ( 1.000000000000000000, 0.3333333333333333700, 0.3333333333333333700, 1.000000000000000000 ) ) 
 REPRESENTATION_ITEM ( '' )  );
#142 = ORIENTED_EDGE ( 'NONE', *, *, #16, .F. ) ;
#143 = AXIS2_PLACEMENT_3D ( 'NONE', #355, #62, #273 ) ;
#144 = APPROVAL_ROLE ( '' ) ;
#145 = AXIS2_PLACEMENT_3D ( 'NONE', #345, #212, #231 ) ;
#146 = VERTEX_POINT ( 'NONE', #265 ) ;
#147 = CIRCLE ( 'NONE', #294, 0.5118110236220473300 ) ;
#148 = CARTESIAN_POINT ( 'NONE',  ( -2.834645669291338900, 0.9645669291338584400, 0.0000000000000000000 ) ) ;
#149 = CARTESIAN_POINT ( 'NONE',  ( -5.669291338582677800, 0.0000000000000000000, 0.0000000000000000000 ) ) ;
#150 = APPROVAL ( #334, 'UNSPECIFIED' ) ;
#151 = CARTESIAN_POINT ( 'NONE',  ( -3.858267716535433300, 1.023622047244094700, -0.5118110236220470000 ) ) ;
#152 = PERSON_AND_ORGANIZATION ( #266, #48 ) ;
#153 = CARTESIAN_POINT ( 'NONE',  ( -2.834645669291338900, 0.0000000000000000000, 0.0000000000000000000 ) ) ;
#154 = FACE_OUTER_BOUND ( 'NONE', #303, .T. ) ;
#155 = AXIS2_PLACEMENT_3D ( 'NONE', #379, #288, #183 ) ;
#156 = APPLICATION_CONTEXT ( 'configuration controlled 3d designs of mechanical parts and assemblies' ) ;
#157 = DATE_AND_TIME ( #237, #41 ) ;
#158 = PLANE ( 'NONE',  #234 ) ;
#159 = CYLINDRICAL_SURFACE ( 'NONE', #221, 0.6299212598425196800 ) ;
#160 = CONICAL_SURFACE ( 'NONE', #155, 0.6889763779527560100, 0.7853981633974482800 ) ;
#161 = DIRECTION ( 'NONE',  ( 1.000000000000000000, 0.0000000000000000000, 0.0000000000000000000 ) ) ;
#162 = APPROVAL_PERSON_ORGANIZATION ( #94, #150, #144 ) ;
#163 = COORDINATED_UNIVERSAL_TIME_OFFSET ( 5, 0, .BEHIND. ) ;
#164 = DIRECTION ( 'NONE',  ( 0.0000000000000000000, 1.000000000000000000, -2.449212707644750100E-016 ) ) ;
#165 = ORIENTED_EDGE ( 'NONE', *, *, #271, .F. ) ;
#166 = DIRECTION ( 'NONE',  ( 1.000000000000000000, 0.0000000000000000000, -2.449212707645510300E-016 ) ) ;
#167 = PERSON_AND_ORGANIZATION ( #266, #48 ) ;
#168 = DIRECTION ( 'NONE',  ( -1.000000000000000000, -0.0000000000000000000, -0.0000000000000000000 ) ) ;
#169 = CC_DESIGN_APPROVAL ( #180, ( #344 ) ) ;
#170 = CIRCLE ( 'NONE', #371, 0.6889763779527560100 ) ;
#171 = AXIS2_PLACEMENT_3D ( 'NONE', #67, #108, #197 ) ;
#172 = DATE_AND_TIME ( #261, #346 ) ;
#173 = CARTESIAN_POINT ( 'NONE',  ( -2.834645669291338900, 0.0000000000000000000, -0.5118110236220472200 ) ) ;
#174 = ORIENTED_EDGE ( 'NONE', *, *, #253, .F. ) ;
#175 = LOCAL_TIME ( 16, 17, 40.00000000000000000, #45 ) ;
#176 = ADVANCED_FACE ( 'NONE', ( #304, #96, #277 ), #114, .F. ) ;
#177 = CARTESIAN_POINT ( 'NONE',  ( -5.669291338582677800, 0.0000000000000000000, 0.0000000000000000000 ) ) ;
#178 = FACE_OUTER_BOUND ( 'NONE', #43, .T. ) ;
#179 = ORIENTED_EDGE ( 'NONE', *, *, #271, .T. ) ;
#180 = APPROVAL ( #275, 'UNSPECIFIED' ) ;
#181 = PLANE ( 'NONE',  #112 ) ;
#182 = EDGE_LOOP ( 'NONE', ( #331 ) ) ;
#183 = DIRECTION ( 'NONE',  ( 0.0000000000000000000, 1.982541115402065100E-016, -1.000000000000000000 ) ) ;
#184 = CARTESIAN_POINT ( 'NONE',  ( -2.834645669291338900, 0.0000000000000000000, -0.5118110236220472200 ) ) ;
#185 = CARTESIAN_POINT ( 'NONE',  ( -0.8858267716535432900, 0.0000000000000000000, 0.0000000000000000000 ) ) ;
#186 = PERSON_AND_ORGANIZATION ( #266, #48 ) ;
#187 = ORIENTED_EDGE ( 'NONE', *, *, #50, .T. ) ;
#188 = CIRCLE ( 'NONE', #104, 0.5118110236220473300 ) ;
#189 = CC_DESIGN_PERSON_AND_ORGANIZATION_ASSIGNMENT ( #78, #195, ( #6 ) ) ;
#190 = DIRECTION ( 'NONE',  ( 0.0000000000000000000, 0.0000000000000000000, -1.000000000000000000 ) ) ;
#191 = APPROVAL_DATE_TIME ( #172, #150 ) ;
#192 = CARTESIAN_POINT ( 'NONE',  ( -2.834645669291338900, 0.0000000000000000000, 0.6889763779527559000 ) ) ;
#193 = VERTEX_POINT ( 'NONE', #250 ) ;
#194 = EDGE_LOOP ( 'NONE', ( #109 ) ) ;
#195 = PERSON_AND_ORGANIZATION_ROLE ( 'creator' ) ;
#196 = APPROVAL_DATE_TIME ( #241, #53 ) ;
#197 = DIRECTION ( 'NONE',  ( 0.0000000000000000000, 0.0000000000000000000, -1.000000000000000000 ) ) ;
#198 = ADVANCED_FACE ( 'NONE', ( #10, #278 ), #159, .T. ) ;
#199 = CIRCLE ( 'NONE', #145, 0.6299212598425196800 ) ;
#200 = AXIS2_PLACEMENT_3D ( 'NONE', #113, #309, #133 ) ;
#201 = APPROVAL_PERSON_ORGANIZATION ( #167, #53, #245 ) ;
#202 = CONICAL_SURFACE ( 'NONE', #200, 0.6889763779527560100, 0.7853981633974482800 ) ;
#203 = DIMENSIONAL_EXPONENTS ( 1.000000000000000000, 0.0000000000000000000, 0.0000000000000000000, 0.0000000000000000000, 0.0000000000000000000, 0.0000000000000000000, 0.0000000000000000000 ) ;
#204 = EDGE_LOOP ( 'NONE', ( #137 ) ) ;
#205 = SECURITY_CLASSIFICATION_LEVEL ( 'unclassified' ) ;
#206 = DIRECTION ( 'NONE',  ( 0.0000000000000000000, 0.0000000000000000000, 1.000000000000000000 ) ) ;
#207 = CYLINDRICAL_SURFACE ( 'NONE', #171, 0.5118110236220473300 ) ;
#208 = DIRECTION ( 'NONE',  ( 0.0000000000000000000, -1.000000000000000000, 0.0000000000000000000 ) ) ;
#209 = EDGE_LOOP ( 'NONE', ( #291 ) ) ;
#210 = CARTESIAN_POINT ( 'NONE',  ( -2.834645669291338900, 3.133938659235353000E-017, 0.5118110236220472200 ) ) ;
#211 = DIRECTION ( 'NONE',  ( 0.0000000000000000000, 0.0000000000000000000, -1.000000000000000000 ) ) ;
#212 = DIRECTION ( 'NONE',  ( 0.0000000000000000000, 1.000000000000000000, 0.0000000000000000000 ) ) ;
#213 = CARTESIAN_POINT ( 'NONE',  ( -2.519685039370078700, 2.795275590551181500, -7.714055772109449500E-017 ) ) ;
#214 = VERTEX_POINT ( 'NONE', #107 ) ;
#215 = EDGE_CURVE ( 'NONE', #297, #297, #380, .T. ) ;
#216 = ORIENTED_EDGE ( 'NONE', *, *, #299, .F. ) ;
#217 = DIRECTION ( 'NONE',  ( -0.0000000000000000000, -1.000000000000000000, -0.0000000000000000000 ) ) ;
#218 = EDGE_LOOP ( 'NONE', ( #65, #262 ) ) ;
#219 = DIRECTION ( 'NONE',  ( 0.0000000000000000000, 0.0000000000000000000, -1.000000000000000000 ) ) ;
#220 = DIRECTION ( 'NONE',  ( 0.0000000000000000000, 0.0000000000000000000, -1.000000000000000000 ) ) ;
#221 = AXIS2_PLACEMENT_3D ( 'NONE', #247, #217, #39 ) ;
#222 = CARTESIAN_POINT ( 'NONE',  ( 0.0000000000000000000, 0.0000000000000000000, 0.0000000000000000000 ) ) ;
#223 = FACE_OUTER_BOUND ( 'NONE', #194, .T. ) ;
#224 = CARTESIAN_POINT ( 'NONE',  ( -1.771653543307086600, 0.0000000000000000000, -0.6299212598425196800 ) ) ;
#225 = CC_DESIGN_APPROVAL ( #53, ( #115 ) ) ;
#226 = DATE_TIME_ROLE ( 'classification_date' ) ;
#227 = VERTEX_POINT ( 'NONE', #243 ) ;
#228 = PERSON_AND_ORGANIZATION_ROLE ( 'design_supplier' ) ;
#229 = FACE_BOUND ( 'NONE', #49, .T. ) ;
#230 = AXIS2_PLACEMENT_3D ( 'NONE', #213, #66, #341 ) ;
#231 = DIRECTION ( 'NONE',  ( 0.0000000000000000000, 0.0000000000000000000, -1.000000000000000000 ) ) ;
#232 = CARTESIAN_POINT ( 'NONE',  ( -2.834645669291338900, 0.0000000000000000000, -0.6889763779527559000 ) ) ;
#233 = DATE_AND_TIME ( #125, #34 ) ;
#234 = AXIS2_PLACEMENT_3D ( 'NONE', #320, #322, #325 ) ;
#235 = CARTESIAN_POINT ( 'NONE',  ( -5.669291338582677800, 0.0000000000000000000, -0.6299212598425196800 ) ) ;
#236 = CARTESIAN_POINT ( 'NONE',  ( -3.858267716535433300, 1.023622047244094200, 0.5118110236220473300 ) ) ;
#237 = CALENDAR_DATE ( 2015, 4, 12 ) ;
#238 = FACE_OUTER_BOUND ( 'NONE', #218, .T. ) ;
#239 = FACE_OUTER_BOUND ( 'NONE', #264, .T. ) ;
#240 = APPROVAL_PERSON_ORGANIZATION ( #152, #180, #348 ) ;
#241 = DATE_AND_TIME ( #326, #175 ) ;
#242 = FACE_BOUND ( 'NONE', #91, .T. ) ;
#243 = CARTESIAN_POINT ( 'NONE',  ( -3.838582677165354600, 0.6889763779527560100, -1.687449700148942400E-016 ) ) ;
#244 = MECHANICAL_CONTEXT ( 'NONE', #14, 'mechanical' ) ;
#245 = APPROVAL_ROLE ( '' ) ;
#246 = ADVANCED_FACE ( 'NONE', ( #131, #336 ), #267, .T. ) ;
#247 = CARTESIAN_POINT ( 'NONE',  ( -2.834645669291338900, 1.909448818897638000, 0.0000000000000000000 ) ) ;
#248 = FACE_BOUND ( 'NONE', #182, .T. ) ;
#249 = CYLINDRICAL_SURFACE ( 'NONE', #287, 0.6299212598425196800 ) ;
#250 = CARTESIAN_POINT ( 'NONE',  ( -2.834645669291338900, 2.795275590551181500, -0.5118110236220473300 ) ) ;
#251 = CARTESIAN_POINT ( 'NONE',  ( -2.834645669291338900, 0.4822834645669291700, 0.0000000000000000000 ) ) ;
#252 =( NAMED_UNIT ( * ) PLANE_ANGLE_UNIT ( ) SI_UNIT ( $, .RADIAN. ) );
#253 = EDGE_CURVE ( 'NONE', #146, #146, #298, .T. ) ;
#254 = DIRECTION ( 'NONE',  ( 0.0000000000000000000, 0.0000000000000000000, -1.000000000000000000 ) ) ;
#255 = CARTESIAN_POINT ( 'NONE',  ( -1.830708661417322900, 0.6889763779527560100, -1.687449700148942400E-016 ) ) ;
#256 = AXIS2_PLACEMENT_3D ( 'NONE', #354, #360, #329 ) ;
#257 = EDGE_LOOP ( 'NONE', ( #339 ) ) ;
#258 = CARTESIAN_POINT ( 'NONE',  ( 0.03937007874015748000, 0.0000000000000000000, 0.0000000000000000000 ) ) ;
#259 = ORIENTED_EDGE ( 'NONE', *, *, #367, .F. ) ;
#260 =( BOUNDED_CURVE ( )  B_SPLINE_CURVE ( 3, ( #270, #44, #330, #64 ),
 .UNSPECIFIED., .F., .T. ) 
 B_SPLINE_CURVE_WITH_KNOTS ( ( 4, 4 ),
 ( 1.570796326794896800, 4.712388980384689700 ),
 .UNSPECIFIED. ) 
 CURVE ( )  GEOMETRIC_REPRESENTATION_ITEM ( )  RATIONAL_B_SPLINE_CURVE ( ( 1.000000000000000000, 0.3333333333333333700, 0.3333333333333333700, 1.000000000000000000 ) ) 
 REPRESENTATION_ITEM ( '' )  );
#261 = CALENDAR_DATE ( 2015, 4, 12 ) ;
#262 = ORIENTED_EDGE ( 'NONE', *, *, #35, .F. ) ;
#263 = EDGE_LOOP ( 'NONE', ( #119 ) ) ;
#264 = EDGE_LOOP ( 'NONE', ( #142 ) ) ;
#265 = CARTESIAN_POINT ( 'NONE',  ( 0.0000000000000000000, 0.0000000000000000000, -0.5118110236220473300 ) ) ;
#266 = PERSON ( 'UNSPECIFIED', 'UNSPECIFIED', 'UNSPECIFIED', ('UNSPECIFIED'), ('UNSPECIFIED'), ('UNSPECIFIED') ) ;
#267 = CONICAL_SURFACE ( 'NONE', #256, 0.6889763779527560100, 0.7853981633974482800 ) ;
#268 = DATE_TIME_ROLE ( 'creation_date' ) ;
#269 = ORIENTED_EDGE ( 'NONE', *, *, #20, .T. ) ;
#270 = CARTESIAN_POINT ( 'NONE',  ( -2.834645669291338900, 0.0000000000000000000, 0.6889763779527559000 ) ) ;
#271 = EDGE_CURVE ( 'NONE', #193, #193, #188, .T. ) ;
#272 = EDGE_LOOP ( 'NONE', ( #315 ) ) ;
#273 = DIRECTION ( 'NONE',  ( 0.0000000000000000000, 0.0000000000000000000, -1.000000000000000000 ) ) ;
#274 = CARTESIAN_POINT ( 'NONE',  ( -2.834645669291338900, 0.0000000000000000000, 0.6889763779527559000 ) ) ;
#275 = APPROVAL_STATUS ( 'not_yet_approved' ) ;
#276 = CARTESIAN_POINT ( 'NONE',  ( 0.0000000000000000000, 0.0000000000000000000, -0.6299212598425196800 ) ) ;
#277 = FACE_OUTER_BOUND ( 'NONE', #292, .T. ) ;
#278 = FACE_OUTER_BOUND ( 'NONE', #359, .T. ) ;
#279 = DIRECTION ( 'NONE',  ( 1.000000000000000000, 0.0000000000000000000, 0.0000000000000000000 ) ) ;
#280 = DIRECTION ( 'NONE',  ( -1.000000000000000000, 0.0000000000000000000, 0.0000000000000000000 ) ) ;
#281 = DIRECTION ( 'NONE',  ( 1.000000000000000000, 0.0000000000000000000, 0.0000000000000000000 ) ) ;
#282 = DIRECTION ( 'NONE',  ( 1.000000000000000000, 0.0000000000000000000, 0.0000000000000000000 ) ) ;
#283 = EDGE_LOOP ( 'NONE', ( #179 ) ) ;
#284 = DIRECTION ( 'NONE',  ( -0.0000000000000000000, -1.000000000000000000, -0.0000000000000000000 ) ) ;
#285 = ORIENTED_EDGE ( 'NONE', *, *, #374, .T. ) ;
#286 = DIRECTION ( 'NONE',  ( -1.000000000000000000, -0.0000000000000000000, -0.0000000000000000000 ) ) ;
#287 = AXIS2_PLACEMENT_3D ( 'NONE', #56, #9, #343 ) ;
#288 = DIRECTION ( 'NONE',  ( -1.965234637129832300E-032, -1.000000000000000000, -9.912705577010326800E-017 ) ) ;
#289 = VERTEX_POINT ( 'NONE', #276 ) ;
#290 = EDGE_LOOP ( 'NONE', ( #122, #377 ) ) ;
#291 = ORIENTED_EDGE ( 'NONE', *, *, #71, .T. ) ;
#292 = EDGE_LOOP ( 'NONE', ( #174 ) ) ;
#293 = FACE_OUTER_BOUND ( 'NONE', #295, .T. ) ;
#294 = AXIS2_PLACEMENT_3D ( 'NONE', #177, #161, #220 ) ;
#295 = EDGE_LOOP ( 'NONE', ( #363, #187 ) ) ;
#296 = ADVANCED_FACE ( 'NONE', ( #11, #301 ), #160, .T. ) ;
#297 = VERTEX_POINT ( 'NONE', #255 ) ;
#298 = CIRCLE ( 'NONE', #106, 0.5118110236220473300 ) ;
#299 = EDGE_CURVE ( 'NONE', #227, #227, #170, .T. ) ;
#300 = ADVANCED_FACE ( 'NONE', ( #328, #239 ), #365, .T. ) ;
#301 = FACE_OUTER_BOUND ( 'NONE', #209, .T. ) ;
#302 = VERTEX_POINT ( 'NONE', #37 ) ;
#303 = EDGE_LOOP ( 'NONE', ( #85 ) ) ;
#304 = FACE_BOUND ( 'NONE', #31, .T. ) ;
#305 =( BOUNDED_CURVE ( )  B_SPLINE_CURVE ( 3, ( #210, #236, #151, #184 ),
 .UNSPECIFIED., .F., .T. ) 
 B_SPLINE_CURVE_WITH_KNOTS ( ( 4, 4 ),
 ( 1.570796326794896600, 4.712388980384689700 ),
 .UNSPECIFIED. ) 
 CURVE ( )  GEOMETRIC_REPRESENTATION_ITEM ( )  RATIONAL_B_SPLINE_CURVE ( ( 1.000000000000000000, 0.3333333333333333700, 0.3333333333333333700, 1.000000000000000000 ) ) 
 REPRESENTATION_ITEM ( '' )  );
#306 = FACE_OUTER_BOUND ( 'NONE', #36, .T. ) ;
#307 = CIRCLE ( 'NONE', #143, 0.6299212598425196800 ) ;
#308 = CC_DESIGN_PERSON_AND_ORGANIZATION_ASSIGNMENT ( #312, #313, ( #344 ) ) ;
#309 = DIRECTION ( 'NONE',  ( -1.000000000000000000, -0.0000000000000000000, 0.0000000000000000000 ) ) ;
#310 = EDGE_CURVE ( 'NONE', #73, #73, #24, .T. ) ;
#311 = ORIENTED_EDGE ( 'NONE', *, *, #299, .T. ) ;
#312 = PERSON_AND_ORGANIZATION ( #266, #48 ) ;
#313 = PERSON_AND_ORGANIZATION_ROLE ( 'creator' ) ;
#314 = VERTEX_POINT ( 'NONE', #235 ) ;
#315 = ORIENTED_EDGE ( 'NONE', *, *, #42, .T. ) ;
#316 = ADVANCED_BREP_SHAPE_REPRESENTATION ( '581245010', ( #98, #90 ), #138 ) ;
#317 = AXIS2_PLACEMENT_3D ( 'NONE', #383, #327, #97 ) ;
#318 = ORIENTED_EDGE ( 'NONE', *, *, #50, .F. ) ;
#319 = CARTESIAN_POINT ( 'NONE',  ( -2.834645669291338900, 3.133938659235353000E-017, 0.5118110236220472200 ) ) ;
#320 = CARTESIAN_POINT ( 'NONE',  ( 0.0000000000000000000, 0.3149606299212598400, -7.714055772109449500E-017 ) ) ;
#321 = PERSON_AND_ORGANIZATION_ROLE ( 'design_owner' ) ;
#322 = DIRECTION ( 'NONE',  ( 1.000000000000000000, 0.0000000000000000000, 0.0000000000000000000 ) ) ;
#323 = EDGE_LOOP ( 'NONE', ( #285 ) ) ;
#324 = ORIENTED_EDGE ( 'NONE', *, *, #42, .F. ) ;
#325 = DIRECTION ( 'NONE',  ( 0.0000000000000000000, 0.0000000000000000000, -1.000000000000000000 ) ) ;
#326 = CALENDAR_DATE ( 2015, 4, 12 ) ;
#327 = DIRECTION ( 'NONE',  ( 1.000000000000000000, -0.0000000000000000000, -0.0000000000000000000 ) ) ;
#328 = FACE_OUTER_BOUND ( 'NONE', #342, .T. ) ;
#329 = DIRECTION ( 'NONE',  ( 0.0000000000000000000, 0.0000000000000000000, -1.000000000000000000 ) ) ;
#330 = CARTESIAN_POINT ( 'NONE',  ( -4.212598425196850900, 1.377952755905511400, -0.6889763779527555700 ) ) ;
#331 = ORIENTED_EDGE ( 'NONE', *, *, #253, .T. ) ;
#332 = DIRECTION ( 'NONE',  ( 0.0000000000000000000, 0.0000000000000000000, -1.000000000000000000 ) ) ;
#333 = EDGE_LOOP ( 'NONE', ( #216 ) ) ;
#334 = APPROVAL_STATUS ( 'not_yet_approved' ) ;
#335 = CC_DESIGN_APPROVAL ( #150, ( #6 ) ) ;
#336 = FACE_OUTER_BOUND ( 'NONE', #384, .T. ) ;
#337 = EDGE_LOOP ( 'NONE', ( #324 ) ) ;
#338 = SHAPE_DEFINITION_REPRESENTATION ( #54, #316 ) ;
#339 = ORIENTED_EDGE ( 'NONE', *, *, #71, .F. ) ;
#340 = COORDINATED_UNIVERSAL_TIME_OFFSET ( 5, 0, .BEHIND. ) ;
#341 = DIRECTION ( 'NONE',  ( 0.0000000000000000000, -0.0000000000000000000, 1.000000000000000000 ) ) ;
#342 = EDGE_LOOP ( 'NONE', ( #269 ) ) ;
#343 = DIRECTION ( 'NONE',  ( 0.0000000000000000000, 0.0000000000000000000, -1.000000000000000000 ) ) ;
#344 = PRODUCT_DEFINITION ( 'UNKNOWN', '', #6, #385 ) ;
#345 = CARTESIAN_POINT ( 'NONE',  ( -2.834645669291338900, 2.795275590551181500, 0.0000000000000000000 ) ) ;
#346 = LOCAL_TIME ( 16, 17, 40.00000000000000000, #84 ) ;
#347 = FACE_OUTER_BOUND ( 'NONE', #333, .T. ) ;
#348 = APPROVAL_ROLE ( '' ) ;
#349 = ORIENTED_EDGE ( 'NONE', *, *, #310, .F. ) ;
#350 = CARTESIAN_POINT ( 'NONE',  ( -3.897637795275590700, 0.0000000000000000000, 0.0000000000000000000 ) ) ;
#351 = ORIENTED_EDGE ( 'NONE', *, *, #63, .T. ) ;
#352 = DIRECTION ( 'NONE',  ( 1.000000000000000000, 0.0000000000000000000, 0.0000000000000000000 ) ) ;
#353 = ADVANCED_FACE ( 'NONE', ( #293, #178 ), #207, .F. ) ;
#354 = CARTESIAN_POINT ( 'NONE',  ( -3.838582677165354600, 0.0000000000000000000, 0.0000000000000000000 ) ) ;
#355 = CARTESIAN_POINT ( 'NONE',  ( -1.771653543307086600, 0.0000000000000000000, 0.0000000000000000000 ) ) ;
#356 = EDGE_LOOP ( 'NONE', ( #29 ) ) ;
#357 = UNCERTAINTY_MEASURE_WITH_UNIT (LENGTH_MEASURE( 1.000000000000000100E-005 ), #25, 'distance_accuracy_value', 'NONE');
#358 = CARTESIAN_POINT ( 'NONE',  ( -2.834645669291338900, 3.133938659235353000E-017, 0.5118110236220472200 ) ) ;
#359 = EDGE_LOOP ( 'NONE', ( #58 ) ) ;
#360 = DIRECTION ( 'NONE',  ( 1.000000000000000000, 0.0000000000000000000, -0.0000000000000000000 ) ) ;
#361 = CIRCLE ( 'NONE', #124, 0.6299212598425196800 ) ;
#362 = FACE_OUTER_BOUND ( 'NONE', #257, .T. ) ;
#363 = ORIENTED_EDGE ( 'NONE', *, *, #83, .T. ) ;
#364 = VERTEX_POINT ( 'NONE', #55 ) ;
#365 = CYLINDRICAL_SURFACE ( 'NONE', #99, 0.6299212598425196800 ) ;
#366 = ORIENTED_EDGE ( 'NONE', *, *, #20, .F. ) ;
#367 = EDGE_CURVE ( 'NONE', #302, #302, #361, .T. ) ;
#368 = LOCAL_TIME ( 16, 17, 40.00000000000000000, #340 ) ;
#369 = CC_DESIGN_PERSON_AND_ORGANIZATION_ASSIGNMENT ( #61, #228, ( #6 ) ) ;
#370 = CIRCLE ( 'NONE', #378, 0.6889763779527556800 ) ;
#371 = AXIS2_PLACEMENT_3D ( 'NONE', #33, #74, #164 ) ;
#372 = APPLICATION_PROTOCOL_DEFINITION ( 'international standard', 'config_control_design', 1994, #14 ) ;
#373 = ADVANCED_FACE ( 'NONE', ( #70, #347, #130 ), #118, .T. ) ;
#374 = EDGE_CURVE ( 'NONE', #136, #136, #199, .T. ) ;
#375 = VERTEX_POINT ( 'NONE', #7 ) ;
#376 = VERTEX_POINT ( 'NONE', #173 ) ;
#377 = ORIENTED_EDGE ( 'NONE', *, *, #35, .T. ) ;
#378 = AXIS2_PLACEMENT_3D ( 'NONE', #148, #47, #166 ) ;
#379 = CARTESIAN_POINT ( 'NONE',  ( -2.834645669291338900, 0.9645669291338583300, -3.159367244433773900E-049 ) ) ;
#380 = CIRCLE ( 'NONE', #317, 0.6889763779527560100 ) ;
#381 = DIRECTION ( 'NONE',  ( 0.0000000000000000000, 0.0000000000000000000, -1.000000000000000000 ) ) ;
#382 = FACE_OUTER_BOUND ( 'NONE', #337, .T. ) ;
#383 = CARTESIAN_POINT ( 'NONE',  ( -1.830708661417322900, 0.0000000000000000000, 0.0000000000000000000 ) ) ;
#384 = EDGE_LOOP ( 'NONE', ( #311 ) ) ;
#385 = DESIGN_CONTEXT ( 'detailed design', #156, 'design' ) ;
#386 = DIRECTION ( 'NONE',  ( 0.0000000000000000000, 0.0000000000000000000, -1.000000000000000000 ) ) ;
ENDSEC;
END-ISO-10303-21;
