ISO-10303-21;
HEADER;
FILE_DESCRIPTION (( 'STEP AP203' ),
    '1' );
FILE_NAME ('581245015.STEP',
    '2015-12-04T21:20:30',
    ( '' ),
    ( '' ),
    'SwSTEP 2.0',
    'SolidWorks 2015',
    '' );
FILE_SCHEMA (( 'CONFIG_CONTROL_DESIGN' ));
ENDSEC;

DATA;
#1 = CARTESIAN_POINT ( 'NONE',  ( -3.720472440944881900, 0.0000000000000000000, -1.074803149606299100 ) ) ;
#2 = ORGANIZATION ( 'UNSPECIFIED', 'UNSPECIFIED', '' ) ;
#3 = EDGE_LOOP ( 'NONE', ( #117 ) ) ;
#4 = EDGE_LOOP ( 'NONE', ( #13 ) ) ;
#5 = CC_DESIGN_SECURITY_CLASSIFICATION ( #231, ( #134 ) ) ;
#6 = COORDINATED_UNIVERSAL_TIME_OFFSET ( 5, 0, .BEHIND. ) ;
#7 = LOCAL_TIME ( 16, 20, 30.00000000000000000, #6 ) ;
#8 = CIRCLE ( 'NONE', #292, 0.9842519685039370400 ) ;
#9 = CYLINDRICAL_SURFACE ( 'NONE', #330, 0.8031496062992125000 ) ;
#10 = DIRECTION ( 'NONE',  ( 0.0000000000000000000, 0.0000000000000000000, -1.000000000000000000 ) ) ;
#11 = AXIS2_PLACEMENT_3D ( 'NONE', #266, #219, #227 ) ;
#12 = DATE_AND_TIME ( #329, #183 ) ;
#13 = ORIENTED_EDGE ( 'NONE', *, *, #49, .F. ) ;
#14 = FACE_OUTER_BOUND ( 'NONE', #39, .T. ) ;
#15 = PRODUCT ( '581245015', '581245015', '', ( #308 ) ) ;
#16 = CYLINDRICAL_SURFACE ( 'NONE', #290, 0.9842519685039370400 ) ;
#17 = VERTEX_POINT ( 'NONE', #240 ) ;
#18 = APPROVAL ( #382, 'UNSPECIFIED' ) ;
#19 = DIRECTION ( 'NONE',  ( 0.0000000000000000000, 0.0000000000000000000, -1.000000000000000000 ) ) ;
#20 = PERSON_AND_ORGANIZATION ( #46, #2 ) ;
#21 = PERSON_AND_ORGANIZATION ( #46, #2 ) ;
#22 = DIRECTION ( 'NONE',  ( 1.000000000000000000, 0.0000000000000000000, 0.0000000000000000000 ) ) ;
#23 = FACE_OUTER_BOUND ( 'NONE', #152, .T. ) ;
#24 = ORIENTED_EDGE ( 'NONE', *, *, #162, .F. ) ;
#25 = CARTESIAN_POINT ( 'NONE',  ( -3.720472440944881900, 3.740157480314960600, -0.8031496062992125000 ) ) ;
#26 = AXIS2_PLACEMENT_3D ( 'NONE', #149, #244, #336 ) ;
#27 = DIRECTION ( 'NONE',  ( -0.0000000000000000000, -1.000000000000000000, -0.0000000000000000000 ) ) ;
#28 = CC_DESIGN_APPROVAL ( #47, ( #231 ) ) ;
#29 = CIRCLE ( 'NONE', #199, 1.074803149606298900 ) ;
#30 = ORIENTED_EDGE ( 'NONE', *, *, #49, .T. ) ;
#31 = CARTESIAN_POINT ( 'NONE',  ( -7.440944881889763900, 0.0000000000000000000, 0.0000000000000000000 ) ) ;
#32 = EDGE_CURVE ( 'NONE', #17, #273, #318, .T. ) ;
#33 = CARTESIAN_POINT ( 'NONE',  ( -3.720472440944881900, 0.0000000000000000000, 1.074803149606299100 ) ) ;
#34 = CC_DESIGN_PERSON_AND_ORGANIZATION_ASSIGNMENT ( #384, #238, ( #15 ) ) ;
#35 = ORIENTED_EDGE ( 'NONE', *, *, #248, .T. ) ;
#36 = CARTESIAN_POINT ( 'NONE',  ( -3.720472440944881900, 0.0000000000000000000, -0.8031496062992123900 ) ) ;
#37 = ADVANCED_FACE ( 'NONE', ( #280, #50 ), #9, .F. ) ;
#38 = EDGE_LOOP ( 'NONE', ( #88 ) ) ;
#39 = EDGE_LOOP ( 'NONE', ( #95 ) ) ;
#40 = PLANE ( 'NONE',  #225 ) ;
#41 = ORIENTED_EDGE ( 'NONE', *, *, #145, .F. ) ;
#42 = APPROVAL_ROLE ( '' ) ;
#43 = AXIS2_PLACEMENT_3D ( 'NONE', #212, #346, #82 ) ;
#44 = PERSON_AND_ORGANIZATION ( #46, #2 ) ;
#45 = FACE_BOUND ( 'NONE', #285, .T. ) ;
#46 = PERSON ( 'UNSPECIFIED', 'UNSPECIFIED', 'UNSPECIFIED', ('UNSPECIFIED'), ('UNSPECIFIED'), ('UNSPECIFIED') ) ;
#47 = APPROVAL ( #357, 'UNSPECIFIED' ) ;
#48 = DIRECTION ( 'NONE',  ( 0.0000000000000000000, 0.0000000000000000000, -1.000000000000000000 ) ) ;
#49 = EDGE_CURVE ( 'NONE', #224, #224, #133, .T. ) ;
#50 = FACE_OUTER_BOUND ( 'NONE', #256, .T. ) ;
#51 = EDGE_LOOP ( 'NONE', ( #137 ) ) ;
#52 = PRODUCT_DEFINITION ( 'UNKNOWN', '', #134, #207 ) ;
#53 = CARTESIAN_POINT ( 'NONE',  ( -2.244094488188976400, 0.0000000000000000000, -0.9842519685039370400 ) ) ;
#54 = CARTESIAN_POINT ( 'NONE',  ( -3.720472440944881900, 1.496062992125984300, -0.9842519685039370400 ) ) ;
#55 = EDGE_LOOP ( 'NONE', ( #235 ) ) ;
#56 =( NAMED_UNIT ( * ) SI_UNIT ( $, .STERADIAN. ) SOLID_ANGLE_UNIT ( ) );
#57 = DIRECTION ( 'NONE',  ( -1.000000000000000000, -0.0000000000000000000, -0.0000000000000000000 ) ) ;
#58 = APPROVAL_PERSON_ORGANIZATION ( #20, #154, #253 ) ;
#59 = FACE_BOUND ( 'NONE', #246, .T. ) ;
#60 = EDGE_LOOP ( 'NONE', ( #322, #112 ) ) ;
#61 = CARTESIAN_POINT ( 'NONE',  ( -3.720472440944881900, 0.0000000000000000000, 0.0000000000000000000 ) ) ;
#62 = ADVANCED_FACE ( 'NONE', ( #23, #321 ), #127, .T. ) ;
#63 = CARTESIAN_POINT ( 'NONE',  ( -5.326771653543306500, 1.606299212598424800, -0.8031496062992122800 ) ) ;
#64 =( CONVERSION_BASED_UNIT ( 'INCH', #107 ) LENGTH_UNIT ( ) NAMED_UNIT ( #239 ) );
#65 = AXIS2_PLACEMENT_3D ( 'NONE', #157, #228, #76 ) ;
#66 = EDGE_LOOP ( 'NONE', ( #337 ) ) ;
#67 = ADVANCED_FACE ( 'NONE', ( #286, #102, #78 ), #236, .T. ) ;
#68 = DIRECTION ( 'NONE',  ( 0.0000000000000000000, 0.0000000000000000000, -1.000000000000000000 ) ) ;
#69 = CC_DESIGN_DATE_AND_TIME_ASSIGNMENT ( #159, #335, ( #231 ) ) ;
#70 = CARTESIAN_POINT ( 'NONE',  ( -5.326771653543306500, 1.606299212598424600, 0.8031496062992126200 ) ) ;
#71 = CIRCLE ( 'NONE', #129, 1.074803149606299100 ) ;
#72 = SHAPE_DEFINITION_REPRESENTATION ( #130, #178 ) ;
#73 = EDGE_CURVE ( 'NONE', #275, #275, #8, .T. ) ;
#74 = PLANE ( 'NONE',  #43 ) ;
#75 = CARTESIAN_POINT ( 'NONE',  ( 0.0000000000000000000, 0.0000000000000000000, 0.0000000000000000000 ) ) ;
#76 = DIRECTION ( 'NONE',  ( -2.541719378720597300E-016, 0.0000000000000000000, 1.000000000000000000 ) ) ;
#77 = DATE_AND_TIME ( #279, #7 ) ;
#78 = FACE_OUTER_BOUND ( 'NONE', #315, .T. ) ;
#79 = VERTEX_POINT ( 'NONE', #90 ) ;
#80 = CC_DESIGN_APPROVAL ( #18, ( #52 ) ) ;
#81 = EDGE_LOOP ( 'NONE', ( #41 ) ) ;
#82 = DIRECTION ( 'NONE',  ( 0.0000000000000000000, 0.0000000000000000000, -1.000000000000000000 ) ) ;
#83 = DIRECTION ( 'NONE',  ( 1.000000000000000000, 0.0000000000000000000, -0.0000000000000000000 ) ) ;
#84 = CYLINDRICAL_SURFACE ( 'NONE', #274, 0.8031496062992125000 ) ;
#85 = CARTESIAN_POINT ( 'NONE',  ( 0.0000000000000000000, 0.0000000000000000000, -0.8031496062992125000 ) ) ;
#86 = EDGE_CURVE ( 'NONE', #273, #17, #215, .T. ) ;
#87 = AXIS2_PLACEMENT_3D ( 'NONE', #114, #150, #167 ) ;
#88 = ORIENTED_EDGE ( 'NONE', *, *, #124, .T. ) ;
#89 = ORIENTED_EDGE ( 'NONE', *, *, #145, .T. ) ;
#90 = CARTESIAN_POINT ( 'NONE',  ( -2.645669291338583300, 1.405511811023621500, -2.632421532232562900E-016 ) ) ;
#91 = ADVANCED_FACE ( 'NONE', ( #361, #163 ), #148, .T. ) ;
#92 = DIRECTION ( 'NONE',  ( 0.0000000000000000000, 1.000000000000000000, -2.449212707644750600E-016 ) ) ;
#93 = CARTESIAN_POINT ( 'NONE',  ( -3.720472440944881900, 0.0000000000000000000, -1.074803149606299100 ) ) ;
#94 = CYLINDRICAL_SURFACE ( 'NONE', #220, 0.9842519685039370400 ) ;
#95 = ORIENTED_EDGE ( 'NONE', *, *, #257, .T. ) ;
#96 = CC_DESIGN_PERSON_AND_ORGANIZATION_ASSIGNMENT ( #44, #340, ( #52 ) ) ;
#97 = UNCERTAINTY_MEASURE_WITH_UNIT (LENGTH_MEASURE( 1.000000000000000100E-005 ), #64, 'distance_accuracy_value', 'NONE');
#98 = CIRCLE ( 'NONE', #288, 0.9842519685039370400 ) ;
#99 = EDGE_LOOP ( 'NONE', ( #353 ) ) ;
#100 = DIRECTION ( 'NONE',  ( 0.0000000000000000000, 0.0000000000000000000, -1.000000000000000000 ) ) ;
#101 = AXIS2_PLACEMENT_3D ( 'NONE', #173, #299, #208 ) ;
#102 = FACE_OUTER_BOUND ( 'NONE', #81, .T. ) ;
#103 = CC_DESIGN_PERSON_AND_ORGANIZATION_ASSIGNMENT ( #166, #317, ( #231 ) ) ;
#104 = CARTESIAN_POINT ( 'NONE',  ( -3.720472440944881900, 0.0000000000000000000, 1.074803149606299100 ) ) ;
#105 = VERTEX_POINT ( 'NONE', #85 ) ;
#106 = EDGE_CURVE ( 'NONE', #386, #386, #385, .T. ) ;
#107 = LENGTH_MEASURE_WITH_UNIT ( LENGTH_MEASURE( 0.02539999999999999900 ), #309 );
#108 = CARTESIAN_POINT ( 'NONE',  ( 0.03937007874015748000, 0.0000000000000000000, 0.0000000000000000000 ) ) ;
#109 = VERTEX_POINT ( 'NONE', #233 ) ;
#110 = AXIS2_PLACEMENT_3D ( 'NONE', #230, #258, #216 ) ;
#111 = DIRECTION ( 'NONE',  ( 0.0000000000000000000, 0.0000000000000000000, -1.000000000000000000 ) ) ;
#112 = ORIENTED_EDGE ( 'NONE', *, *, #355, .F. ) ;
#113 =( BOUNDED_CURVE ( )  B_SPLINE_CURVE ( 3, ( #93, #287, #358, #338 ),
 .UNSPECIFIED., .F., .F. ) 
 B_SPLINE_CURVE_WITH_KNOTS ( ( 4, 4 ),
 ( 1.570796326794896600, 4.712388980384689700 ),
 .UNSPECIFIED. ) 
 CURVE ( )  GEOMETRIC_REPRESENTATION_ITEM ( )  RATIONAL_B_SPLINE_CURVE ( ( 1.000000000000000000, 0.3333333333333333700, 0.3333333333333333700, 1.000000000000000000 ) ) 
 REPRESENTATION_ITEM ( '' )  );
#114 = CARTESIAN_POINT ( 'NONE',  ( -3.720472440944881900, 3.740157480314960600, 0.0000000000000000000 ) ) ;
#115 = CARTESIAN_POINT ( 'NONE',  ( -5.870078740157479700, 2.149606299212598200, -1.074803149606298600 ) ) ;
#116 = CC_DESIGN_DATE_AND_TIME_ASSIGNMENT ( #12, #255, ( #52 ) ) ;
#117 = ORIENTED_EDGE ( 'NONE', *, *, #193, .F. ) ;
#118 = VERTEX_POINT ( 'NONE', #53 ) ;
#119 = ADVANCED_FACE ( 'NONE', ( #377, #250 ), #143, .T. ) ;
#120 = CARTESIAN_POINT ( 'NONE',  ( -2.114173228346457800, 1.606299212598424800, 0.8031496062992122800 ) ) ;
#121 = AXIS2_PLACEMENT_3D ( 'NONE', #170, #186, #295 ) ;
#122 = EDGE_LOOP ( 'NONE', ( #172 ) ) ;
#123 = CARTESIAN_POINT ( 'NONE',  ( -3.720472440944881900, 4.917872972953937700E-017, 0.8031496062992123900 ) ) ;
#124 = EDGE_CURVE ( 'NONE', #79, #79, #156, .T. ) ;
#125 = CONICAL_SURFACE ( 'NONE', #65, 1.074803149606298900, 0.7853981633974392900 ) ;
#126 = EDGE_LOOP ( 'NONE', ( #223 ) ) ;
#127 = PLANE ( 'NONE',  #101 ) ;
#128 = APPLICATION_PROTOCOL_DEFINITION ( 'international standard', 'config_control_design', 1994, #375 ) ;
#129 = AXIS2_PLACEMENT_3D ( 'NONE', #269, #261, #92 ) ;
#130 = PRODUCT_DEFINITION_SHAPE ( 'NONE', 'NONE',  #52 ) ;
#131 = COORDINATED_UNIVERSAL_TIME_OFFSET ( 5, 0, .BEHIND. ) ;
#132 = LOCAL_TIME ( 16, 20, 30.00000000000000000, #131 ) ;
#133 = CIRCLE ( 'NONE', #121, 0.9842519685039370400 ) ;
#134 = PRODUCT_DEFINITION_FORMATION_WITH_SPECIFIED_SOURCE ( 'ANY', '', #15, .NOT_KNOWN. ) ;
#135 = EDGE_LOOP ( 'NONE', ( #372, #188 ) ) ;
#136 = APPROVAL_DATE_TIME ( #142, #47 ) ;
#137 = ORIENTED_EDGE ( 'NONE', *, *, #248, .F. ) ;
#138 = DIRECTION ( 'NONE',  ( 1.000000000000000000, 0.0000000000000000000, 0.0000000000000000000 ) ) ;
#139 = DIRECTION ( 'NONE',  ( 1.000000000000000000, 0.0000000000000000000, 0.0000000000000000000 ) ) ;
#140 = EDGE_CURVE ( 'NONE', #153, #153, #339, .T. ) ;
#141 = CARTESIAN_POINT ( 'NONE',  ( -5.106299212598425000, 1.074803149606299100, -2.632421532232349500E-016 ) ) ;
#142 = DATE_AND_TIME ( #310, #132 ) ;
#143 = CYLINDRICAL_SURFACE ( 'NONE', #26, 1.074803149606299300 ) ;
#144 = DIRECTION ( 'NONE',  ( 0.0000000000000000000, -1.000000000000000000, 0.0000000000000000000 ) ) ;
#145 = EDGE_CURVE ( 'NONE', #260, #260, #71, .T. ) ;
#146 = CARTESIAN_POINT ( 'NONE',  ( -3.720472440944881900, 0.0000000000000000000, -0.8031496062992123900 ) ) ;
#147 = CALENDAR_DATE ( 2015, 4, 12 ) ;
#148 = CONICAL_SURFACE ( 'NONE', #158, 1.074803149606298900, 0.7853981633974377300 ) ;
#149 = CARTESIAN_POINT ( 'NONE',  ( -3.720472440944881900, 0.7027559055118111100, 0.0000000000000000000 ) ) ;
#150 = DIRECTION ( 'NONE',  ( 0.0000000000000000000, -1.000000000000000000, 0.0000000000000000000 ) ) ;
#151 = LOCAL_TIME ( 16, 20, 30.00000000000000000, #313 ) ;
#152 = EDGE_LOOP ( 'NONE', ( #35 ) ) ;
#153 = VERTEX_POINT ( 'NONE', #25 ) ;
#154 = APPROVAL ( #354, 'UNSPECIFIED' ) ;
#155 = PERSON_AND_ORGANIZATION ( #46, #2 ) ;
#156 = CIRCLE ( 'NONE', #110, 1.074803149606298900 ) ;
#157 = CARTESIAN_POINT ( 'NONE',  ( -2.334645669291339300, 4.081546909533325000E-065, 1.605821218386357400E-049 ) ) ;
#158 = AXIS2_PLACEMENT_3D ( 'NONE', #265, #364, #293 ) ;
#159 = DATE_AND_TIME ( #147, #151 ) ;
#160 = FACE_OUTER_BOUND ( 'NONE', #3, .T. ) ;
#161 = CARTESIAN_POINT ( 'NONE',  ( -7.440944881889763900, 0.0000000000000000000, -0.9842519685039370400 ) ) ;
#162 = EDGE_CURVE ( 'NONE', #118, #118, #195, .T. ) ;
#163 = FACE_OUTER_BOUND ( 'NONE', #38, .T. ) ;
#164 = AXIS2_PLACEMENT_3D ( 'NONE', #341, #245, #10 ) ;
#165 = VERTEX_POINT ( 'NONE', #161 ) ;
#166 = PERSON_AND_ORGANIZATION ( #46, #2 ) ;
#167 = DIRECTION ( 'NONE',  ( 0.0000000000000000000, 0.0000000000000000000, -1.000000000000000000 ) ) ;
#168 = DIRECTION ( 'NONE',  ( 0.0000000000000000000, 0.0000000000000000000, -1.000000000000000000 ) ) ;
#169 = CC_DESIGN_APPROVAL ( #154, ( #134 ) ) ;
#170 = CARTESIAN_POINT ( 'NONE',  ( -3.720472440944881900, 1.496062992125984300, 0.0000000000000000000 ) ) ;
#171 = PERSON_AND_ORGANIZATION ( #46, #2 ) ;
#172 = ORIENTED_EDGE ( 'NONE', *, *, #106, .F. ) ;
#173 = CARTESIAN_POINT ( 'NONE',  ( -3.228346456692913400, 3.740157480314960600, -1.205321214392102600E-016 ) ) ;
#174 = CLOSED_SHELL ( 'NONE', ( #333, #296, #175, #37, #210, #298, #62, #366, #176, #232, #67, #91, #119 ) ) ;
#175 = ADVANCED_FACE ( 'NONE', ( #380, #263 ), #74, .T. ) ;
#176 = ADVANCED_FACE ( 'NONE', ( #14, #59 ), #125, .T. ) ;
#177 = CARTESIAN_POINT ( 'NONE',  ( -3.720472440944881900, 3.740157480314960600, -0.9842519685039370400 ) ) ;
#178 = ADVANCED_BREP_SHAPE_REPRESENTATION ( '581245015', ( #289, #11 ), #312 ) ;
#179 = FACE_BOUND ( 'NONE', #343, .T. ) ;
#180 = EDGE_LOOP ( 'NONE', ( #314 ) ) ;
#181 = CARTESIAN_POINT ( 'NONE',  ( -7.440944881889763900, 0.4921259842519685200, -1.205321214392102600E-016 ) ) ;
#182 = DIRECTION ( 'NONE',  ( 1.000000000000000000, -0.0000000000000000000, -0.0000000000000000000 ) ) ;
#183 = LOCAL_TIME ( 16, 20, 30.00000000000000000, #283 ) ;
#184 = EDGE_CURVE ( 'NONE', #165, #165, #98, .T. ) ;
#185 = LOCAL_TIME ( 16, 20, 30.00000000000000000, #284 ) ;
#186 = DIRECTION ( 'NONE',  ( 0.0000000000000000000, 1.000000000000000000, 0.0000000000000000000 ) ) ;
#187 = ORIENTED_EDGE ( 'NONE', *, *, #184, .F. ) ;
#188 = ORIENTED_EDGE ( 'NONE', *, *, #32, .T. ) ;
#189 = DIRECTION ( 'NONE',  ( 0.0000000000000000000, 0.0000000000000000000, -1.000000000000000000 ) ) ;
#190 = EDGE_LOOP ( 'NONE', ( #30 ) ) ;
#191 = DIRECTION ( 'NONE',  ( 1.000000000000000000, 0.0000000000000000000, 0.0000000000000000000 ) ) ;
#192 = EDGE_LOOP ( 'NONE', ( #344 ) ) ;
#193 = EDGE_CURVE ( 'NONE', #105, #105, #254, .T. ) ;
#194 = CC_DESIGN_PERSON_AND_ORGANIZATION_ASSIGNMENT ( #171, #303, ( #134 ) ) ;
#195 = CIRCLE ( 'NONE', #222, 0.9842519685039370400 ) ;
#196 = EDGE_LOOP ( 'NONE', ( #206 ) ) ;
#197 =( BOUNDED_CURVE ( )  B_SPLINE_CURVE ( 3, ( #104, #300, #115, #1 ),
 .UNSPECIFIED., .F., .T. ) 
 B_SPLINE_CURVE_WITH_KNOTS ( ( 4, 4 ),
 ( 1.570796326794896800, 4.712388980384689700 ),
 .UNSPECIFIED. ) 
 CURVE ( )  GEOMETRIC_REPRESENTATION_ITEM ( )  RATIONAL_B_SPLINE_CURVE ( ( 1.000000000000000000, 0.3333333333333333700, 0.3333333333333333700, 1.000000000000000000 ) ) 
 REPRESENTATION_ITEM ( '' )  );
#198 = CALENDAR_DATE ( 2015, 4, 12 ) ;
#199 = AXIS2_PLACEMENT_3D ( 'NONE', #277, #182, #316 ) ;
#200 = CARTESIAN_POINT ( 'NONE',  ( -7.440944881889763900, 0.0000000000000000000, -0.8031496062992125000 ) ) ;
#201 = ORIENTED_EDGE ( 'NONE', *, *, #32, .F. ) ;
#202 = DIRECTION ( 'NONE',  ( 0.0000000000000000000, 1.000000000000000000, 0.0000000000000000000 ) ) ;
#203 = CARTESIAN_POINT ( 'NONE',  ( -6.318897637795275900, 0.0000000000000000000, 0.0000000000000000000 ) ) ;
#204 = DIRECTION ( 'NONE',  ( -1.000000000000000000, 0.0000000000000000000, 0.0000000000000000000 ) ) ;
#205 = FACE_BOUND ( 'NONE', #180, .T. ) ;
#206 = ORIENTED_EDGE ( 'NONE', *, *, #262, .F. ) ;
#207 = DESIGN_CONTEXT ( 'detailed design', #281, 'design' ) ;
#208 = DIRECTION ( 'NONE',  ( 0.0000000000000000000, -0.0000000000000000000, 1.000000000000000000 ) ) ;
#209 = DIRECTION ( 'NONE',  ( 0.0000000000000000000, 0.0000000000000000000, 1.000000000000000000 ) ) ;
#210 = ADVANCED_FACE ( 'NONE', ( #213, #214 ), #94, .T. ) ;
#211 = AXIS2_PLACEMENT_3D ( 'NONE', #373, #83, #19 ) ;
#212 = CARTESIAN_POINT ( 'NONE',  ( 0.0000000000000000000, 0.4921259842519685200, -1.205321214392102600E-016 ) ) ;
#213 = FACE_OUTER_BOUND ( 'NONE', #291, .T. ) ;
#214 = FACE_OUTER_BOUND ( 'NONE', #126, .T. ) ;
#215 =( BOUNDED_CURVE ( )  B_SPLINE_CURVE ( 3, ( #276, #272, #120, #369 ),
 .UNSPECIFIED., .F., .T. ) 
 B_SPLINE_CURVE_WITH_KNOTS ( ( 4, 4 ),
 ( 1.570796326794896600, 4.712388980384689700 ),
 .UNSPECIFIED. ) 
 CURVE ( )  GEOMETRIC_REPRESENTATION_ITEM ( )  RATIONAL_B_SPLINE_CURVE ( ( 1.000000000000000000, 0.3333333333333333700, 0.3333333333333333700, 1.000000000000000000 ) ) 
 REPRESENTATION_ITEM ( '' )  );
#216 = DIRECTION ( 'NONE',  ( 1.000000000000000000, 0.0000000000000000000, -2.449212707644949300E-016 ) ) ;
#217 = CC_DESIGN_PERSON_AND_ORGANIZATION_ASSIGNMENT ( #21, #370, ( #134 ) ) ;
#218 = ORIENTED_EDGE ( 'NONE', *, *, #355, .T. ) ;
#219 = DIRECTION ( 'NONE',  ( 0.0000000000000000000, 0.0000000000000000000, 1.000000000000000000 ) ) ;
#220 = AXIS2_PLACEMENT_3D ( 'NONE', #203, #191, #68 ) ;
#221 = DIRECTION ( 'NONE',  ( 0.0000000000000000000, 0.0000000000000000000, -1.000000000000000000 ) ) ;
#222 = AXIS2_PLACEMENT_3D ( 'NONE', #328, #345, #241 ) ;
#223 = ORIENTED_EDGE ( 'NONE', *, *, #73, .T. ) ;
#224 = VERTEX_POINT ( 'NONE', #54 ) ;
#225 = AXIS2_PLACEMENT_3D ( 'NONE', #181, #204, #209 ) ;
#226 = ORIENTED_EDGE ( 'NONE', *, *, #124, .F. ) ;
#227 = DIRECTION ( 'NONE',  ( 1.000000000000000000, 0.0000000000000000000, 0.0000000000000000000 ) ) ;
#228 = DIRECTION ( 'NONE',  ( -1.000000000000000000, -3.230168700081910400E-032, -1.270859689360298900E-016 ) ) ;
#229 = EDGE_CURVE ( 'NONE', #243, #109, #197, .T. ) ;
#230 = CARTESIAN_POINT ( 'NONE',  ( -3.720472440944881900, 1.405511811023621500, 0.0000000000000000000 ) ) ;
#231 = SECURITY_CLASSIFICATION ( '', '', #342 ) ;
#232 = ADVANCED_FACE ( 'NONE', ( #242, #301 ), #16, .T. ) ;
#233 = CARTESIAN_POINT ( 'NONE',  ( -3.720472440944881900, 0.0000000000000000000, -1.074803149606299100 ) ) ;
#234 = CARTESIAN_POINT ( 'NONE',  ( -3.720472440944881900, 3.740157480314960600, 0.0000000000000000000 ) ) ;
#235 = ORIENTED_EDGE ( 'NONE', *, *, #184, .T. ) ;
#236 = CYLINDRICAL_SURFACE ( 'NONE', #282, 1.074803149606299300 ) ;
#237 = CARTESIAN_POINT ( 'NONE',  ( -5.196850393700787900, 0.0000000000000000000, 0.0000000000000000000 ) ) ;
#238 = PERSON_AND_ORGANIZATION_ROLE ( 'design_owner' ) ;
#239 = DIMENSIONAL_EXPONENTS ( 1.000000000000000000, 0.0000000000000000000, 0.0000000000000000000, 0.0000000000000000000, 0.0000000000000000000, 0.0000000000000000000, 0.0000000000000000000 ) ;
#240 = CARTESIAN_POINT ( 'NONE',  ( -3.720472440944881900, 4.917872972953937700E-017, 0.8031496062992123900 ) ) ;
#241 = DIRECTION ( 'NONE',  ( 0.0000000000000000000, 0.0000000000000000000, -1.000000000000000000 ) ) ;
#242 = FACE_OUTER_BOUND ( 'NONE', #51, .T. ) ;
#243 = VERTEX_POINT ( 'NONE', #33 ) ;
#244 = DIRECTION ( 'NONE',  ( -0.0000000000000000000, -1.000000000000000000, -0.0000000000000000000 ) ) ;
#245 = DIRECTION ( 'NONE',  ( 1.000000000000000000, 0.0000000000000000000, 0.0000000000000000000 ) ) ;
#246 = EDGE_LOOP ( 'NONE', ( #24 ) ) ;
#247 = EDGE_LOOP ( 'NONE', ( #89 ) ) ;
#248 = EDGE_CURVE ( 'NONE', #332, #332, #249, .T. ) ;
#249 = CIRCLE ( 'NONE', #267, 0.9842519685039370400 ) ;
#250 = FACE_OUTER_BOUND ( 'NONE', #60, .T. ) ;
#251 = DIRECTION ( 'NONE',  ( -1.000000000000000000, -0.0000000000000000000, -0.0000000000000000000 ) ) ;
#252 = AXIS2_PLACEMENT_3D ( 'NONE', #323, #138, #48 ) ;
#253 = APPROVAL_ROLE ( '' ) ;
#254 = CIRCLE ( 'NONE', #324, 0.8031496062992125000 ) ;
#255 = DATE_TIME_ROLE ( 'creation_date' ) ;
#256 = EDGE_LOOP ( 'NONE', ( #331 ) ) ;
#257 = EDGE_CURVE ( 'NONE', #347, #347, #29, .T. ) ;
#258 = DIRECTION ( 'NONE',  ( 0.0000000000000000000, 1.000000000000000000, 0.0000000000000000000 ) ) ;
#259 = FACE_OUTER_BOUND ( 'NONE', #66, .T. ) ;
#260 = VERTEX_POINT ( 'NONE', #141 ) ;
#261 = DIRECTION ( 'NONE',  ( -1.000000000000000000, -0.0000000000000000000, -0.0000000000000000000 ) ) ;
#262 = EDGE_CURVE ( 'NONE', #376, #376, #349, .T. ) ;
#263 = FACE_BOUND ( 'NONE', #363, .T. ) ;
#264 = ORIENTED_EDGE ( 'NONE', *, *, #73, .F. ) ;
#265 = CARTESIAN_POINT ( 'NONE',  ( -3.720472440944881900, 1.405511811023621500, 0.0000000000000000000 ) ) ;
#266 = CARTESIAN_POINT ( 'NONE',  ( 0.0000000000000000000, 0.0000000000000000000, 0.0000000000000000000 ) ) ;
#267 = AXIS2_PLACEMENT_3D ( 'NONE', #234, #202, #189 ) ;
#268 = CARTESIAN_POINT ( 'NONE',  ( -3.720472440944881900, 0.0000000000000000000, 0.0000000000000000000 ) ) ;
#269 = CARTESIAN_POINT ( 'NONE',  ( -5.106299212598425000, 0.0000000000000000000, 0.0000000000000000000 ) ) ;
#270 = FACE_OUTER_BOUND ( 'NONE', #122, .T. ) ;
#271 = DIRECTION ( 'NONE',  ( 0.0000000000000000000, 0.0000000000000000000, -1.000000000000000000 ) ) ;
#272 = CARTESIAN_POINT ( 'NONE',  ( -2.114173228346457800, 1.606299212598424600, -0.8031496062992126200 ) ) ;
#273 = VERTEX_POINT ( 'NONE', #36 ) ;
#274 = AXIS2_PLACEMENT_3D ( 'NONE', #108, #22, #100 ) ;
#275 = VERTEX_POINT ( 'NONE', #319 ) ;
#276 = CARTESIAN_POINT ( 'NONE',  ( -3.720472440944881900, 0.0000000000000000000, -0.8031496062992123900 ) ) ;
#277 = CARTESIAN_POINT ( 'NONE',  ( -2.334645669291339300, 0.0000000000000000000, 0.0000000000000000000 ) ) ;
#278 = PERSON_AND_ORGANIZATION ( #46, #2 ) ;
#279 = CALENDAR_DATE ( 2015, 4, 12 ) ;
#280 = FACE_OUTER_BOUND ( 'NONE', #135, .T. ) ;
#281 = APPLICATION_CONTEXT ( 'configuration controlled 3d designs of mechanical parts and assemblies' ) ;
#282 = AXIS2_PLACEMENT_3D ( 'NONE', #61, #327, #334 ) ;
#283 = COORDINATED_UNIVERSAL_TIME_OFFSET ( 5, 0, .BEHIND. ) ;
#284 = COORDINATED_UNIVERSAL_TIME_OFFSET ( 5, 0, .BEHIND. ) ;
#285 = EDGE_LOOP ( 'NONE', ( #201, #378 ) ) ;
#286 = FACE_BOUND ( 'NONE', #297, .T. ) ;
#287 = CARTESIAN_POINT ( 'NONE',  ( -1.570866141732284200, 2.149606299212598200, -1.074803149606299100 ) ) ;
#288 = AXIS2_PLACEMENT_3D ( 'NONE', #31, #57, #221 ) ;
#289 = MANIFOLD_SOLID_BREP ( '1', #174 ) ;
#290 = AXIS2_PLACEMENT_3D ( 'NONE', #381, #27, #111 ) ;
#291 = EDGE_LOOP ( 'NONE', ( #187 ) ) ;
#292 = AXIS2_PLACEMENT_3D ( 'NONE', #237, #367, #271 ) ;
#293 = DIRECTION ( 'NONE',  ( 0.0000000000000000000, 0.0000000000000000000, -1.000000000000000000 ) ) ;
#294 = FACE_OUTER_BOUND ( 'NONE', #247, .T. ) ;
#295 = DIRECTION ( 'NONE',  ( 0.0000000000000000000, 0.0000000000000000000, -1.000000000000000000 ) ) ;
#296 = ADVANCED_FACE ( 'NONE', ( #371, #205 ), #40, .T. ) ;
#297 = EDGE_LOOP ( 'NONE', ( #306, #218 ) ) ;
#298 = ADVANCED_FACE ( 'NONE', ( #259, #356 ), #368, .T. ) ;
#299 = DIRECTION ( 'NONE',  ( 0.0000000000000000000, 1.000000000000000000, 0.0000000000000000000 ) ) ;
#300 = CARTESIAN_POINT ( 'NONE',  ( -5.870078740157479700, 2.149606299212598200, 1.074803149606298600 ) ) ;
#301 = FACE_OUTER_BOUND ( 'NONE', #190, .T. ) ;
#302 = CONICAL_SURFACE ( 'NONE', #211, 1.074803149606299100, 0.7853981633974407300 ) ;
#303 = PERSON_AND_ORGANIZATION_ROLE ( 'creator' ) ;
#304 = CARTESIAN_POINT ( 'NONE',  ( 0.0000000000000000000, 0.0000000000000000000, -0.9842519685039370400 ) ) ;
#305 = AXIS2_PLACEMENT_3D ( 'NONE', #362, #139, #168 ) ;
#306 = ORIENTED_EDGE ( 'NONE', *, *, #229, .T. ) ;
#307 = DIRECTION ( 'NONE',  ( 0.0000000000000000000, 0.0000000000000000000, -1.000000000000000000 ) ) ;
#308 = MECHANICAL_CONTEXT ( 'NONE', #375, 'mechanical' ) ;
#309 =( LENGTH_UNIT ( ) NAMED_UNIT ( * ) SI_UNIT ( $, .METRE. ) );
#310 = CALENDAR_DATE ( 2015, 4, 12 ) ;
#311 = ORIENTED_EDGE ( 'NONE', *, *, #257, .F. ) ;
#312 =( GEOMETRIC_REPRESENTATION_CONTEXT ( 3 ) GLOBAL_UNCERTAINTY_ASSIGNED_CONTEXT ( ( #97 ) ) GLOBAL_UNIT_ASSIGNED_CONTEXT ( ( #64, #326, #56 ) ) REPRESENTATION_CONTEXT ( 'NONE', 'WORKASPACE' ) );
#313 = COORDINATED_UNIVERSAL_TIME_OFFSET ( 5, 0, .BEHIND. ) ;
#314 = ORIENTED_EDGE ( 'NONE', *, *, #106, .T. ) ;
#315 = EDGE_LOOP ( 'NONE', ( #311 ) ) ;
#316 = DIRECTION ( 'NONE',  ( 0.0000000000000000000, 1.000000000000000000, -2.449212707644749600E-016 ) ) ;
#317 = PERSON_AND_ORGANIZATION_ROLE ( 'classification_officer' ) ;
#318 =( BOUNDED_CURVE ( )  B_SPLINE_CURVE ( 3, ( #123, #70, #63, #146 ),
 .UNSPECIFIED., .F., .T. ) 
 B_SPLINE_CURVE_WITH_KNOTS ( ( 4, 4 ),
 ( 1.570796326794896600, 4.712388980384689700 ),
 .UNSPECIFIED. ) 
 CURVE ( )  GEOMETRIC_REPRESENTATION_ITEM ( )  RATIONAL_B_SPLINE_CURVE ( ( 1.000000000000000000, 0.3333333333333333700, 0.3333333333333333700, 1.000000000000000000 ) ) 
 REPRESENTATION_ITEM ( '' )  );
#319 = CARTESIAN_POINT ( 'NONE',  ( -5.196850393700787900, 0.0000000000000000000, -0.9842519685039370400 ) ) ;
#320 = APPROVAL_PERSON_ORGANIZATION ( #155, #47, #42 ) ;
#321 = FACE_BOUND ( 'NONE', #99, .T. ) ;
#322 = ORIENTED_EDGE ( 'NONE', *, *, #229, .F. ) ;
#323 = CARTESIAN_POINT ( 'NONE',  ( -1.122047244094488200, 0.0000000000000000000, 0.0000000000000000000 ) ) ;
#324 = AXIS2_PLACEMENT_3D ( 'NONE', #75, #251, #307 ) ;
#325 = DIRECTION ( 'NONE',  ( 0.0000000000000000000, 0.0000000000000000000, -1.000000000000000000 ) ) ;
#326 =( NAMED_UNIT ( * ) PLANE_ANGLE_UNIT ( ) SI_UNIT ( $, .RADIAN. ) );
#327 = DIRECTION ( 'NONE',  ( 1.000000000000000000, 0.0000000000000000000, 0.0000000000000000000 ) ) ;
#328 = CARTESIAN_POINT ( 'NONE',  ( -2.244094488188976400, 0.0000000000000000000, 0.0000000000000000000 ) ) ;
#329 = CALENDAR_DATE ( 2015, 4, 12 ) ;
#330 = AXIS2_PLACEMENT_3D ( 'NONE', #268, #144, #325 ) ;
#331 = ORIENTED_EDGE ( 'NONE', *, *, #140, .F. ) ;
#332 = VERTEX_POINT ( 'NONE', #177 ) ;
#333 = ADVANCED_FACE ( 'NONE', ( #45, #270, #160 ), #84, .F. ) ;
#334 = DIRECTION ( 'NONE',  ( 0.0000000000000000000, 0.0000000000000000000, -1.000000000000000000 ) ) ;
#335 = DATE_TIME_ROLE ( 'classification_date' ) ;
#336 = DIRECTION ( 'NONE',  ( 0.0000000000000000000, 0.0000000000000000000, -1.000000000000000000 ) ) ;
#337 = ORIENTED_EDGE ( 'NONE', *, *, #162, .T. ) ;
#338 = CARTESIAN_POINT ( 'NONE',  ( -3.720472440944881900, 0.0000000000000000000, 1.074803149606299100 ) ) ;
#339 = CIRCLE ( 'NONE', #87, 0.8031496062992125000 ) ;
#340 = PERSON_AND_ORGANIZATION_ROLE ( 'creator' ) ;
#341 = CARTESIAN_POINT ( 'NONE',  ( 0.0000000000000000000, 0.0000000000000000000, 0.0000000000000000000 ) ) ;
#342 = SECURITY_CLASSIFICATION_LEVEL ( 'unclassified' ) ;
#343 = EDGE_LOOP ( 'NONE', ( #264 ) ) ;
#344 = ORIENTED_EDGE ( 'NONE', *, *, #262, .T. ) ;
#345 = DIRECTION ( 'NONE',  ( 1.000000000000000000, 0.0000000000000000000, 0.0000000000000000000 ) ) ;
#346 = DIRECTION ( 'NONE',  ( 1.000000000000000000, 0.0000000000000000000, 0.0000000000000000000 ) ) ;
#347 = VERTEX_POINT ( 'NONE', #360 ) ;
#348 = APPROVAL_DATE_TIME ( #359, #154 ) ;
#349 = CIRCLE ( 'NONE', #164, 0.9842519685039370400 ) ;
#350 = ORIENTED_EDGE ( 'NONE', *, *, #193, .T. ) ;
#351 = APPROVAL_DATE_TIME ( #77, #18 ) ;
#352 = EDGE_LOOP ( 'NONE', ( #226 ) ) ;
#353 = ORIENTED_EDGE ( 'NONE', *, *, #140, .T. ) ;
#354 = APPROVAL_STATUS ( 'not_yet_approved' ) ;
#355 = EDGE_CURVE ( 'NONE', #109, #243, #113, .T. ) ;
#356 = FACE_OUTER_BOUND ( 'NONE', #196, .T. ) ;
#357 = APPROVAL_STATUS ( 'not_yet_approved' ) ;
#358 = CARTESIAN_POINT ( 'NONE',  ( -1.570866141732284200, 2.149606299212598200, 1.074803149606298600 ) ) ;
#359 = DATE_AND_TIME ( #198, #185 ) ;
#360 = CARTESIAN_POINT ( 'NONE',  ( -2.334645669291339300, 1.074803149606298900, -2.632421532232348000E-016 ) ) ;
#361 = FACE_BOUND ( 'NONE', #4, .T. ) ;
#362 = CARTESIAN_POINT ( 'NONE',  ( -7.440944881889763900, 0.0000000000000000000, 0.0000000000000000000 ) ) ;
#363 = EDGE_LOOP ( 'NONE', ( #350 ) ) ;
#364 = DIRECTION ( 'NONE',  ( 0.0000000000000000000, -1.000000000000000000, 0.0000000000000000000 ) ) ;
#365 = APPLICATION_PROTOCOL_DEFINITION ( 'international standard', 'config_control_design', 1994, #281 ) ;
#366 = ADVANCED_FACE ( 'NONE', ( #179, #294 ), #302, .T. ) ;
#367 = DIRECTION ( 'NONE',  ( -1.000000000000000000, -0.0000000000000000000, -0.0000000000000000000 ) ) ;
#368 = CYLINDRICAL_SURFACE ( 'NONE', #252, 0.9842519685039370400 ) ;
#369 = CARTESIAN_POINT ( 'NONE',  ( -3.720472440944881900, 4.917872972953937700E-017, 0.8031496062992123900 ) ) ;
#370 = PERSON_AND_ORGANIZATION_ROLE ( 'design_supplier' ) ;
#371 = FACE_OUTER_BOUND ( 'NONE', #55, .T. ) ;
#372 = ORIENTED_EDGE ( 'NONE', *, *, #86, .T. ) ;
#373 = CARTESIAN_POINT ( 'NONE',  ( -5.106299212598425000, 0.0000000000000000000, 0.0000000000000000000 ) ) ;
#374 = PRODUCT_RELATED_PRODUCT_CATEGORY ( 'detail', '', ( #15 ) ) ;
#375 = APPLICATION_CONTEXT ( 'configuration controlled 3d designs of mechanical parts and assemblies' ) ;
#376 = VERTEX_POINT ( 'NONE', #304 ) ;
#377 = FACE_OUTER_BOUND ( 'NONE', #352, .T. ) ;
#378 = ORIENTED_EDGE ( 'NONE', *, *, #86, .F. ) ;
#379 = APPROVAL_PERSON_ORGANIZATION ( #278, #18, #383 ) ;
#380 = FACE_OUTER_BOUND ( 'NONE', #192, .T. ) ;
#381 = CARTESIAN_POINT ( 'NONE',  ( -3.720472440944881900, 2.618110236220472700, 0.0000000000000000000 ) ) ;
#382 = APPROVAL_STATUS ( 'not_yet_approved' ) ;
#383 = APPROVAL_ROLE ( '' ) ;
#384 = PERSON_AND_ORGANIZATION ( #46, #2 ) ;
#385 = CIRCLE ( 'NONE', #305, 0.8031496062992125000 ) ;
#386 = VERTEX_POINT ( 'NONE', #200 ) ;
ENDSEC;
END-ISO-10303-21;
