ISO-10303-21;
HEADER;
FILE_DESCRIPTION (( 'STEP AP203' ),
    '1' );
FILE_NAME ('581245020.STEP',
    '2015-12-04T21:24:21',
    ( '' ),
    ( '' ),
    'SwSTEP 2.0',
    'SolidWorks 2015',
    '' );
FILE_SCHEMA (( 'CONFIG_CONTROL_DESIGN' ));
ENDSEC;

DATA;
#1 = CYLINDRICAL_SURFACE ( 'NONE', #48, 1.011811023622047200 ) ;
#2 = EDGE_LOOP ( 'NONE', ( #333, #369 ) ) ;
#3 = CC_DESIGN_APPROVAL ( #23, ( #69 ) ) ;
#4 = AXIS2_PLACEMENT_3D ( 'NONE', #251, #112, #347 ) ;
#5 = FACE_OUTER_BOUND ( 'NONE', #288, .T. ) ;
#6 = APPROVAL_STATUS ( 'not_yet_approved' ) ;
#7 = ORIENTED_EDGE ( 'NONE', *, *, #226, .T. ) ;
#8 = AXIS2_PLACEMENT_3D ( 'NONE', #151, #144, #200 ) ;
#9 = APPROVAL_STATUS ( 'not_yet_approved' ) ;
#10 = CARTESIAN_POINT ( 'NONE',  ( -3.055118110236221300, 1.736220472440944500, -3.317043982006575200E-016 ) ) ;
#11 = CYLINDRICAL_SURFACE ( 'NONE', #113, 1.011811023622047200 ) ;
#12 = AXIS2_PLACEMENT_3D ( 'NONE', #142, #339, #208 ) ;
#13 = EDGE_LOOP ( 'NONE', ( #326 ) ) ;
#14 = EDGE_CURVE ( 'NONE', #50, #50, #204, .T. ) ;
#15 = COORDINATED_UNIVERSAL_TIME_OFFSET ( 5, 0, .BEHIND. ) ;
#16 = ORIENTED_EDGE ( 'NONE', *, *, #294, .T. ) ;
#17 = EDGE_CURVE ( 'NONE', #344, #296, #178, .T. ) ;
#18 = ADVANCED_FACE ( 'NONE', ( #46, #134 ), #140, .T. ) ;
#19 = CARTESIAN_POINT ( 'NONE',  ( -2.559055118110236600, 0.0000000000000000000, 0.0000000000000000000 ) ) ;
#20 = AXIS2_PLACEMENT_3D ( 'NONE', #211, #28, #320 ) ;
#21 = ORIENTED_EDGE ( 'NONE', *, *, #190, .F. ) ;
#22 = DIRECTION ( 'NONE',  ( 0.0000000000000000000, 0.0000000000000000000, -1.000000000000000000 ) ) ;
#23 = APPROVAL ( #6, 'UNSPECIFIED' ) ;
#24 = DIRECTION ( 'NONE',  ( 0.0000000000000000000, 0.0000000000000000000, -1.000000000000000000 ) ) ;
#25 = FACE_OUTER_BOUND ( 'NONE', #98, .T. ) ;
#26 = COORDINATED_UNIVERSAL_TIME_OFFSET ( 5, 0, .BEHIND. ) ;
#27 = CALENDAR_DATE ( 2015, 4, 12 ) ;
#28 = DIRECTION ( 'NONE',  ( 0.0000000000000000000, -1.000000000000000000, 0.0000000000000000000 ) ) ;
#29 = EDGE_LOOP ( 'NONE', ( #7, #249 ) ) ;
#30 = DIRECTION ( 'NONE',  ( 0.0000000000000000000, 0.0000000000000000000, -1.000000000000000000 ) ) ;
#31 = CALENDAR_DATE ( 2015, 4, 12 ) ;
#32 = DIRECTION ( 'NONE',  ( -1.000000000000000000, -0.0000000000000000000, 0.0000000000000000000 ) ) ;
#33 =( BOUNDED_CURVE ( )  B_SPLINE_CURVE ( 3, ( #292, #245, #375, #325 ),
 .UNSPECIFIED., .F., .F. ) 
 B_SPLINE_CURVE_WITH_KNOTS ( ( 4, 4 ),
 ( 1.570796326794896800, 4.712388980384689700 ),
 .UNSPECIFIED. ) 
 CURVE ( )  GEOMETRIC_REPRESENTATION_ITEM ( )  RATIONAL_B_SPLINE_CURVE ( ( 1.000000000000000000, 0.3333333333333333700, 0.3333333333333333700, 1.000000000000000000 ) ) 
 REPRESENTATION_ITEM ( '' )  );
#34 = CARTESIAN_POINT ( 'NONE',  ( -2.385826771653544000, 2.023622047244094000, -1.011811023622047200 ) ) ;
#35 = LOCAL_TIME ( 16, 24, 21.00000000000000000, #65 ) ;
#36 = CIRCLE ( 'NONE', #371, 1.240157480314960600 ) ;
#37 = EDGE_LOOP ( 'NONE', ( #120 ) ) ;
#38 = VERTEX_POINT ( 'NONE', #243 ) ;
#39 = DATE_TIME_ROLE ( 'classification_date' ) ;
#40 = APPLICATION_CONTEXT ( 'configuration controlled 3d designs of mechanical parts and assemblies' ) ;
#41 = EDGE_CURVE ( 'NONE', #252, #252, #128, .T. ) ;
#42 = AXIS2_PLACEMENT_3D ( 'NONE', #51, #263, #99 ) ;
#43 = CIRCLE ( 'NONE', #368, 1.354330708661416900 ) ;
#44 = CC_DESIGN_PERSON_AND_ORGANIZATION_ASSIGNMENT ( #207, #280, ( #169 ) ) ;
#45 = FACE_OUTER_BOUND ( 'NONE', #179, .T. ) ;
#46 = FACE_OUTER_BOUND ( 'NONE', #85, .T. ) ;
#47 = ORIENTED_EDGE ( 'NONE', *, *, #130, .T. ) ;
#48 = AXIS2_PLACEMENT_3D ( 'NONE', #93, #277, #90 ) ;
#49 = ADVANCED_FACE ( 'NONE', ( #363, #343 ), #269, .T. ) ;
#50 = VERTEX_POINT ( 'NONE', #199 ) ;
#51 = CARTESIAN_POINT ( 'NONE',  ( -4.409448818897638000, 3.129921259842519900, 0.0000000000000000000 ) ) ;
#52 = EDGE_CURVE ( 'NONE', #115, #115, #114, .T. ) ;
#53 = DIRECTION ( 'NONE',  ( 0.0000000000000000000, 0.0000000000000000000, -1.000000000000000000 ) ) ;
#54 = CALENDAR_DATE ( 2015, 4, 12 ) ;
#55 = DIRECTION ( 'NONE',  ( 1.000000000000000000, 0.0000000000000000000, 0.0000000000000000000 ) ) ;
#56 = ORIENTED_EDGE ( 'NONE', *, *, #300, .F. ) ;
#57 = ORIENTED_EDGE ( 'NONE', *, *, #79, .F. ) ;
#58 = DIRECTION ( 'NONE',  ( 1.000000000000000000, 0.0000000000000000000, 0.0000000000000000000 ) ) ;
#59 = DIRECTION ( 'NONE',  ( 1.000000000000000000, 0.0000000000000000000, 0.0000000000000000000 ) ) ;
#60 = CIRCLE ( 'NONE', #185, 1.240157480314960600 ) ;
#61 = CARTESIAN_POINT ( 'NONE',  ( -2.673228346456693500, 1.354330708661417100, -3.317043982007062300E-016 ) ) ;
#62 = EDGE_CURVE ( 'NONE', #322, #322, #119, .T. ) ;
#63 = CARTESIAN_POINT ( 'NONE',  ( -4.409448818897638000, 0.0000000000000000000, -1.011811023622047200 ) ) ;
#64 = AXIS2_PLACEMENT_3D ( 'NONE', #139, #201, #53 ) ;
#65 = COORDINATED_UNIVERSAL_TIME_OFFSET ( 5, 0, .BEHIND. ) ;
#66 = PLANE ( 'NONE',  #82 ) ;
#67 = EDGE_LOOP ( 'NONE', ( #56 ) ) ;
#68 = DIRECTION ( 'NONE',  ( 0.0000000000000000000, 1.000000000000000000, 0.0000000000000000000 ) ) ;
#69 = SECURITY_CLASSIFICATION ( '', '', #71 ) ;
#70 = CARTESIAN_POINT ( 'NONE',  ( -6.433070866141733300, 2.023622047244094400, -1.011811023622046600 ) ) ;
#71 = SECURITY_CLASSIFICATION_LEVEL ( 'unclassified' ) ;
#72 = APPROVAL_PERSON_ORGANIZATION ( #373, #23, #183 ) ;
#73 = AXIS2_PLACEMENT_3D ( 'NONE', #165, #273, #244 ) ;
#74 = MECHANICAL_CONTEXT ( 'NONE', #102, 'mechanical' ) ;
#75 = ORIENTED_EDGE ( 'NONE', *, *, #91, .T. ) ;
#76 = CARTESIAN_POINT ( 'NONE',  ( -4.409448818897638000, 0.0000000000000000000, -1.354330708661417100 ) ) ;
#77 = EDGE_LOOP ( 'NONE', ( #105 ) ) ;
#78 = ADVANCED_FACE ( 'NONE', ( #237, #187 ), #160, .T. ) ;
#79 = EDGE_CURVE ( 'NONE', #217, #38, #348, .T. ) ;
#80 = ADVANCED_FACE ( 'NONE', ( #298, #45 ), #173, .T. ) ;
#81 = DIRECTION ( 'NONE',  ( 1.000000000000000000, 0.0000000000000000000, 0.0000000000000000000 ) ) ;
#82 = AXIS2_PLACEMENT_3D ( 'NONE', #147, #126, #84 ) ;
#83 = FACE_OUTER_BOUND ( 'NONE', #253, .T. ) ;
#84 = DIRECTION ( 'NONE',  ( 0.0000000000000000000, 0.0000000000000000000, 1.000000000000000000 ) ) ;
#85 = EDGE_LOOP ( 'NONE', ( #193 ) ) ;
#86 = CARTESIAN_POINT ( 'NONE',  ( -1.700787401574804300, 2.708661417322833800, 1.354330708661416500 ) ) ;
#87 = DIRECTION ( 'NONE',  ( 0.0000000000000000000, 0.0000000000000000000, -1.000000000000000000 ) ) ;
#88 = CC_DESIGN_PERSON_AND_ORGANIZATION_ASSIGNMENT ( #108, #255, ( #69 ) ) ;
#89 = FACE_OUTER_BOUND ( 'NONE', #272, .T. ) ;
#90 = DIRECTION ( 'NONE',  ( 0.0000000000000000000, 0.0000000000000000000, -1.000000000000000000 ) ) ;
#91 = EDGE_CURVE ( 'NONE', #282, #282, #60, .T. ) ;
#92 = ORIENTED_EDGE ( 'NONE', *, *, #103, .F. ) ;
#93 = CARTESIAN_POINT ( 'NONE',  ( -4.409448818897638000, 0.0000000000000000000, 0.0000000000000000000 ) ) ;
#94 = CARTESIAN_POINT ( 'NONE',  ( -1.279527559055118300, 0.0000000000000000000, 0.0000000000000000000 ) ) ;
#95 = UNCERTAINTY_MEASURE_WITH_UNIT (LENGTH_MEASURE( 1.000000000000000100E-005 ), #186, 'distance_accuracy_value', 'NONE');
#96 = FACE_OUTER_BOUND ( 'NONE', #153, .T. ) ;
#97 = DIRECTION ( 'NONE',  ( 0.0000000000000000000, 0.0000000000000000000, -1.000000000000000000 ) ) ;
#98 = EDGE_LOOP ( 'NONE', ( #182 ) ) ;
#99 = DIRECTION ( 'NONE',  ( 0.0000000000000000000, 0.0000000000000000000, -1.000000000000000000 ) ) ;
#100 = ORIENTED_EDGE ( 'NONE', *, *, #246, .T. ) ;
#101 = PERSON_AND_ORGANIZATION_ROLE ( 'creator' ) ;
#102 = APPLICATION_CONTEXT ( 'configuration controlled 3d designs of mechanical parts and assemblies' ) ;
#103 = EDGE_CURVE ( 'NONE', #38, #217, #224, .T. ) ;
#104 = FACE_OUTER_BOUND ( 'NONE', #305, .T. ) ;
#105 = ORIENTED_EDGE ( 'NONE', *, *, #228, .T. ) ;
#106 = CC_DESIGN_DATE_AND_TIME_ASSIGNMENT ( #286, #39, ( #69 ) ) ;
#107 = FACE_OUTER_BOUND ( 'NONE', #254, .T. ) ;
#108 = PERSON_AND_ORGANIZATION ( #382, #367 ) ;
#109 = DIMENSIONAL_EXPONENTS ( 1.000000000000000000, 0.0000000000000000000, 0.0000000000000000000, 0.0000000000000000000, 0.0000000000000000000, 0.0000000000000000000, 0.0000000000000000000 ) ;
#110 = EDGE_LOOP ( 'NONE', ( #216 ) ) ;
#111 = PRODUCT_DEFINITION_SHAPE ( 'NONE', 'NONE',  #315 ) ;
#112 = DIRECTION ( 'NONE',  ( 0.0000000000000000000, 1.000000000000000000, 0.0000000000000000000 ) ) ;
#113 = AXIS2_PLACEMENT_3D ( 'NONE', #167, #121, #274 ) ;
#114 = CIRCLE ( 'NONE', #4, 1.240157480314960600 ) ;
#115 = VERTEX_POINT ( 'NONE', #196 ) ;
#116 = EDGE_CURVE ( 'NONE', #247, #247, #36, .T. ) ;
#117 = CARTESIAN_POINT ( 'NONE',  ( -4.409448818897638000, 0.0000000000000000000, 1.354330708661417100 ) ) ;
#118 = PERSON_AND_ORGANIZATION ( #382, #367 ) ;
#119 = CIRCLE ( 'NONE', #340, 1.240157480314960600 ) ;
#120 = ORIENTED_EDGE ( 'NONE', *, *, #52, .F. ) ;
#121 = DIRECTION ( 'NONE',  ( 1.000000000000000000, 0.0000000000000000000, 0.0000000000000000000 ) ) ;
#122 = APPROVAL_DATE_TIME ( #213, #330 ) ;
#123 = CIRCLE ( 'NONE', #385, 1.240157480314960600 ) ;
#124 = CARTESIAN_POINT ( 'NONE',  ( -4.409448818897638000, 6.195555657103736000E-017, 1.011811023622047200 ) ) ;
#125 = DIRECTION ( 'NONE',  ( 1.000000000000000000, 0.0000000000000000000, 0.0000000000000000000 ) ) ;
#126 = DIRECTION ( 'NONE',  ( -1.000000000000000000, 0.0000000000000000000, 0.0000000000000000000 ) ) ;
#127 = FACE_OUTER_BOUND ( 'NONE', #295, .T. ) ;
#128 = CIRCLE ( 'NONE', #156, 1.354330708661417100 ) ;
#129 = ORIENTED_EDGE ( 'NONE', *, *, #300, .T. ) ;
#130 = EDGE_CURVE ( 'NONE', #161, #161, #341, .T. ) ;
#131 = APPLICATION_PROTOCOL_DEFINITION ( 'international standard', 'config_control_design', 1994, #102 ) ;
#132 = CARTESIAN_POINT ( 'NONE',  ( -4.409448818897638000, 4.409448818897638000, -1.011811023622047200 ) ) ;
#133 = LOCAL_TIME ( 16, 24, 21.00000000000000000, #293 ) ;
#134 = FACE_OUTER_BOUND ( 'NONE', #77, .T. ) ;
#135 = ORIENTED_EDGE ( 'NONE', *, *, #294, .F. ) ;
#136 = ADVANCED_FACE ( 'NONE', ( #5, #180 ), #1, .F. ) ;
#137 = CARTESIAN_POINT ( 'NONE',  ( -1.700787401574804300, 2.708661417322833800, -1.354330708661417400 ) ) ;
#138 = DIRECTION ( 'NONE',  ( 0.0000000000000000000, 1.000000000000000000, -2.449212707644750100E-016 ) ) ;
#139 = CARTESIAN_POINT ( 'NONE',  ( -6.259842519685039800, 0.0000000000000000000, 0.0000000000000000000 ) ) ;
#140 = CYLINDRICAL_SURFACE ( 'NONE', #197, 1.240157480314960600 ) ;
#141 = ORIENTED_EDGE ( 'NONE', *, *, #14, .T. ) ;
#142 = CARTESIAN_POINT ( 'NONE',  ( -6.145669291338582400, 0.0000000000000000000, 0.0000000000000000000 ) ) ;
#143 = CARTESIAN_POINT ( 'NONE',  ( -4.409448818897638000, 4.409448818897638000, -1.240157480314960600 ) ) ;
#144 = DIRECTION ( 'NONE',  ( 1.000000000000000000, 0.0000000000000000000, 0.0000000000000000000 ) ) ;
#145 = CARTESIAN_POINT ( 'NONE',  ( -4.409448818897638000, 0.8681102362204724500, 0.0000000000000000000 ) ) ;
#146 = CC_DESIGN_PERSON_AND_ORGANIZATION_ASSIGNMENT ( #352, #256, ( #242 ) ) ;
#147 = CARTESIAN_POINT ( 'NONE',  ( -8.818897637795275900, 0.6200787401574803200, -1.518704730134051300E-016 ) ) ;
#148 = AXIS2_PLACEMENT_3D ( 'NONE', #172, #81, #87 ) ;
#149 = CC_DESIGN_PERSON_AND_ORGANIZATION_ASSIGNMENT ( #118, #101, ( #169 ) ) ;
#150 = EDGE_LOOP ( 'NONE', ( #159 ) ) ;
#151 = CARTESIAN_POINT ( 'NONE',  ( -8.818897637795275900, 0.0000000000000000000, 0.0000000000000000000 ) ) ;
#152 = PERSON_AND_ORGANIZATION ( #382, #367 ) ;
#153 = EDGE_LOOP ( 'NONE', ( #259 ) ) ;
#154 = DATE_TIME_ROLE ( 'creation_date' ) ;
#155 =( NAMED_UNIT ( * ) SI_UNIT ( $, .STERADIAN. ) SOLID_ANGLE_UNIT ( ) );
#156 = AXIS2_PLACEMENT_3D ( 'NONE', #258, #191, #238 ) ;
#157 = CARTESIAN_POINT ( 'NONE',  ( -6.145669291338582400, 1.354330708661418200, -3.317043982007065300E-016 ) ) ;
#158 = AXIS2_PLACEMENT_3D ( 'NONE', #177, #284, #281 ) ;
#159 = ORIENTED_EDGE ( 'NONE', *, *, #62, .T. ) ;
#160 = CONICAL_SURFACE ( 'NONE', #12, 1.354330708661418500, 0.7853981633974459500 ) ;
#161 = VERTEX_POINT ( 'NONE', #227 ) ;
#162 = EDGE_LOOP ( 'NONE', ( #57, #92 ) ) ;
#163 = ADVANCED_FACE ( 'NONE', ( #104, #291 ), #297, .T. ) ;
#164 = DIRECTION ( 'NONE',  ( 1.000000000000000000, 0.0000000000000000000, 0.0000000000000000000 ) ) ;
#165 = CARTESIAN_POINT ( 'NONE',  ( -3.789370078740157900, 4.409448818897638000, -1.518704730134051300E-016 ) ) ;
#166 = CIRCLE ( 'NONE', #306, 1.354330708661418200 ) ;
#167 = CARTESIAN_POINT ( 'NONE',  ( 0.03937007874015748000, 0.0000000000000000000, 0.0000000000000000000 ) ) ;
#168 = EDGE_LOOP ( 'NONE', ( #21 ) ) ;
#169 = PRODUCT_DEFINITION_FORMATION_WITH_SPECIFIED_SOURCE ( 'ANY', '', #242, .NOT_KNOWN. ) ;
#170 = DIRECTION ( 'NONE',  ( 0.0000000000000000000, 0.0000000000000000000, -1.000000000000000000 ) ) ;
#171 = VERTEX_POINT ( 'NONE', #10 ) ;
#172 = CARTESIAN_POINT ( 'NONE',  ( -4.409448818897638000, 0.0000000000000000000, 0.0000000000000000000 ) ) ;
#173 = CYLINDRICAL_SURFACE ( 'NONE', #265, 1.240157480314960600 ) ;
#174 = EDGE_LOOP ( 'NONE', ( #129 ) ) ;
#175 = CARTESIAN_POINT ( 'NONE',  ( -2.559055118110236600, 0.0000000000000000000, -1.240157480314960600 ) ) ;
#176 = CARTESIAN_POINT ( 'NONE',  ( -2.385826771653544000, 2.023622047244094400, 1.011811023622046600 ) ) ;
#177 = CARTESIAN_POINT ( 'NONE',  ( 0.0000000000000000000, 0.0000000000000000000, 0.0000000000000000000 ) ) ;
#178 =( BOUNDED_CURVE ( )  B_SPLINE_CURVE ( 3, ( #76, #137, #86, #362 ),
 .UNSPECIFIED., .F., .T. ) 
 B_SPLINE_CURVE_WITH_KNOTS ( ( 4, 4 ),
 ( 1.570796326794896600, 4.712388980384689700 ),
 .UNSPECIFIED. ) 
 CURVE ( )  GEOMETRIC_REPRESENTATION_ITEM ( )  RATIONAL_B_SPLINE_CURVE ( ( 1.000000000000000000, 0.3333333333333333700, 0.3333333333333333700, 1.000000000000000000 ) ) 
 REPRESENTATION_ITEM ( '' )  );
#179 = EDGE_LOOP ( 'NONE', ( #232 ) ) ;
#180 = FACE_OUTER_BOUND ( 'NONE', #67, .T. ) ;
#181 = LOCAL_TIME ( 16, 24, 21.00000000000000000, #15 ) ;
#182 = ORIENTED_EDGE ( 'NONE', *, *, #41, .T. ) ;
#183 = APPROVAL_ROLE ( '' ) ;
#184 = APPROVAL_ROLE ( '' ) ;
#185 = AXIS2_PLACEMENT_3D ( 'NONE', #353, #164, #312 ) ;
#186 =( CONVERSION_BASED_UNIT ( 'INCH', #380 ) LENGTH_UNIT ( ) NAMED_UNIT ( #109 ) );
#187 = FACE_OUTER_BOUND ( 'NONE', #355, .T. ) ;
#188 = CARTESIAN_POINT ( 'NONE',  ( -6.259842519685039800, 0.0000000000000000000, -1.240157480314960600 ) ) ;
#189 = CARTESIAN_POINT ( 'NONE',  ( -7.539370078740157400, 0.0000000000000000000, 0.0000000000000000000 ) ) ;
#190 = EDGE_CURVE ( 'NONE', #171, #171, #43, .T. ) ;
#191 = DIRECTION ( 'NONE',  ( 1.000000000000000000, -0.0000000000000000000, -0.0000000000000000000 ) ) ;
#192 = FACE_OUTER_BOUND ( 'NONE', #311, .T. ) ;
#193 = ORIENTED_EDGE ( 'NONE', *, *, #246, .F. ) ;
#194 = DIRECTION ( 'NONE',  ( 0.0000000000000000000, 0.0000000000000000000, -1.000000000000000000 ) ) ;
#195 = ADVANCED_FACE ( 'NONE', ( #203, #107, #299 ), #11, .F. ) ;
#196 = CARTESIAN_POINT ( 'NONE',  ( -4.409448818897638000, 1.850393700787401600, -1.240157480314960600 ) ) ;
#197 = AXIS2_PLACEMENT_3D ( 'NONE', #189, #125, #194 ) ;
#198 = FACE_OUTER_BOUND ( 'NONE', #110, .T. ) ;
#199 = CARTESIAN_POINT ( 'NONE',  ( 0.0000000000000000000, 0.0000000000000000000, -1.011811023622047200 ) ) ;
#200 = DIRECTION ( 'NONE',  ( 0.0000000000000000000, 0.0000000000000000000, -1.000000000000000000 ) ) ;
#201 = DIRECTION ( 'NONE',  ( -1.000000000000000000, -0.0000000000000000000, -0.0000000000000000000 ) ) ;
#202 = APPROVAL_PERSON_ORGANIZATION ( #285, #330, #184 ) ;
#203 = FACE_BOUND ( 'NONE', #162, .T. ) ;
#204 = CIRCLE ( 'NONE', #384, 1.011811023622047200 ) ;
#205 = DIRECTION ( 'NONE',  ( 1.000000000000000000, 0.0000000000000000000, -2.449212707644390700E-016 ) ) ;
#206 = ORIENTED_EDGE ( 'NONE', *, *, #130, .F. ) ;
#207 = PERSON_AND_ORGANIZATION ( #382, #367 ) ;
#208 = DIRECTION ( 'NONE',  ( 0.0000000000000000000, 0.0000000000000000000, -1.000000000000000000 ) ) ;
#209 = VERTEX_POINT ( 'NONE', #157 ) ;
#210 = AXIS2_PLACEMENT_3D ( 'NONE', #276, #55, #337 ) ;
#211 = CARTESIAN_POINT ( 'NONE',  ( -4.409448818897638000, 4.409448818897638000, 0.0000000000000000000 ) ) ;
#212 = CC_DESIGN_DATE_AND_TIME_ASSIGNMENT ( #268, #154, ( #315 ) ) ;
#213 = DATE_AND_TIME ( #27, #35 ) ;
#214 = SHAPE_DEFINITION_REPRESENTATION ( #111, #329 ) ;
#215 = CARTESIAN_POINT ( 'NONE',  ( -4.409448818897638000, 0.0000000000000000000, -1.011811023622047200 ) ) ;
#216 = ORIENTED_EDGE ( 'NONE', *, *, #41, .F. ) ;
#217 = VERTEX_POINT ( 'NONE', #124 ) ;
#218 = CC_DESIGN_APPROVAL ( #309, ( #169 ) ) ;
#219 = DIRECTION ( 'NONE',  ( 0.0000000000000000000, 0.0000000000000000000, 1.000000000000000000 ) ) ;
#220 = FACE_OUTER_BOUND ( 'NONE', #2, .T. ) ;
#221 = FACE_BOUND ( 'NONE', #279, .T. ) ;
#222 = APPLICATION_PROTOCOL_DEFINITION ( 'international standard', 'config_control_design', 1994, #40 ) ;
#223 = FACE_BOUND ( 'NONE', #13, .T. ) ;
#224 =( BOUNDED_CURVE ( )  B_SPLINE_CURVE ( 3, ( #63, #34, #176, #316 ),
 .UNSPECIFIED., .F., .T. ) 
 B_SPLINE_CURVE_WITH_KNOTS ( ( 4, 4 ),
 ( 1.570796326794896600, 4.712388980384689700 ),
 .UNSPECIFIED. ) 
 CURVE ( )  GEOMETRIC_REPRESENTATION_ITEM ( )  RATIONAL_B_SPLINE_CURVE ( ( 1.000000000000000000, 0.3333333333333333700, 0.3333333333333333700, 1.000000000000000000 ) ) 
 REPRESENTATION_ITEM ( '' )  );
#225 =( LENGTH_UNIT ( ) NAMED_UNIT ( * ) SI_UNIT ( $, .METRE. ) );
#226 = EDGE_CURVE ( 'NONE', #296, #344, #33, .T. ) ;
#227 = CARTESIAN_POINT ( 'NONE',  ( -8.818897637795275900, 0.0000000000000000000, -1.011811023622047200 ) ) ;
#228 = EDGE_CURVE ( 'NONE', #378, #378, #260, .T. ) ;
#229 = CARTESIAN_POINT ( 'NONE',  ( 0.0000000000000000000, 0.0000000000000000000, 0.0000000000000000000 ) ) ;
#230 = CONICAL_SURFACE ( 'NONE', #338, 1.354330708661416900, 0.7853981633974411700 ) ;
#231 = DATE_AND_TIME ( #31, #332 ) ;
#232 = ORIENTED_EDGE ( 'NONE', *, *, #91, .F. ) ;
#233 = COORDINATED_UNIVERSAL_TIME_OFFSET ( 5, 0, .BEHIND. ) ;
#234 = CLOSED_SHELL ( 'NONE', ( #195, #370, #336, #136, #18, #80, #163, #78, #262, #236, #310, #49, #290 ) ) ;
#235 = AXIS2_PLACEMENT_3D ( 'NONE', #365, #313, #328 ) ;
#236 = ADVANCED_FACE ( 'NONE', ( #96, #192 ), #283, .T. ) ;
#237 = FACE_BOUND ( 'NONE', #301, .T. ) ;
#238 = DIRECTION ( 'NONE',  ( 0.0000000000000000000, 1.000000000000000000, -2.449212707644750100E-016 ) ) ;
#239 = CARTESIAN_POINT ( 'NONE',  ( -4.409448818897638000, 1.736220472440944500, 0.0000000000000000000 ) ) ;
#240 = CC_DESIGN_PERSON_AND_ORGANIZATION_ASSIGNMENT ( #360, #356, ( #315 ) ) ;
#241 = LOCAL_TIME ( 16, 24, 21.00000000000000000, #26 ) ;
#242 = PRODUCT ( '581245020', '581245020', '', ( #74 ) ) ;
#243 = CARTESIAN_POINT ( 'NONE',  ( -4.409448818897638000, 0.0000000000000000000, -1.011811023622047200 ) ) ;
#244 = DIRECTION ( 'NONE',  ( 0.0000000000000000000, -0.0000000000000000000, 1.000000000000000000 ) ) ;
#245 = CARTESIAN_POINT ( 'NONE',  ( -7.118110236220472200, 2.708661417322833800, 1.354330708661416500 ) ) ;
#246 = EDGE_CURVE ( 'NONE', #386, #386, #123, .T. ) ;
#247 = VERTEX_POINT ( 'NONE', #143 ) ;
#248 = FACE_OUTER_BOUND ( 'NONE', #168, .T. ) ;
#249 = ORIENTED_EDGE ( 'NONE', *, *, #17, .T. ) ;
#250 = DIRECTION ( 'NONE',  ( -0.0000000000000000000, -1.000000000000000000, -0.0000000000000000000 ) ) ;
#251 = CARTESIAN_POINT ( 'NONE',  ( -4.409448818897638000, 1.850393700787401600, 0.0000000000000000000 ) ) ;
#252 = VERTEX_POINT ( 'NONE', #61 ) ;
#253 = EDGE_LOOP ( 'NONE', ( #75 ) ) ;
#254 = EDGE_LOOP ( 'NONE', ( #206 ) ) ;
#255 = PERSON_AND_ORGANIZATION_ROLE ( 'classification_officer' ) ;
#256 = PERSON_AND_ORGANIZATION_ROLE ( 'design_owner' ) ;
#257 =( GEOMETRIC_REPRESENTATION_CONTEXT ( 3 ) GLOBAL_UNCERTAINTY_ASSIGNED_CONTEXT ( ( #95 ) ) GLOBAL_UNIT_ASSIGNED_CONTEXT ( ( #186, #358, #155 ) ) REPRESENTATION_CONTEXT ( 'NONE', 'WORKASPACE' ) );
#258 = CARTESIAN_POINT ( 'NONE',  ( -2.673228346456693500, 0.0000000000000000000, 0.0000000000000000000 ) ) ;
#259 = ORIENTED_EDGE ( 'NONE', *, *, #116, .F. ) ;
#260 = CIRCLE ( 'NONE', #64, 1.240157480314960600 ) ;
#261 = EDGE_LOOP ( 'NONE', ( #302 ) ) ;
#262 = ADVANCED_FACE ( 'NONE', ( #25, #223 ), #230, .T. ) ;
#263 = DIRECTION ( 'NONE',  ( -0.0000000000000000000, -1.000000000000000000, -0.0000000000000000000 ) ) ;
#264 = APPROVAL_PERSON_ORGANIZATION ( #152, #309, #304 ) ;
#265 = AXIS2_PLACEMENT_3D ( 'NONE', #94, #59, #97 ) ;
#266 = CYLINDRICAL_SURFACE ( 'NONE', #148, 1.354330708661417400 ) ;
#267 = DIRECTION ( 'NONE',  ( -1.000000000000000000, -0.0000000000000000000, -0.0000000000000000000 ) ) ;
#268 = DATE_AND_TIME ( #331, #133 ) ;
#269 = CONICAL_SURFACE ( 'NONE', #235, 1.354330708661417400, 0.7853981633974435100 ) ;
#270 = CARTESIAN_POINT ( 'NONE',  ( -4.409448818897638000, 6.195555657103736000E-017, 1.011811023622047200 ) ) ;
#271 = CALENDAR_DATE ( 2015, 4, 12 ) ;
#272 = EDGE_LOOP ( 'NONE', ( #100 ) ) ;
#273 = DIRECTION ( 'NONE',  ( 0.0000000000000000000, 1.000000000000000000, 0.0000000000000000000 ) ) ;
#274 = DIRECTION ( 'NONE',  ( 0.0000000000000000000, 0.0000000000000000000, -1.000000000000000000 ) ) ;
#275 = DIRECTION ( 'NONE',  ( 0.0000000000000000000, 0.0000000000000000000, -1.000000000000000000 ) ) ;
#276 = CARTESIAN_POINT ( 'NONE',  ( 0.0000000000000000000, 0.6200787401574803200, -1.518704730134051300E-016 ) ) ;
#277 = DIRECTION ( 'NONE',  ( 0.0000000000000000000, -1.000000000000000000, 0.0000000000000000000 ) ) ;
#278 = DIRECTION ( 'NONE',  ( -1.000000000000000000, -0.0000000000000000000, -0.0000000000000000000 ) ) ;
#279 = EDGE_LOOP ( 'NONE', ( #141 ) ) ;
#280 = PERSON_AND_ORGANIZATION_ROLE ( 'design_supplier' ) ;
#281 = DIRECTION ( 'NONE',  ( 1.000000000000000000, 0.0000000000000000000, 0.0000000000000000000 ) ) ;
#282 = VERTEX_POINT ( 'NONE', #346 ) ;
#283 = CYLINDRICAL_SURFACE ( 'NONE', #42, 1.240157480314960600 ) ;
#284 = DIRECTION ( 'NONE',  ( 0.0000000000000000000, 0.0000000000000000000, 1.000000000000000000 ) ) ;
#285 = PERSON_AND_ORGANIZATION ( #382, #367 ) ;
#286 = DATE_AND_TIME ( #271, #181 ) ;
#287 = ORIENTED_EDGE ( 'NONE', *, *, #14, .F. ) ;
#288 = EDGE_LOOP ( 'NONE', ( #319, #323 ) ) ;
#289 = FACE_BOUND ( 'NONE', #308, .T. ) ;
#290 = ADVANCED_FACE ( 'NONE', ( #248, #220 ), #317, .T. ) ;
#291 = FACE_BOUND ( 'NONE', #174, .T. ) ;
#292 = CARTESIAN_POINT ( 'NONE',  ( -4.409448818897638000, 0.0000000000000000000, 1.354330708661417100 ) ) ;
#293 = COORDINATED_UNIVERSAL_TIME_OFFSET ( 5, 0, .BEHIND. ) ;
#294 = EDGE_CURVE ( 'NONE', #209, #209, #166, .T. ) ;
#295 = EDGE_LOOP ( 'NONE', ( #135 ) ) ;
#296 = VERTEX_POINT ( 'NONE', #117 ) ;
#297 = PLANE ( 'NONE',  #73 ) ;
#298 = FACE_OUTER_BOUND ( 'NONE', #150, .T. ) ;
#299 = FACE_OUTER_BOUND ( 'NONE', #364, .T. ) ;
#300 = EDGE_CURVE ( 'NONE', #349, #349, #374, .T. ) ;
#301 = EDGE_LOOP ( 'NONE', ( #376 ) ) ;
#302 = ORIENTED_EDGE ( 'NONE', *, *, #190, .T. ) ;
#303 = MANIFOLD_SOLID_BREP ( '1', #234 ) ;
#304 = APPROVAL_ROLE ( '' ) ;
#305 = EDGE_LOOP ( 'NONE', ( #381 ) ) ;
#306 = AXIS2_PLACEMENT_3D ( 'NONE', #335, #377, #138 ) ;
#307 = FACE_BOUND ( 'NONE', #29, .T. ) ;
#308 = EDGE_LOOP ( 'NONE', ( #47 ) ) ;
#309 = APPROVAL ( #327, 'UNSPECIFIED' ) ;
#310 = ADVANCED_FACE ( 'NONE', ( #307, #127, #198 ), #266, .T. ) ;
#311 = EDGE_LOOP ( 'NONE', ( #314 ) ) ;
#312 = DIRECTION ( 'NONE',  ( 0.0000000000000000000, 0.0000000000000000000, -1.000000000000000000 ) ) ;
#313 = DIRECTION ( 'NONE',  ( 0.0000000000000000000, -1.000000000000000000, 0.0000000000000000000 ) ) ;
#314 = ORIENTED_EDGE ( 'NONE', *, *, #52, .T. ) ;
#315 = PRODUCT_DEFINITION ( 'UNKNOWN', '', #169, #366 ) ;
#316 = CARTESIAN_POINT ( 'NONE',  ( -4.409448818897638000, 6.195555657103736000E-017, 1.011811023622047200 ) ) ;
#317 = CYLINDRICAL_SURFACE ( 'NONE', #321, 1.354330708661417400 ) ;
#318 = APPROVAL_DATE_TIME ( #231, #309 ) ;
#319 = ORIENTED_EDGE ( 'NONE', *, *, #103, .T. ) ;
#320 = DIRECTION ( 'NONE',  ( 0.0000000000000000000, 0.0000000000000000000, -1.000000000000000000 ) ) ;
#321 = AXIS2_PLACEMENT_3D ( 'NONE', #145, #250, #170 ) ;
#322 = VERTEX_POINT ( 'NONE', #175 ) ;
#323 = ORIENTED_EDGE ( 'NONE', *, *, #79, .T. ) ;
#324 = PLANE ( 'NONE',  #210 ) ;
#325 = CARTESIAN_POINT ( 'NONE',  ( -4.409448818897638000, 0.0000000000000000000, -1.354330708661417100 ) ) ;
#326 = ORIENTED_EDGE ( 'NONE', *, *, #62, .F. ) ;
#327 = APPROVAL_STATUS ( 'not_yet_approved' ) ;
#328 = DIRECTION ( 'NONE',  ( 0.0000000000000000000, 0.0000000000000000000, -1.000000000000000000 ) ) ;
#329 = ADVANCED_BREP_SHAPE_REPRESENTATION ( '581245020', ( #303, #158 ), #257 ) ;
#330 = APPROVAL ( #9, 'UNSPECIFIED' ) ;
#331 = CALENDAR_DATE ( 2015, 4, 12 ) ;
#332 = LOCAL_TIME ( 16, 24, 21.00000000000000000, #233 ) ;
#333 = ORIENTED_EDGE ( 'NONE', *, *, #226, .F. ) ;
#334 = PRODUCT_RELATED_PRODUCT_CATEGORY ( 'detail', '', ( #242 ) ) ;
#335 = CARTESIAN_POINT ( 'NONE',  ( -6.145669291338582400, 0.0000000000000000000, 0.0000000000000000000 ) ) ;
#336 = ADVANCED_FACE ( 'NONE', ( #83, #221 ), #324, .T. ) ;
#337 = DIRECTION ( 'NONE',  ( 0.0000000000000000000, 0.0000000000000000000, -1.000000000000000000 ) ) ;
#338 = AXIS2_PLACEMENT_3D ( 'NONE', #345, #32, #219 ) ;
#339 = DIRECTION ( 'NONE',  ( 1.000000000000000000, 0.0000000000000000000, -0.0000000000000000000 ) ) ;
#340 = AXIS2_PLACEMENT_3D ( 'NONE', #19, #58, #30 ) ;
#341 = CIRCLE ( 'NONE', #8, 1.011811023622047200 ) ;
#342 = DIRECTION ( 'NONE',  ( 0.0000000000000000000, 1.000000000000000000, 0.0000000000000000000 ) ) ;
#343 = FACE_OUTER_BOUND ( 'NONE', #261, .T. ) ;
#344 = VERTEX_POINT ( 'NONE', #383 ) ;
#345 = CARTESIAN_POINT ( 'NONE',  ( -2.673228346456693500, 0.0000000000000000000, 0.0000000000000000000 ) ) ;
#346 = CARTESIAN_POINT ( 'NONE',  ( 0.0000000000000000000, 0.0000000000000000000, -1.240157480314960600 ) ) ;
#347 = DIRECTION ( 'NONE',  ( 0.0000000000000000000, 0.0000000000000000000, -1.000000000000000000 ) ) ;
#348 =( BOUNDED_CURVE ( )  B_SPLINE_CURVE ( 3, ( #270, #350, #70, #215 ),
 .UNSPECIFIED., .F., .T. ) 
 B_SPLINE_CURVE_WITH_KNOTS ( ( 4, 4 ),
 ( 1.570796326794896600, 4.712388980384689700 ),
 .UNSPECIFIED. ) 
 CURVE ( )  GEOMETRIC_REPRESENTATION_ITEM ( )  RATIONAL_B_SPLINE_CURVE ( ( 1.000000000000000000, 0.3333333333333333700, 0.3333333333333333700, 1.000000000000000000 ) ) 
 REPRESENTATION_ITEM ( '' )  );
#349 = VERTEX_POINT ( 'NONE', #132 ) ;
#350 = CARTESIAN_POINT ( 'NONE',  ( -6.433070866141733300, 2.023622047244094000, 1.011811023622047200 ) ) ;
#351 = CC_DESIGN_APPROVAL ( #330, ( #315 ) ) ;
#352 = PERSON_AND_ORGANIZATION ( #382, #367 ) ;
#353 = CARTESIAN_POINT ( 'NONE',  ( 0.0000000000000000000, 0.0000000000000000000, 0.0000000000000000000 ) ) ;
#354 = DATE_AND_TIME ( #54, #241 ) ;
#355 = EDGE_LOOP ( 'NONE', ( #16 ) ) ;
#356 = PERSON_AND_ORGANIZATION_ROLE ( 'creator' ) ;
#357 = CC_DESIGN_SECURITY_CLASSIFICATION ( #69, ( #169 ) ) ;
#358 =( NAMED_UNIT ( * ) PLANE_ANGLE_UNIT ( ) SI_UNIT ( $, .RADIAN. ) );
#359 = CARTESIAN_POINT ( 'NONE',  ( -8.818897637795275900, 0.0000000000000000000, -1.240157480314960600 ) ) ;
#360 = PERSON_AND_ORGANIZATION ( #382, #367 ) ;
#361 = APPROVAL_DATE_TIME ( #354, #23 ) ;
#362 = CARTESIAN_POINT ( 'NONE',  ( -4.409448818897638000, 0.0000000000000000000, 1.354330708661417100 ) ) ;
#363 = FACE_BOUND ( 'NONE', #37, .T. ) ;
#364 = EDGE_LOOP ( 'NONE', ( #287 ) ) ;
#365 = CARTESIAN_POINT ( 'NONE',  ( -4.409448818897638000, 1.736220472440944000, 0.0000000000000000000 ) ) ;
#366 = DESIGN_CONTEXT ( 'detailed design', #40, 'design' ) ;
#367 = ORGANIZATION ( 'UNSPECIFIED', 'UNSPECIFIED', '' ) ;
#368 = AXIS2_PLACEMENT_3D ( 'NONE', #239, #68, #205 ) ;
#369 = ORIENTED_EDGE ( 'NONE', *, *, #17, .F. ) ;
#370 = ADVANCED_FACE ( 'NONE', ( #89, #289 ), #66, .T. ) ;
#371 = AXIS2_PLACEMENT_3D ( 'NONE', #379, #342, #24 ) ;
#372 = CARTESIAN_POINT ( 'NONE',  ( -8.818897637795275900, 0.0000000000000000000, 0.0000000000000000000 ) ) ;
#373 = PERSON_AND_ORGANIZATION ( #382, #367 ) ;
#374 = CIRCLE ( 'NONE', #20, 1.011811023622047200 ) ;
#375 = CARTESIAN_POINT ( 'NONE',  ( -7.118110236220472200, 2.708661417322833800, -1.354330708661416500 ) ) ;
#376 = ORIENTED_EDGE ( 'NONE', *, *, #228, .F. ) ;
#377 = DIRECTION ( 'NONE',  ( -1.000000000000000000, -0.0000000000000000000, -0.0000000000000000000 ) ) ;
#378 = VERTEX_POINT ( 'NONE', #188 ) ;
#379 = CARTESIAN_POINT ( 'NONE',  ( -4.409448818897638000, 4.409448818897638000, 0.0000000000000000000 ) ) ;
#380 = LENGTH_MEASURE_WITH_UNIT ( LENGTH_MEASURE( 0.02539999999999999900 ), #225 );
#381 = ORIENTED_EDGE ( 'NONE', *, *, #116, .T. ) ;
#382 = PERSON ( 'UNSPECIFIED', 'UNSPECIFIED', 'UNSPECIFIED', ('UNSPECIFIED'), ('UNSPECIFIED'), ('UNSPECIFIED') ) ;
#383 = CARTESIAN_POINT ( 'NONE',  ( -4.409448818897638000, 0.0000000000000000000, -1.354330708661417100 ) ) ;
#384 = AXIS2_PLACEMENT_3D ( 'NONE', #229, #278, #275 ) ;
#385 = AXIS2_PLACEMENT_3D ( 'NONE', #372, #267, #22 ) ;
#386 = VERTEX_POINT ( 'NONE', #359 ) ;
ENDSEC;
END-ISO-10303-21;
