ISO-10303-21;
HEADER;
FILE_DESCRIPTION (( 'STEP AP203' ),
    '1' );
FILE_NAME ('581245030.STEP',
    '2015-12-04T21:11:11',
    ( '' ),
    ( '' ),
    'SwSTEP 2.0',
    'SolidWorks 2015',
    '' );
FILE_SCHEMA (( 'CONFIG_CONTROL_DESIGN' ));
ENDSEC;

DATA;
#1 = CARTESIAN_POINT ( 'NONE',  ( -5.629921259842520300, 0.0000000000000000000, 0.0000000000000000000 ) ) ;
#2 = VERTEX_POINT ( 'NONE', #154 ) ;
#3 = CARTESIAN_POINT ( 'NONE',  ( -11.25984251968504100, 0.0000000000000000000, 0.0000000000000000000 ) ) ;
#4 = AXIS2_PLACEMENT_3D ( 'NONE', #307, #281, #113 ) ;
#5 = CARTESIAN_POINT ( 'NONE',  ( -7.948818897637794500, 0.0000000000000000000, 0.0000000000000000000 ) ) ;
#6 = CIRCLE ( 'NONE', #360, 1.771653543307086600 ) ;
#7 = VERTEX_POINT ( 'NONE', #350 ) ;
#8 = APPROVAL_ROLE ( '' ) ;
#9 = DIRECTION ( 'NONE',  ( 1.000000000000000000, 0.0000000000000000000, 0.0000000000000000000 ) ) ;
#10 = ORIENTED_EDGE ( 'NONE', *, *, #77, .F. ) ;
#11 = CIRCLE ( 'NONE', #291, 1.448818897637795400 ) ;
#12 = DIRECTION ( 'NONE',  ( 0.0000000000000000000, 0.0000000000000000000, -1.000000000000000000 ) ) ;
#13 = VERTEX_POINT ( 'NONE', #80 ) ;
#14 = AXIS2_PLACEMENT_3D ( 'NONE', #84, #137, #278 ) ;
#15 = DIRECTION ( 'NONE',  ( 0.0000000000000000000, 1.000000000000000000, -2.449212707644750100E-016 ) ) ;
#16 = CIRCLE ( 'NONE', #118, 1.771653543307086600 ) ;
#17 = ADVANCED_FACE ( 'NONE', ( #58, #207 ), #378, .T. ) ;
#18 = AXIS2_PLACEMENT_3D ( 'NONE', #147, #51, #383 ) ;
#19 = EDGE_LOOP ( 'NONE', ( #354 ) ) ;
#20 = CARTESIAN_POINT ( 'NONE',  ( -5.629921259842520300, 8.871457127681613700E-017, 1.448818897637795400 ) ) ;
#21 = PERSON_AND_ORGANIZATION ( #217, #310 ) ;
#22 = VERTEX_POINT ( 'NONE', #152 ) ;
#23 = DIRECTION ( 'NONE',  ( 0.0000000000000000000, 1.000000000000000000, 0.0000000000000000000 ) ) ;
#24 = COORDINATED_UNIVERSAL_TIME_OFFSET ( 5, 0, .BEHIND. ) ;
#25 = DIRECTION ( 'NONE',  ( -1.000000000000000000, -0.0000000000000000000, -0.0000000000000000000 ) ) ;
#26 = CARTESIAN_POINT ( 'NONE',  ( -5.629921259842520300, 0.0000000000000000000, 1.933070866141732000 ) ) ;
#27 = CARTESIAN_POINT ( 'NONE',  ( -5.629921259842520300, 5.629921259842520300, -1.448818897637795400 ) ) ;
#28 = VERTEX_POINT ( 'NONE', #265 ) ;
#29 = EDGE_CURVE ( 'NONE', #293, #293, #144, .T. ) ;
#30 = CARTESIAN_POINT ( 'NONE',  ( -11.25984251968504100, 0.0000000000000000000, -1.771653543307086600 ) ) ;
#31 = FACE_OUTER_BOUND ( 'NONE', #203, .T. ) ;
#32 = AXIS2_PLACEMENT_3D ( 'NONE', #267, #179, #320 ) ;
#33 = ORIENTED_EDGE ( 'NONE', *, *, #178, .T. ) ;
#34 = CARTESIAN_POINT ( 'NONE',  ( -5.629921259842520300, 0.0000000000000000000, 0.0000000000000000000 ) ) ;
#35 = APPROVAL_DATE_TIME ( #298, #305 ) ;
#36 = VERTEX_POINT ( 'NONE', #236 ) ;
#37 = ORIENTED_EDGE ( 'NONE', *, *, #97, .T. ) ;
#38 = AXIS2_PLACEMENT_3D ( 'NONE', #318, #325, #202 ) ;
#39 = PERSON_AND_ORGANIZATION ( #217, #310 ) ;
#40 = CIRCLE ( 'NONE', #38, 1.448818897637795400 ) ;
#41 = PERSON_AND_ORGANIZATION_ROLE ( 'design_supplier' ) ;
#42 = APPLICATION_PROTOCOL_DEFINITION ( 'international standard', 'config_control_design', 1994, #188 ) ;
#43 = AXIS2_PLACEMENT_3D ( 'NONE', #90, #290, #185 ) ;
#44 = VERTEX_POINT ( 'NONE', #66 ) ;
#45 =( NAMED_UNIT ( * ) PLANE_ANGLE_UNIT ( ) SI_UNIT ( $, .RADIAN. ) );
#46 = CALENDAR_DATE ( 2015, 4, 12 ) ;
#47 = ADVANCED_FACE ( 'NONE', ( #111, #301 ), #338, .T. ) ;
#48 = DIRECTION ( 'NONE',  ( 1.000000000000000000, 0.0000000000000000000, 0.0000000000000000000 ) ) ;
#49 = EDGE_LOOP ( 'NONE', ( #50 ) ) ;
#50 = ORIENTED_EDGE ( 'NONE', *, *, #112, .T. ) ;
#51 = DIRECTION ( 'NONE',  ( 1.000000000000000000, 0.0000000000000000000, 0.0000000000000000000 ) ) ;
#52 = DATE_AND_TIME ( #165, #329 ) ;
#53 = EDGE_CURVE ( 'NONE', #131, #13, #157, .T. ) ;
#54 = FACE_OUTER_BOUND ( 'NONE', #122, .T. ) ;
#55 = CARTESIAN_POINT ( 'NONE',  ( -3.311023622047244900, 0.0000000000000000000, 0.0000000000000000000 ) ) ;
#56 = DIRECTION ( 'NONE',  ( 1.000000000000000000, 0.0000000000000000000, -2.449212707644570100E-016 ) ) ;
#57 = AXIS2_PLACEMENT_3D ( 'NONE', #315, #323, #346 ) ;
#58 = FACE_OUTER_BOUND ( 'NONE', #266, .T. ) ;
#59 = ADVANCED_FACE ( 'NONE', ( #183, #180 ), #223, .T. ) ;
#60 = PRODUCT_DEFINITION_SHAPE ( 'NONE', 'NONE',  #295 ) ;
#61 = AXIS2_PLACEMENT_3D ( 'NONE', #191, #166, #12 ) ;
#62 = EDGE_LOOP ( 'NONE', ( #99 ) ) ;
#63 = CARTESIAN_POINT ( 'NONE',  ( -5.629921259842520300, 2.480314960629925300, 0.0000000000000000000 ) ) ;
#64 = FACE_OUTER_BOUND ( 'NONE', #272, .T. ) ;
#65 = CALENDAR_DATE ( 2015, 4, 12 ) ;
#66 = CARTESIAN_POINT ( 'NONE',  ( -8.110236220472442500, 0.0000000000000000000, -1.771653543307086600 ) ) ;
#67 = CARTESIAN_POINT ( 'NONE',  ( 0.0000000000000000000, 0.0000000000000000000, 0.0000000000000000000 ) ) ;
#68 = ORIENTED_EDGE ( 'NONE', *, *, #187, .T. ) ;
#69 = EDGE_CURVE ( 'NONE', #28, #119, #231, .T. ) ;
#70 = FACE_BOUND ( 'NONE', #195, .T. ) ;
#71 = CARTESIAN_POINT ( 'NONE',  ( -3.696850393700789700, 2.318897637795275900, -4.734501730131823200E-016 ) ) ;
#72 = AXIS2_PLACEMENT_3D ( 'NONE', #34, #149, #357 ) ;
#73 = ORIENTED_EDGE ( 'NONE', *, *, #196, .T. ) ;
#74 = COORDINATED_UNIVERSAL_TIME_OFFSET ( 5, 0, .BEHIND. ) ;
#75 = APPROVAL_PERSON_ORGANIZATION ( #365, #234, #306 ) ;
#76 = CALENDAR_DATE ( 2015, 4, 12 ) ;
#77 = EDGE_CURVE ( 'NONE', #361, #361, #351, .T. ) ;
#78 = APPROVAL ( #308, 'UNSPECIFIED' ) ;
#79 = PERSON_AND_ORGANIZATION ( #217, #310 ) ;
#80 = CARTESIAN_POINT ( 'NONE',  ( -5.629921259842520300, 8.871457127681613700E-017, 1.448818897637795400 ) ) ;
#81 = DATE_TIME_ROLE ( 'creation_date' ) ;
#82 = CYLINDRICAL_SURFACE ( 'NONE', #61, 1.771653543307086600 ) ;
#83 = DIRECTION ( 'NONE',  ( -1.000000000000000000, -0.0000000000000000000, 0.0000000000000000000 ) ) ;
#84 = CARTESIAN_POINT ( 'NONE',  ( -5.629921259842520300, 4.055118110236221300, 0.0000000000000000000 ) ) ;
#85 = PERSON_AND_ORGANIZATION ( #217, #310 ) ;
#86 = DIRECTION ( 'NONE',  ( -1.000000000000000000, 0.0000000000000000000, 0.0000000000000000000 ) ) ;
#87 = CYLINDRICAL_SURFACE ( 'NONE', #14, 1.771653543307086600 ) ;
#88 = PERSON_AND_ORGANIZATION ( #217, #310 ) ;
#89 = EDGE_CURVE ( 'NONE', #119, #28, #242, .T. ) ;
#90 = CARTESIAN_POINT ( 'NONE',  ( -11.25984251968504100, 0.0000000000000000000, 0.0000000000000000000 ) ) ;
#91 = ADVANCED_FACE ( 'NONE', ( #70, #142, #101 ), #206, .F. ) ;
#92 = CARTESIAN_POINT ( 'NONE',  ( -5.629921259842520300, 2.318897637795275900, 0.0000000000000000000 ) ) ;
#93 = EDGE_LOOP ( 'NONE', ( #33 ) ) ;
#94 = ADVANCED_FACE ( 'NONE', ( #257, #371 ), #271, .T. ) ;
#95 = ORIENTED_EDGE ( 'NONE', *, *, #125, .T. ) ;
#96 = DIRECTION ( 'NONE',  ( 0.0000000000000000000, 0.0000000000000000000, -1.000000000000000000 ) ) ;
#97 = EDGE_CURVE ( 'NONE', #2, #2, #198, .T. ) ;
#98 = FACE_OUTER_BOUND ( 'NONE', #362, .T. ) ;
#99 = ORIENTED_EDGE ( 'NONE', *, *, #213, .F. ) ;
#100 = EDGE_LOOP ( 'NONE', ( #176 ) ) ;
#101 = FACE_OUTER_BOUND ( 'NONE', #62, .T. ) ;
#102 = ORIENTED_EDGE ( 'NONE', *, *, #97, .F. ) ;
#103 = EDGE_LOOP ( 'NONE', ( #251 ) ) ;
#104 = APPROVAL_STATUS ( 'not_yet_approved' ) ;
#105 = APPLICATION_PROTOCOL_DEFINITION ( 'international standard', 'config_control_design', 1994, #367 ) ;
#106 = CARTESIAN_POINT ( 'NONE',  ( -8.110236220472442500, 0.0000000000000000000, 0.0000000000000000000 ) ) ;
#107 =( LENGTH_UNIT ( ) NAMED_UNIT ( * ) SI_UNIT ( $, .METRE. ) );
#108 = FACE_OUTER_BOUND ( 'NONE', #127, .T. ) ;
#109 = CARTESIAN_POINT ( 'NONE',  ( -5.629921259842520300, 1.159448818897638000, 0.0000000000000000000 ) ) ;
#110 = CARTESIAN_POINT ( 'NONE',  ( -5.629921259842520300, 0.0000000000000000000, -1.448818897637795400 ) ) ;
#111 = FACE_OUTER_BOUND ( 'NONE', #168, .T. ) ;
#112 = EDGE_CURVE ( 'NONE', #7, #7, #345, .T. ) ;
#113 = DIRECTION ( 'NONE',  ( 0.0000000000000000000, 0.0000000000000000000, -1.000000000000000000 ) ) ;
#114 = AXIS2_PLACEMENT_3D ( 'NONE', #63, #204, #233 ) ;
#115 = CARTESIAN_POINT ( 'NONE',  ( -5.629921259842520300, 0.0000000000000000000, -1.933070866141732000 ) ) ;
#116 = CARTESIAN_POINT ( 'NONE',  ( -5.629921259842520300, 2.318897637795275900, 0.0000000000000000000 ) ) ;
#117 = LOCAL_TIME ( 16, 11, 11.00000000000000000, #24 ) ;
#118 = AXIS2_PLACEMENT_3D ( 'NONE', #253, #23, #189 ) ;
#119 = VERTEX_POINT ( 'NONE', #151 ) ;
#120 = UNCERTAINTY_MEASURE_WITH_UNIT (LENGTH_MEASURE( 1.000000000000000100E-005 ), #309, 'distance_accuracy_value', 'NONE');
#121 = DIRECTION ( 'NONE',  ( 0.0000000000000000000, 0.0000000000000000000, -1.000000000000000000 ) ) ;
#122 = EDGE_LOOP ( 'NONE', ( #218 ) ) ;
#123 = CYLINDRICAL_SURFACE ( 'NONE', #220, 1.448818897637795400 ) ;
#124 = DIRECTION ( 'NONE',  ( 0.0000000000000000000, 0.0000000000000000000, -1.000000000000000000 ) ) ;
#125 = EDGE_CURVE ( 'NONE', #13, #131, #279, .T. ) ;
#126 = CARTESIAN_POINT ( 'NONE',  ( -5.629921259842520300, 5.629921259842520300, -1.771653543307086600 ) ) ;
#127 = EDGE_LOOP ( 'NONE', ( #215 ) ) ;
#128 = AXIS2_PLACEMENT_3D ( 'NONE', #55, #227, #15 ) ;
#129 = VERTEX_POINT ( 'NONE', #126 ) ;
#130 = APPROVAL_PERSON_ORGANIZATION ( #369, #305, #8 ) ;
#131 = VERTEX_POINT ( 'NONE', #287 ) ;
#132 = FACE_BOUND ( 'NONE', #280, .T. ) ;
#133 = CONICAL_SURFACE ( 'NONE', #303, 1.933070866141732000, 0.7853981633974389500 ) ;
#134 = CC_DESIGN_PERSON_AND_ORGANIZATION_ASSIGNMENT ( #79, #363, ( #193 ) ) ;
#135 = DESIGN_CONTEXT ( 'detailed design', #367, 'design' ) ;
#136 = APPROVAL_ROLE ( '' ) ;
#137 = DIRECTION ( 'NONE',  ( -0.0000000000000000000, -1.000000000000000000, -0.0000000000000000000 ) ) ;
#138 = AXIS2_PLACEMENT_3D ( 'NONE', #161, #86, #224 ) ;
#139 = LENGTH_MEASURE_WITH_UNIT ( LENGTH_MEASURE( 0.02539999999999999900 ), #107 );
#140 = CARTESIAN_POINT ( 'NONE',  ( -8.527559055118109300, 2.897637795275589400, -1.448818897637794300 ) ) ;
#141 = ADVANCED_FACE ( 'NONE', ( #247, #359 ), #208, .T. ) ;
#142 = FACE_OUTER_BOUND ( 'NONE', #192, .T. ) ;
#143 = EDGE_CURVE ( 'NONE', #129, #129, #16, .T. ) ;
#144 = CIRCLE ( 'NONE', #163, 1.933070866141730800 ) ;
#145 = AXIS2_PLACEMENT_3D ( 'NONE', #255, #48, #222 ) ;
#146 = EDGE_LOOP ( 'NONE', ( #37 ) ) ;
#147 = CARTESIAN_POINT ( 'NONE',  ( 0.03937007874015748000, 0.0000000000000000000, 0.0000000000000000000 ) ) ;
#148 = ADVANCED_FACE ( 'NONE', ( #299, #98 ), #82, .T. ) ;
#149 = DIRECTION ( 'NONE',  ( 1.000000000000000000, 0.0000000000000000000, 0.0000000000000000000 ) ) ;
#150 = DATE_AND_TIME ( #326, #259 ) ;
#151 = CARTESIAN_POINT ( 'NONE',  ( -5.629921259842520300, 0.0000000000000000000, 1.933070866141732000 ) ) ;
#152 = CARTESIAN_POINT ( 'NONE',  ( 0.0000000000000000000, 0.0000000000000000000, -1.448818897637795400 ) ) ;
#153 = CC_DESIGN_PERSON_AND_ORGANIZATION_ASSIGNMENT ( #21, #41, ( #356 ) ) ;
#154 = CARTESIAN_POINT ( 'NONE',  ( -11.25984251968504100, 0.0000000000000000000, -1.448818897637795400 ) ) ;
#155 = VERTEX_POINT ( 'NONE', #235 ) ;
#156 = EDGE_LOOP ( 'NONE', ( #381 ) ) ;
#157 =( BOUNDED_CURVE ( )  B_SPLINE_CURVE ( 3, ( #261, #288, #232, #20 ),
 .UNSPECIFIED., .F., .T. ) 
 B_SPLINE_CURVE_WITH_KNOTS ( ( 4, 4 ),
 ( 1.570796326794896600, 4.712388980384689700 ),
 .UNSPECIFIED. ) 
 CURVE ( )  GEOMETRIC_REPRESENTATION_ITEM ( )  RATIONAL_B_SPLINE_CURVE ( ( 1.000000000000000000, 0.3333333333333333700, 0.3333333333333333700, 1.000000000000000000 ) ) 
 REPRESENTATION_ITEM ( '' )  );
#158 = CC_DESIGN_PERSON_AND_ORGANIZATION_ASSIGNMENT ( #88, #250, ( #295 ) ) ;
#159 = LOCAL_TIME ( 16, 11, 11.00000000000000000, #352 ) ;
#160 = APPROVAL_DATE_TIME ( #304, #78 ) ;
#161 = CARTESIAN_POINT ( 'NONE',  ( -11.25984251968504100, 0.8858267716535432900, -2.169578185905787600E-016 ) ) ;
#162 = PERSON_AND_ORGANIZATION_ROLE ( 'design_owner' ) ;
#163 = AXIS2_PLACEMENT_3D ( 'NONE', #92, #312, #56 ) ;
#164 = DIRECTION ( 'NONE',  ( 0.0000000000000000000, -1.000000000000000000, 0.0000000000000000000 ) ) ;
#165 = CALENDAR_DATE ( 2015, 4, 12 ) ;
#166 = DIRECTION ( 'NONE',  ( 1.000000000000000000, 0.0000000000000000000, 0.0000000000000000000 ) ) ;
#167 = CIRCLE ( 'NONE', #385, 1.933070866141731500 ) ;
#168 = EDGE_LOOP ( 'NONE', ( #386 ) ) ;
#169 = CC_DESIGN_PERSON_AND_ORGANIZATION_ASSIGNMENT ( #244, #162, ( #205 ) ) ;
#170 = EDGE_LOOP ( 'NONE', ( #355 ) ) ;
#171 = CARTESIAN_POINT ( 'NONE',  ( -9.496062992125985100, 3.866141732283464400, 1.933070866141731500 ) ) ;
#172 = CC_DESIGN_APPROVAL ( #78, ( #295 ) ) ;
#173 = DIRECTION ( 'NONE',  ( 0.0000000000000000000, -1.000000000000000000, 0.0000000000000000000 ) ) ;
#174 = EDGE_LOOP ( 'NONE', ( #364 ) ) ;
#175 = DIRECTION ( 'NONE',  ( 0.0000000000000000000, 0.0000000000000000000, -1.000000000000000000 ) ) ;
#176 = ORIENTED_EDGE ( 'NONE', *, *, #77, .T. ) ;
#177 = DATE_AND_TIME ( #65, #260 ) ;
#178 = EDGE_CURVE ( 'NONE', #155, #155, #322, .T. ) ;
#179 = DIRECTION ( 'NONE',  ( 1.000000000000000000, 0.0000000000000000000, 0.0000000000000000000 ) ) ;
#180 = FACE_OUTER_BOUND ( 'NONE', #296, .T. ) ;
#181 = AXIS2_PLACEMENT_3D ( 'NONE', #109, #374, #121 ) ;
#182 = EDGE_LOOP ( 'NONE', ( #375, #95 ) ) ;
#183 = FACE_BOUND ( 'NONE', #337, .T. ) ;
#184 = FACE_BOUND ( 'NONE', #319, .T. ) ;
#185 = DIRECTION ( 'NONE',  ( 0.0000000000000000000, 0.0000000000000000000, -1.000000000000000000 ) ) ;
#186 = DATE_TIME_ROLE ( 'classification_date' ) ;
#187 = EDGE_CURVE ( 'NONE', #214, #214, #11, .T. ) ;
#188 = APPLICATION_CONTEXT ( 'configuration controlled 3d designs of mechanical parts and assemblies' ) ;
#189 = DIRECTION ( 'NONE',  ( 0.0000000000000000000, 0.0000000000000000000, -1.000000000000000000 ) ) ;
#190 = VERTEX_POINT ( 'NONE', #30 ) ;
#191 = CARTESIAN_POINT ( 'NONE',  ( -1.574803149606299300, 0.0000000000000000000, 0.0000000000000000000 ) ) ;
#192 = EDGE_LOOP ( 'NONE', ( #102 ) ) ;
#193 = SECURITY_CLASSIFICATION ( '', '', #332 ) ;
#194 = CONICAL_SURFACE ( 'NONE', #331, 1.933070866141732000, 0.7853981633974399500 ) ;
#195 = EDGE_LOOP ( 'NONE', ( #358, #252 ) ) ;
#196 = EDGE_CURVE ( 'NONE', #44, #44, #6, .T. ) ;
#197 = ADVANCED_FACE ( 'NONE', ( #249, #302 ), #87, .T. ) ;
#198 = CIRCLE ( 'NONE', #43, 1.448818897637795400 ) ;
#199 = ORIENTED_EDGE ( 'NONE', *, *, #300, .F. ) ;
#200 = CARTESIAN_POINT ( 'NONE',  ( -5.629921259842520300, 0.0000000000000000000, 1.933070866141732000 ) ) ;
#201 = ORIENTED_EDGE ( 'NONE', *, *, #300, .T. ) ;
#202 = DIRECTION ( 'NONE',  ( 0.0000000000000000000, 0.0000000000000000000, -1.000000000000000000 ) ) ;
#203 = EDGE_LOOP ( 'NONE', ( #73 ) ) ;
#204 = DIRECTION ( 'NONE',  ( 0.0000000000000000000, 1.000000000000000000, 0.0000000000000000000 ) ) ;
#205 = PRODUCT ( '581245030', '581245030', '', ( #334 ) ) ;
#206 = CYLINDRICAL_SURFACE ( 'NONE', #18, 1.448818897637795400 ) ;
#207 = FACE_BOUND ( 'NONE', #19, .T. ) ;
#208 = PLANE ( 'NONE',  #138 ) ;
#209 = CYLINDRICAL_SURFACE ( 'NONE', #32, 1.771653543307086600 ) ;
#210 = CC_DESIGN_PERSON_AND_ORGANIZATION_ASSIGNMENT ( #85, #219, ( #356 ) ) ;
#211 = EDGE_LOOP ( 'NONE', ( #68 ) ) ;
#212 = DIRECTION ( 'NONE',  ( 0.0000000000000000000, 1.000000000000000000, -2.449212707644750100E-016 ) ) ;
#213 = EDGE_CURVE ( 'NONE', #22, #22, #40, .T. ) ;
#214 = VERTEX_POINT ( 'NONE', #27 ) ;
#215 = ORIENTED_EDGE ( 'NONE', *, *, #112, .F. ) ;
#216 = CC_DESIGN_SECURITY_CLASSIFICATION ( #193, ( #356 ) ) ;
#217 = PERSON ( 'UNSPECIFIED', 'UNSPECIFIED', 'UNSPECIFIED', ('UNSPECIFIED'), ('UNSPECIFIED'), ('UNSPECIFIED') ) ;
#218 = ORIENTED_EDGE ( 'NONE', *, *, #262, .F. ) ;
#219 = PERSON_AND_ORGANIZATION_ROLE ( 'creator' ) ;
#220 = AXIS2_PLACEMENT_3D ( 'NONE', #1, #173, #321 ) ;
#221 = ORIENTED_EDGE ( 'NONE', *, *, #89, .T. ) ;
#222 = DIRECTION ( 'NONE',  ( 0.0000000000000000000, 0.0000000000000000000, -1.000000000000000000 ) ) ;
#223 = CONICAL_SURFACE ( 'NONE', #328, 1.933070866141730800, 0.7853981633974381800 ) ;
#224 = DIRECTION ( 'NONE',  ( 0.0000000000000000000, 0.0000000000000000000, 1.000000000000000000 ) ) ;
#225 = FACE_OUTER_BOUND ( 'NONE', #380, .T. ) ;
#226 = MANIFOLD_SOLID_BREP ( '1', #324 ) ;
#227 = DIRECTION ( 'NONE',  ( 1.000000000000000000, -0.0000000000000000000, -0.0000000000000000000 ) ) ;
#228 = DIRECTION ( 'NONE',  ( 0.0000000000000000000, -0.0000000000000000000, 1.000000000000000000 ) ) ;
#229 = COORDINATED_UNIVERSAL_TIME_OFFSET ( 5, 0, .BEHIND. ) ;
#230 = SHAPE_DEFINITION_REPRESENTATION ( #60, #317 ) ;
#231 =( BOUNDED_CURVE ( )  B_SPLINE_CURVE ( 3, ( #115, #314, #379, #200 ),
 .UNSPECIFIED., .F., .T. ) 
 B_SPLINE_CURVE_WITH_KNOTS ( ( 4, 4 ),
 ( 1.570796326794896600, 4.712388980384689700 ),
 .UNSPECIFIED. ) 
 CURVE ( )  GEOMETRIC_REPRESENTATION_ITEM ( )  RATIONAL_B_SPLINE_CURVE ( ( 1.000000000000000000, 0.3333333333333333700, 0.3333333333333333700, 1.000000000000000000 ) ) 
 REPRESENTATION_ITEM ( '' )  );
#232 = CARTESIAN_POINT ( 'NONE',  ( -2.732283464566930900, 2.897637795275589400, 1.448818897637794300 ) ) ;
#233 = DIRECTION ( 'NONE',  ( 0.0000000000000000000, 0.0000000000000000000, -1.000000000000000000 ) ) ;
#234 = APPROVAL ( #104, 'UNSPECIFIED' ) ;
#235 = CARTESIAN_POINT ( 'NONE',  ( -3.149606299212594600, 0.0000000000000000000, -1.771653543307086600 ) ) ;
#236 = CARTESIAN_POINT ( 'NONE',  ( 0.0000000000000000000, 0.0000000000000000000, -1.771653543307086600 ) ) ;
#237 = DIRECTION ( 'NONE',  ( 0.0000000000000000000, 0.0000000000000000000, 1.000000000000000000 ) ) ;
#238 = EDGE_CURVE ( 'NONE', #190, #190, #384, .T. ) ;
#239 = CARTESIAN_POINT ( 'NONE',  ( -5.629921259842520300, 2.480314960629925300, -1.771653543307086600 ) ) ;
#240 = ORIENTED_EDGE ( 'NONE', *, *, #29, .T. ) ;
#241 = CC_DESIGN_DATE_AND_TIME_ASSIGNMENT ( #177, #81, ( #295 ) ) ;
#242 =( BOUNDED_CURVE ( )  B_SPLINE_CURVE ( 3, ( #26, #171, #349, #366 ),
 .UNSPECIFIED., .F., .T. ) 
 B_SPLINE_CURVE_WITH_KNOTS ( ( 4, 4 ),
 ( 1.570796326794896800, 4.712388980384689700 ),
 .UNSPECIFIED. ) 
 CURVE ( )  GEOMETRIC_REPRESENTATION_ITEM ( )  RATIONAL_B_SPLINE_CURVE ( ( 1.000000000000000000, 0.3333333333333333700, 0.3333333333333333700, 1.000000000000000000 ) ) 
 REPRESENTATION_ITEM ( '' )  );
#243 = APPROVAL_DATE_TIME ( #52, #234 ) ;
#244 = PERSON_AND_ORGANIZATION ( #217, #310 ) ;
#245 = COORDINATED_UNIVERSAL_TIME_OFFSET ( 5, 0, .BEHIND. ) ;
#246 = ORIENTED_EDGE ( 'NONE', *, *, #196, .F. ) ;
#247 = FACE_OUTER_BOUND ( 'NONE', #103, .T. ) ;
#248 = PRODUCT_RELATED_PRODUCT_CATEGORY ( 'detail', '', ( #205 ) ) ;
#249 = FACE_OUTER_BOUND ( 'NONE', #170, .T. ) ;
#250 = PERSON_AND_ORGANIZATION_ROLE ( 'creator' ) ;
#251 = ORIENTED_EDGE ( 'NONE', *, *, #238, .T. ) ;
#252 = ORIENTED_EDGE ( 'NONE', *, *, #53, .F. ) ;
#253 = CARTESIAN_POINT ( 'NONE',  ( -5.629921259842520300, 5.629921259842520300, 0.0000000000000000000 ) ) ;
#254 =( NAMED_UNIT ( * ) SI_UNIT ( $, .STERADIAN. ) SOLID_ANGLE_UNIT ( ) );
#255 = CARTESIAN_POINT ( 'NONE',  ( -3.149606299212594600, 0.0000000000000000000, 0.0000000000000000000 ) ) ;
#256 = CC_DESIGN_APPROVAL ( #234, ( #193 ) ) ;
#257 = FACE_OUTER_BOUND ( 'NONE', #156, .T. ) ;
#258 = CARTESIAN_POINT ( 'NONE',  ( -5.629921259842520300, 8.871457127681613700E-017, 1.448818897637795400 ) ) ;
#259 = LOCAL_TIME ( 16, 11, 11.00000000000000000, #229 ) ;
#260 = LOCAL_TIME ( 16, 11, 11.00000000000000000, #245 ) ;
#261 = CARTESIAN_POINT ( 'NONE',  ( -5.629921259842520300, 0.0000000000000000000, -1.448818897637795400 ) ) ;
#262 = EDGE_CURVE ( 'NONE', #327, #327, #167, .T. ) ;
#263 = ADVANCED_FACE ( 'NONE', ( #292, #282 ), #194, .T. ) ;
#264 = CARTESIAN_POINT ( 'NONE',  ( -3.311023622047244900, 0.0000000000000000000, 0.0000000000000000000 ) ) ;
#265 = CARTESIAN_POINT ( 'NONE',  ( -5.629921259842520300, 0.0000000000000000000, -1.933070866141732000 ) ) ;
#266 = EDGE_LOOP ( 'NONE', ( #201 ) ) ;
#267 = CARTESIAN_POINT ( 'NONE',  ( -9.685039370078740700, 0.0000000000000000000, 0.0000000000000000000 ) ) ;
#268 = APPROVAL_PERSON_ORGANIZATION ( #39, #78, #136 ) ;
#269 = CARTESIAN_POINT ( 'NONE',  ( -7.948818897637794500, 1.933070866141731500, -4.734501730132172300E-016 ) ) ;
#270 = ORIENTED_EDGE ( 'NONE', *, *, #262, .T. ) ;
#271 = CYLINDRICAL_SURFACE ( 'NONE', #181, 1.933070866141732600 ) ;
#272 = EDGE_LOOP ( 'NONE', ( #270 ) ) ;
#273 = CC_DESIGN_DATE_AND_TIME_ASSIGNMENT ( #150, #186, ( #193 ) ) ;
#274 = CYLINDRICAL_SURFACE ( 'NONE', #72, 1.933070866141732600 ) ;
#275 = EDGE_LOOP ( 'NONE', ( #342, #348 ) ) ;
#276 = APPROVAL_STATUS ( 'not_yet_approved' ) ;
#277 = DIRECTION ( 'NONE',  ( 0.0000000000000000000, 0.0000000000000000000, -1.000000000000000000 ) ) ;
#278 = DIRECTION ( 'NONE',  ( 0.0000000000000000000, 0.0000000000000000000, -1.000000000000000000 ) ) ;
#279 =( BOUNDED_CURVE ( )  B_SPLINE_CURVE ( 3, ( #258, #340, #140, #110 ),
 .UNSPECIFIED., .F., .T. ) 
 B_SPLINE_CURVE_WITH_KNOTS ( ( 4, 4 ),
 ( 1.570796326794896600, 4.712388980384689700 ),
 .UNSPECIFIED. ) 
 CURVE ( )  GEOMETRIC_REPRESENTATION_ITEM ( )  RATIONAL_B_SPLINE_CURVE ( ( 1.000000000000000000, 0.3333333333333333700, 0.3333333333333333700, 1.000000000000000000 ) ) 
 REPRESENTATION_ITEM ( '' )  );
#280 = EDGE_LOOP ( 'NONE', ( #246 ) ) ;
#281 = DIRECTION ( 'NONE',  ( 1.000000000000000000, 0.0000000000000000000, 0.0000000000000000000 ) ) ;
#282 = FACE_BOUND ( 'NONE', #174, .T. ) ;
#283 = CC_DESIGN_APPROVAL ( #305, ( #356 ) ) ;
#284 = ADVANCED_FACE ( 'NONE', ( #184, #54, #108 ), #274, .T. ) ;
#285 = CARTESIAN_POINT ( 'NONE',  ( -4.744094488188975900, 5.629921259842520300, -2.169578185905787600E-016 ) ) ;
#286 = ADVANCED_FACE ( 'NONE', ( #372, #330 ), #123, .F. ) ;
#287 = CARTESIAN_POINT ( 'NONE',  ( -5.629921259842520300, 0.0000000000000000000, -1.448818897637795400 ) ) ;
#288 = CARTESIAN_POINT ( 'NONE',  ( -2.732283464566930900, 2.897637795275589400, -1.448818897637794900 ) ) ;
#289 = DIMENSIONAL_EXPONENTS ( 1.000000000000000000, 0.0000000000000000000, 0.0000000000000000000, 0.0000000000000000000, 0.0000000000000000000, 0.0000000000000000000, 0.0000000000000000000 ) ;
#290 = DIRECTION ( 'NONE',  ( 1.000000000000000000, 0.0000000000000000000, 0.0000000000000000000 ) ) ;
#291 = AXIS2_PLACEMENT_3D ( 'NONE', #370, #164, #336 ) ;
#292 = FACE_OUTER_BOUND ( 'NONE', #49, .T. ) ;
#293 = VERTEX_POINT ( 'NONE', #71 ) ;
#294 = CARTESIAN_POINT ( 'NONE',  ( -7.948818897637794500, 0.0000000000000000000, 0.0000000000000000000 ) ) ;
#295 = PRODUCT_DEFINITION ( 'UNKNOWN', '', #356, #135 ) ;
#296 = EDGE_LOOP ( 'NONE', ( #240 ) ) ;
#297 = DIRECTION ( 'NONE',  ( 1.000000000000000000, 0.0000000000000000000, -0.0000000000000000000 ) ) ;
#298 = DATE_AND_TIME ( #46, #117 ) ;
#299 = FACE_OUTER_BOUND ( 'NONE', #93, .T. ) ;
#300 = EDGE_CURVE ( 'NONE', #36, #36, #341, .T. ) ;
#301 = FACE_BOUND ( 'NONE', #211, .T. ) ;
#302 = FACE_OUTER_BOUND ( 'NONE', #100, .T. ) ;
#303 = AXIS2_PLACEMENT_3D ( 'NONE', #294, #297, #175 ) ;
#304 = DATE_AND_TIME ( #76, #159 ) ;
#305 = APPROVAL ( #276, 'UNSPECIFIED' ) ;
#306 = APPROVAL_ROLE ( '' ) ;
#307 = CARTESIAN_POINT ( 'NONE',  ( 0.0000000000000000000, 0.8858267716535432900, -2.169578185905787600E-016 ) ) ;
#308 = APPROVAL_STATUS ( 'not_yet_approved' ) ;
#309 =( CONVERSION_BASED_UNIT ( 'INCH', #139 ) LENGTH_UNIT ( ) NAMED_UNIT ( #289 ) );
#310 = ORGANIZATION ( 'UNSPECIFIED', 'UNSPECIFIED', '' ) ;
#311 = ORIENTED_EDGE ( 'NONE', *, *, #187, .F. ) ;
#312 = DIRECTION ( 'NONE',  ( 0.0000000000000000000, 1.000000000000000000, 0.0000000000000000000 ) ) ;
#313 = DIRECTION ( 'NONE',  ( 0.0000000000000000000, 0.0000000000000000000, 1.000000000000000000 ) ) ;
#314 = CARTESIAN_POINT ( 'NONE',  ( -1.763779527559056600, 3.866141732283463900, -1.933070866141732200 ) ) ;
#315 = CARTESIAN_POINT ( 'NONE',  ( 0.0000000000000000000, 0.0000000000000000000, 0.0000000000000000000 ) ) ;
#316 = ADVANCED_FACE ( 'NONE', ( #132, #64 ), #133, .T. ) ;
#317 = ADVANCED_BREP_SHAPE_REPRESENTATION ( '581245030', ( #226, #368 ), #377 ) ;
#318 = CARTESIAN_POINT ( 'NONE',  ( 0.0000000000000000000, 0.0000000000000000000, 0.0000000000000000000 ) ) ;
#319 = EDGE_LOOP ( 'NONE', ( #221, #333 ) ) ;
#320 = DIRECTION ( 'NONE',  ( 0.0000000000000000000, 0.0000000000000000000, -1.000000000000000000 ) ) ;
#321 = DIRECTION ( 'NONE',  ( 0.0000000000000000000, 0.0000000000000000000, -1.000000000000000000 ) ) ;
#322 = CIRCLE ( 'NONE', #145, 1.771653543307086600 ) ;
#323 = DIRECTION ( 'NONE',  ( 1.000000000000000000, 0.0000000000000000000, 0.0000000000000000000 ) ) ;
#324 = CLOSED_SHELL ( 'NONE', ( #91, #141, #17, #286, #344, #148, #47, #316, #263, #197, #284, #59, #94 ) ) ;
#325 = DIRECTION ( 'NONE',  ( -1.000000000000000000, -0.0000000000000000000, -0.0000000000000000000 ) ) ;
#326 = CALENDAR_DATE ( 2015, 4, 12 ) ;
#327 = VERTEX_POINT ( 'NONE', #269 ) ;
#328 = AXIS2_PLACEMENT_3D ( 'NONE', #116, #343, #96 ) ;
#329 = LOCAL_TIME ( 16, 11, 11.00000000000000000, #74 ) ;
#330 = FACE_OUTER_BOUND ( 'NONE', #347, .T. ) ;
#331 = AXIS2_PLACEMENT_3D ( 'NONE', #264, #83, #313 ) ;
#332 = SECURITY_CLASSIFICATION_LEVEL ( 'unclassified' ) ;
#333 = ORIENTED_EDGE ( 'NONE', *, *, #69, .T. ) ;
#334 = MECHANICAL_CONTEXT ( 'NONE', #188, 'mechanical' ) ;
#335 = DIRECTION ( 'NONE',  ( -1.000000000000000000, -0.0000000000000000000, -0.0000000000000000000 ) ) ;
#336 = DIRECTION ( 'NONE',  ( 0.0000000000000000000, 0.0000000000000000000, -1.000000000000000000 ) ) ;
#337 = EDGE_LOOP ( 'NONE', ( #10 ) ) ;
#338 = PLANE ( 'NONE',  #373 ) ;
#339 = AXIS2_PLACEMENT_3D ( 'NONE', #3, #25, #124 ) ;
#340 = CARTESIAN_POINT ( 'NONE',  ( -8.527559055118109300, 2.897637795275589400, 1.448818897637794900 ) ) ;
#341 = CIRCLE ( 'NONE', #57, 1.771653543307086600 ) ;
#342 = ORIENTED_EDGE ( 'NONE', *, *, #89, .F. ) ;
#343 = DIRECTION ( 'NONE',  ( 0.0000000000000000000, -1.000000000000000000, 0.0000000000000000000 ) ) ;
#344 = ADVANCED_FACE ( 'NONE', ( #225, #31 ), #209, .T. ) ;
#345 = CIRCLE ( 'NONE', #128, 1.933070866141731500 ) ;
#346 = DIRECTION ( 'NONE',  ( 0.0000000000000000000, 0.0000000000000000000, -1.000000000000000000 ) ) ;
#347 = EDGE_LOOP ( 'NONE', ( #311 ) ) ;
#348 = ORIENTED_EDGE ( 'NONE', *, *, #69, .F. ) ;
#349 = CARTESIAN_POINT ( 'NONE',  ( -9.496062992125985100, 3.866141732283464400, -1.933070866141731300 ) ) ;
#350 = CARTESIAN_POINT ( 'NONE',  ( -3.311023622047244900, 1.933070866141731500, -4.734501730132172300E-016 ) ) ;
#351 = CIRCLE ( 'NONE', #114, 1.771653543307086600 ) ;
#352 = COORDINATED_UNIVERSAL_TIME_OFFSET ( 5, 0, .BEHIND. ) ;
#353 = DIRECTION ( 'NONE',  ( -1.000000000000000000, -0.0000000000000000000, -0.0000000000000000000 ) ) ;
#354 = ORIENTED_EDGE ( 'NONE', *, *, #213, .T. ) ;
#355 = ORIENTED_EDGE ( 'NONE', *, *, #143, .F. ) ;
#356 = PRODUCT_DEFINITION_FORMATION_WITH_SPECIFIED_SOURCE ( 'ANY', '', #205, .NOT_KNOWN. ) ;
#357 = DIRECTION ( 'NONE',  ( 0.0000000000000000000, 0.0000000000000000000, -1.000000000000000000 ) ) ;
#358 = ORIENTED_EDGE ( 'NONE', *, *, #125, .F. ) ;
#359 = FACE_BOUND ( 'NONE', #146, .T. ) ;
#360 = AXIS2_PLACEMENT_3D ( 'NONE', #106, #335, #277 ) ;
#361 = VERTEX_POINT ( 'NONE', #239 ) ;
#362 = EDGE_LOOP ( 'NONE', ( #199 ) ) ;
#363 = PERSON_AND_ORGANIZATION_ROLE ( 'classification_officer' ) ;
#364 = ORIENTED_EDGE ( 'NONE', *, *, #178, .F. ) ;
#365 = PERSON_AND_ORGANIZATION ( #217, #310 ) ;
#366 = CARTESIAN_POINT ( 'NONE',  ( -5.629921259842520300, 0.0000000000000000000, -1.933070866141732000 ) ) ;
#367 = APPLICATION_CONTEXT ( 'configuration controlled 3d designs of mechanical parts and assemblies' ) ;
#368 = AXIS2_PLACEMENT_3D ( 'NONE', #67, #237, #9 ) ;
#369 = PERSON_AND_ORGANIZATION ( #217, #310 ) ;
#370 = CARTESIAN_POINT ( 'NONE',  ( -5.629921259842520300, 5.629921259842520300, 0.0000000000000000000 ) ) ;
#371 = FACE_OUTER_BOUND ( 'NONE', #275, .T. ) ;
#372 = FACE_OUTER_BOUND ( 'NONE', #182, .T. ) ;
#373 = AXIS2_PLACEMENT_3D ( 'NONE', #285, #376, #228 ) ;
#374 = DIRECTION ( 'NONE',  ( -0.0000000000000000000, -1.000000000000000000, -0.0000000000000000000 ) ) ;
#375 = ORIENTED_EDGE ( 'NONE', *, *, #53, .T. ) ;
#376 = DIRECTION ( 'NONE',  ( 0.0000000000000000000, 1.000000000000000000, 0.0000000000000000000 ) ) ;
#377 =( GEOMETRIC_REPRESENTATION_CONTEXT ( 3 ) GLOBAL_UNCERTAINTY_ASSIGNED_CONTEXT ( ( #120 ) ) GLOBAL_UNIT_ASSIGNED_CONTEXT ( ( #309, #45, #254 ) ) REPRESENTATION_CONTEXT ( 'NONE', 'WORKASPACE' ) );
#378 = PLANE ( 'NONE',  #4 ) ;
#379 = CARTESIAN_POINT ( 'NONE',  ( -1.763779527559056600, 3.866141732283464400, 1.933070866141731300 ) ) ;
#380 = EDGE_LOOP ( 'NONE', ( #382 ) ) ;
#381 = ORIENTED_EDGE ( 'NONE', *, *, #29, .F. ) ;
#382 = ORIENTED_EDGE ( 'NONE', *, *, #238, .F. ) ;
#383 = DIRECTION ( 'NONE',  ( 0.0000000000000000000, 0.0000000000000000000, -1.000000000000000000 ) ) ;
#384 = CIRCLE ( 'NONE', #339, 1.771653543307086600 ) ;
#385 = AXIS2_PLACEMENT_3D ( 'NONE', #5, #353, #212 ) ;
#386 = ORIENTED_EDGE ( 'NONE', *, *, #143, .T. ) ;
ENDSEC;
END-ISO-10303-21;
