ISO-10303-21;
HEADER;
FILE_DESCRIPTION (( 'STEP AP203' ),
    '1' );
FILE_NAME ('581245080.STEP',
    '2017-07-27T19:04:14',
    ( '' ),
    ( '' ),
    'SwSTEP 2.0',
    'SolidWorks 2017',
    '' );
FILE_SCHEMA (( 'CONFIG_CONTROL_DESIGN' ));
ENDSEC;

DATA;
#1 = ORIENTED_EDGE ( 'NONE', *, *, #56, .F. ) ;
#2 = PERSON_AND_ORGANIZATION_ROLE ( 'design_owner' ) ;
#3 = ORIENTED_EDGE ( 'NONE', *, *, #103, .T. ) ;
#4 = DIRECTION ( 'NONE',  ( 1.000000000000000000, 7.148373282923456100E-022, -2.602404478484493100E-021 ) ) ;
#5 = CARTESIAN_POINT ( 'NONE',  ( -19.68503937007874100, 1.049028222406983700E-014, -3.937007874015758800 ) ) ;
#6 = EDGE_LOOP ( 'NONE', ( #88 ) ) ;
#7 = EDGE_CURVE ( 'NONE', #94, #255, #152, .T. ) ;
#8 = DIRECTION ( 'NONE',  ( 1.000000000000000000, 7.148373282923456100E-022, -2.602404478484493100E-021 ) ) ;
#9 = FACE_OUTER_BOUND ( 'NONE', #197, .T. ) ;
#10 = EDGE_LOOP ( 'NONE', ( #110 ) ) ;
#11 = ADVANCED_FACE ( 'NONE', ( #59, #185 ), #38, .F. ) ;
#12 = CALENDAR_DATE ( 2017, 27, 7 ) ;
#13 =( BOUNDED_CURVE ( )  B_SPLINE_CURVE ( 3, ( #198, #262, #322, #62 ),
 .UNSPECIFIED., .F., .T. ) 
 B_SPLINE_CURVE_WITH_KNOTS ( ( 4, 4 ),
 ( 1.570796326794899200, 4.712388980384692300 ),
 .UNSPECIFIED. ) 
 CURVE ( )  GEOMETRIC_REPRESENTATION_ITEM ( )  RATIONAL_B_SPLINE_CURVE ( ( 1.000000000000000000, 0.3333333333333333700, 0.3333333333333333700, 1.000000000000000000 ) ) 
 REPRESENTATION_ITEM ( '' )  );
#14 = CIRCLE ( 'NONE', #45, 3.220472440944890800 ) ;
#15 = ORIENTED_EDGE ( 'NONE', *, *, #217, .T. ) ;
#16 = EDGE_LOOP ( 'NONE', ( #384, #92 ) ) ;
#17 =( BOUNDED_CURVE ( )  B_SPLINE_CURVE ( 3, ( #83, #231, #215, #75 ),
 .UNSPECIFIED., .F., .T. ) 
 B_SPLINE_CURVE_WITH_KNOTS ( ( 4, 4 ),
 ( 1.570796326794893900, 4.712388980384687000 ),
 .UNSPECIFIED. ) 
 CURVE ( )  GEOMETRIC_REPRESENTATION_ITEM ( )  RATIONAL_B_SPLINE_CURVE ( ( 1.000000000000000000, 0.3333333333333333700, 0.3333333333333333700, 1.000000000000000000 ) ) 
 REPRESENTATION_ITEM ( '' )  );
#18 = CARTESIAN_POINT ( 'NONE',  ( -18.43307086614171900, 8.590551181102361200, 4.295275590551178800 ) ) ;
#19 = DIRECTION ( 'NONE',  ( 1.000000000000000000, 7.148373282923456100E-022, -2.602404478484493100E-021 ) ) ;
#20 = ORIENTED_EDGE ( 'NONE', *, *, #72, .F. ) ;
#21 = EDGE_LOOP ( 'NONE', ( #25 ) ) ;
#22 = CARTESIAN_POINT ( 'NONE',  ( -7.874015748031494500, 9.842519685039368600, -2.670784873355996000E-014 ) ) ;
#23 = FACE_BOUND ( 'NONE', #6, .T. ) ;
#24 = CIRCLE ( 'NONE', #274, 3.937007874015758800 ) ;
#25 = ORIENTED_EDGE ( 'NONE', *, *, #217, .F. ) ;
#26 = DIRECTION ( 'NONE',  ( 0.0000000000000000000, 2.664535259100371800E-015, -1.000000000000000000 ) ) ;
#27 = DIRECTION ( 'NONE',  ( 0.0000000000000000000, 1.000000000000000000, -2.909456529864853900E-015 ) ) ;
#28 = CARTESIAN_POINT ( 'NONE',  ( -4.925196850393700900, -3.520714555617219900E-021, 1.281735433848755900E-020 ) ) ;
#29 = CARTESIAN_POINT ( 'NONE',  ( -9.842519685039370400, -1.144492029437729300E-014, 4.295275590551194800 ) ) ;
#30 = FACE_OUTER_BOUND ( 'NONE', #330, .T. ) ;
#31 = EDGE_LOOP ( 'NONE', ( #182, #312 ) ) ;
#32 = CLOSED_SHELL ( 'NONE', ( #300, #78, #334, #11, #227, #129, #223, #250, #267, #346, #294, #137, #210 ) ) ;
#33 = DIRECTION ( 'NONE',  ( -7.148373282747179900E-022, -1.000000000000000000, 2.664535259100378500E-015 ) ) ;
#34 = CC_DESIGN_PERSON_AND_ORGANIZATION_ASSIGNMENT ( #286, #302, ( #150 ) ) ;
#35 = AXIS2_PLACEMENT_3D ( 'NONE', #105, #154, #327 ) ;
#36 = FACE_OUTER_BOUND ( 'NONE', #16, .T. ) ;
#37 = COORDINATED_UNIVERSAL_TIME_OFFSET ( 5, 0, .BEHIND. ) ;
#38 = CYLINDRICAL_SURFACE ( 'NONE', #338, 3.220472440944890800 ) ;
#39 = ORIENTED_EDGE ( 'NONE', *, *, #51, .F. ) ;
#40 = CARTESIAN_POINT ( 'NONE',  ( -9.842519685039370400, 9.842519685039368600, -2.622571512495963500E-014 ) ) ;
#41 = APPLICATION_CONTEXT ( 'configuration controlled 3d designs of mechanical parts and assemblies' ) ;
#42 = CIRCLE ( 'NONE', #306, 4.295275590551180600 ) ;
#43 = MANIFOLD_SOLID_BREP ( '1', #32 ) ;
#44 = ORIENTED_EDGE ( 'NONE', *, *, #7, .T. ) ;
#45 = AXIS2_PLACEMENT_3D ( 'NONE', #307, #385, #155 ) ;
#46 = AXIS2_PLACEMENT_3D ( 'NONE', #95, #303, #130 ) ;
#47 = ORIENTED_EDGE ( 'NONE', *, *, #275, .F. ) ;
#48 = ORIENTED_EDGE ( 'NONE', *, *, #243, .T. ) ;
#49 = DIRECTION ( 'NONE',  ( 1.000000000000000000, 7.148373282923456100E-022, -2.602404478484493100E-021 ) ) ;
#50 = CC_DESIGN_APPROVAL ( #367, ( #150 ) ) ;
#51 = EDGE_CURVE ( 'NONE', #191, #191, #119, .T. ) ;
#52 = AXIS2_PLACEMENT_3D ( 'NONE', #140, #49, #139 ) ;
#53 = PRODUCT ( '581245080', '581245080', '', ( #186 ) ) ;
#54 = ORIENTED_EDGE ( 'NONE', *, *, #296, .T. ) ;
#55 = ORIENTED_EDGE ( 'NONE', *, *, #275, .T. ) ;
#56 = EDGE_CURVE ( 'NONE', #339, #339, #14, .T. ) ;
#57 = CALENDAR_DATE ( 2017, 27, 7 ) ;
#58 = DATE_AND_TIME ( #345, #205 ) ;
#59 = FACE_OUTER_BOUND ( 'NONE', #203, .T. ) ;
#60 = EDGE_LOOP ( 'NONE', ( #216 ) ) ;
#61 = SECURITY_CLASSIFICATION_LEVEL ( 'unclassified' ) ;
#62 = CARTESIAN_POINT ( 'NONE',  ( -9.842519685039370400, -8.383872342331897900E-015, 3.220472440944889500 ) ) ;
#63 =( GEOMETRIC_REPRESENTATION_CONTEXT ( 3 ) GLOBAL_UNCERTAINTY_ASSIGNED_CONTEXT ( ( #347 ) ) GLOBAL_UNIT_ASSIGNED_CONTEXT ( ( #146, #199, #291 ) ) REPRESENTATION_CONTEXT ( 'NONE', 'WORKASPACE' ) );
#64 = ORIENTED_EDGE ( 'NONE', *, *, #349, .T. ) ;
#65 = PERSON ( 'UNSPECIFIED', 'UNSPECIFIED', 'UNSPECIFIED', ('UNSPECIFIED'), ('UNSPECIFIED'), ('UNSPECIFIED') ) ;
#66 = FACE_OUTER_BOUND ( 'NONE', #118, .T. ) ;
#67 = LOCAL_TIME ( 15, 4, 14.00000000000000000, #37 ) ;
#68 = ORIENTED_EDGE ( 'NONE', *, *, #220, .F. ) ;
#69 = APPROVAL_ROLE ( '' ) ;
#70 = AXIS2_PLACEMENT_3D ( 'NONE', #219, #233, #251 ) ;
#71 = DIRECTION ( 'NONE',  ( 1.000000000000000000, 7.148373282923456100E-022, -2.602404478484493100E-021 ) ) ;
#72 = EDGE_CURVE ( 'NONE', #340, #340, #248, .T. ) ;
#73 = DIMENSIONAL_EXPONENTS ( 1.000000000000000000, 0.0000000000000000000, 0.0000000000000000000, 0.0000000000000000000, 0.0000000000000000000, 0.0000000000000000000, 0.0000000000000000000 ) ;
#74 = AXIS2_PLACEMENT_3D ( 'NONE', #107, #226, #360 ) ;
#75 = CARTESIAN_POINT ( 'NONE',  ( -9.842519685039370400, 8.581055334058223000E-015, -3.220472440944886400 ) ) ;
#76 = EDGE_LOOP ( 'NONE', ( #20 ) ) ;
#77 = CARTESIAN_POINT ( 'NONE',  ( -9.842519685039370400, -7.035800473180550600E-021, 2.561421731228570300E-020 ) ) ;
#78 = ADVANCED_FACE ( 'NONE', ( #30, #86 ), #214, .T. ) ;
#79 = CYLINDRICAL_SURFACE ( 'NONE', #52, 3.220472440944890800 ) ;
#80 = CC_DESIGN_SECURITY_CLASSIFICATION ( #150, ( #284 ) ) ;
#81 = DIRECTION ( 'NONE',  ( 1.000000000000000000, 7.148373282923317000E-022, 2.602404478632399300E-021 ) ) ;
#82 = DIRECTION ( 'NONE',  ( 0.0000000000000000000, 2.775557561562883900E-015, -1.000000000000000000 ) ) ;
#83 = CARTESIAN_POINT ( 'NONE',  ( -9.842519685039370400, -8.383872342331897900E-015, 3.220472440944889500 ) ) ;
#84 = PLANE ( 'NONE',  #301 ) ;
#85 = ORIENTED_EDGE ( 'NONE', *, *, #56, .T. ) ;
#86 = FACE_BOUND ( 'NONE', #195, .T. ) ;
#87 = ORIENTED_EDGE ( 'NONE', *, *, #188, .T. ) ;
#88 = ORIENTED_EDGE ( 'NONE', *, *, #243, .F. ) ;
#89 = FACE_OUTER_BOUND ( 'NONE', #133, .T. ) ;
#90 = EDGE_LOOP ( 'NONE', ( #112 ) ) ;
#91 = ORIENTED_EDGE ( 'NONE', *, *, #170, .F. ) ;
#92 = ORIENTED_EDGE ( 'NONE', *, *, #7, .F. ) ;
#93 = DIRECTION ( 'NONE',  ( -2.602404478632397400E-021, -2.664535259100371800E-015, 1.000000000000000000 ) ) ;
#94 = VERTEX_POINT ( 'NONE', #143 ) ;
#95 = CARTESIAN_POINT ( 'NONE',  ( -19.68503937007874100, -1.407160094587583000E-020, 5.122843462457140700E-020 ) ) ;
#96 = CC_DESIGN_DATE_AND_TIME_ASSIGNMENT ( #58, #254, ( #150 ) ) ;
#97 = FACE_BOUND ( 'NONE', #60, .T. ) ;
#98 = CARTESIAN_POINT ( 'NONE',  ( -14.75984251968504100, -1.055088638637641800E-020, 3.841108027540782400E-020 ) ) ;
#99 = DIRECTION ( 'NONE',  ( 7.148373282747040800E-022, 1.000000000000000000, 2.664535259100371800E-015 ) ) ;
#100 =( BOUNDED_CURVE ( )  B_SPLINE_CURVE ( 3, ( #29, #18, #164, #159 ),
 .UNSPECIFIED., .F., .T. ) 
 B_SPLINE_CURVE_WITH_KNOTS ( ( 4, 4 ),
 ( 1.570796326794894100, 4.712388980384687000 ),
 .UNSPECIFIED. ) 
 CURVE ( )  GEOMETRIC_REPRESENTATION_ITEM ( )  RATIONAL_B_SPLINE_CURVE ( ( 1.000000000000000000, 0.3333333333333333700, 0.3333333333333333700, 1.000000000000000000 ) ) 
 REPRESENTATION_ITEM ( '' )  );
#101 = CARTESIAN_POINT ( 'NONE',  ( -17.40157480314960400, -1.243929523814385500E-020, 4.528593620048874000E-020 ) ) ;
#102 = ORIENTED_EDGE ( 'NONE', *, *, #170, .T. ) ;
#103 = EDGE_CURVE ( 'NONE', #142, #252, #17, .T. ) ;
#104 = CONICAL_SURFACE ( 'NONE', #304, 4.295275590551193900, 0.7853981633974528300 ) ;
#105 = CARTESIAN_POINT ( 'NONE',  ( 0.0000000000000000000, 0.0000000000000000000, 0.0000000000000000000 ) ) ;
#106 = DIRECTION ( 'NONE',  ( 2.602404478632397800E-021, 2.664535259100371800E-015, -1.000000000000000000 ) ) ;
#107 = CARTESIAN_POINT ( 'NONE',  ( 0.0000000000000000000, 0.0000000000000000000, 0.0000000000000000000 ) ) ;
#108 = CARTESIAN_POINT ( 'NONE',  ( -9.842519685039370400, -1.144492029437729300E-014, 4.295275590551194800 ) ) ;
#109 = DIRECTION ( 'NONE',  ( 1.000000000000000000, 7.148373282923456100E-022, -2.602404478484493100E-021 ) ) ;
#110 = ORIENTED_EDGE ( 'NONE', *, *, #349, .F. ) ;
#111 = CARTESIAN_POINT ( 'NONE',  ( 0.0000000000000000000, 0.0000000000000000000, 0.0000000000000000000 ) ) ;
#112 = ORIENTED_EDGE ( 'NONE', *, *, #158, .T. ) ;
#113 = CARTESIAN_POINT ( 'NONE',  ( -9.842519685039370400, 4.917322834645671200, -1.310235445907550000E-014 ) ) ;
#114 = DIRECTION ( 'NONE',  ( 1.000000000000000000, 0.0000000000000000000, -2.449238731689728200E-016 ) ) ;
#115 = DIRECTION ( 'NONE',  ( 0.0000000000000000000, 2.664535259100371800E-015, -1.000000000000000000 ) ) ;
#116 = AXIS2_PLACEMENT_3D ( 'NONE', #381, #238, #82 ) ;
#117 = DIRECTION ( 'NONE',  ( 7.148373282747179900E-022, 1.000000000000000000, -2.664535259100378500E-015 ) ) ;
#118 = EDGE_LOOP ( 'NONE', ( #48 ) ) ;
#119 = CIRCLE ( 'NONE', #376, 3.220472440944890800 ) ;
#120 = EDGE_LOOP ( 'NONE', ( #153 ) ) ;
#121 = APPROVAL_STATUS ( 'not_yet_approved' ) ;
#122 = DIRECTION ( 'NONE',  ( 0.0000000000000000000, 2.664535259100371800E-015, -1.000000000000000000 ) ) ;
#123 = EDGE_LOOP ( 'NONE', ( #15 ) ) ;
#124 = DIRECTION ( 'NONE',  ( -1.000000000000000000, -7.148373282923317000E-022, -2.602404478632399300E-021 ) ) ;
#125 = CIRCLE ( 'NONE', #290, 4.295275590551182400 ) ;
#126 = FACE_OUTER_BOUND ( 'NONE', #235, .T. ) ;
#127 = EDGE_CURVE ( 'NONE', #252, #142, #13, .T. ) ;
#128 = EDGE_LOOP ( 'NONE', ( #160 ) ) ;
#129 = ADVANCED_FACE ( 'NONE', ( #256, #361 ), #264, .T. ) ;
#130 = DIRECTION ( 'NONE',  ( 0.0000000000000000000, 2.664535259100371800E-015, -1.000000000000000000 ) ) ;
#131 = DIRECTION ( 'NONE',  ( -2.602404478632397400E-021, -2.664535259100371800E-015, 1.000000000000000000 ) ) ;
#132 = CYLINDRICAL_SURFACE ( 'NONE', #260, 3.937007874015758800 ) ;
#133 = EDGE_LOOP ( 'NONE', ( #1 ) ) ;
#134 = PERSON_AND_ORGANIZATION ( #65, #270 ) ;
#135 = CONICAL_SURFACE ( 'NONE', #221, 4.295275590551192100, 0.7853981633974468400 ) ;
#136 = DIRECTION ( 'NONE',  ( 0.0000000000000000000, -2.664535259100371800E-015, 1.000000000000000000 ) ) ;
#137 = ADVANCED_FACE ( 'NONE', ( #23, #196 ), #104, .T. ) ;
#138 = CARTESIAN_POINT ( 'NONE',  ( -9.842519685039370400, -1.144492029437729300E-014, 4.295275590551194800 ) ) ;
#139 = DIRECTION ( 'NONE',  ( 0.0000000000000000000, 2.664535259100371400E-015, -1.000000000000000000 ) ) ;
#140 = CARTESIAN_POINT ( 'NONE',  ( 0.03937007874015314300, 2.814320482765746400E-023, -1.024568700333450900E-022 ) ) ;
#141 = CC_DESIGN_APPROVAL ( #212, ( #173 ) ) ;
#142 = VERTEX_POINT ( 'NONE', #265 ) ;
#143 = CARTESIAN_POINT ( 'NONE',  ( -9.842519685039370400, 1.144490622277634700E-014, -4.295275590551192100 ) ) ;
#144 = COORDINATED_UNIVERSAL_TIME_OFFSET ( 5, 0, .BEHIND. ) ;
#145 = ORIENTED_EDGE ( 'NONE', *, *, #158, .F. ) ;
#146 =( CONVERSION_BASED_UNIT ( 'INCH', #316 ) LENGTH_UNIT ( ) NAMED_UNIT ( #73 ) );
#147 = CC_DESIGN_PERSON_AND_ORGANIZATION_ASSIGNMENT ( #268, #2, ( #53 ) ) ;
#148 = DIRECTION ( 'NONE',  ( 0.0000000000000000000, 2.775557561562883900E-015, -1.000000000000000000 ) ) ;
#149 = EDGE_LOOP ( 'NONE', ( #351 ) ) ;
#150 = SECURITY_CLASSIFICATION ( '', '', #61 ) ;
#151 = CARTESIAN_POINT ( 'NONE',  ( -14.75984251968504100, 4.295275590551181500, -1.249687920341797600E-014 ) ) ;
#152 =( BOUNDED_CURVE ( )  B_SPLINE_CURVE ( 3, ( #372, #280, #313, #138 ),
 .UNSPECIFIED., .F., .F. ) 
 B_SPLINE_CURVE_WITH_KNOTS ( ( 4, 4 ),
 ( 1.570796326794899200, 4.712388980384692300 ),
 .UNSPECIFIED. ) 
 CURVE ( )  GEOMETRIC_REPRESENTATION_ITEM ( )  RATIONAL_B_SPLINE_CURVE ( ( 1.000000000000000000, 0.3333333333333333700, 0.3333333333333333700, 1.000000000000000000 ) ) 
 REPRESENTATION_ITEM ( '' )  );
#153 = ORIENTED_EDGE ( 'NONE', *, *, #72, .T. ) ;
#154 = DIRECTION ( 'NONE',  ( 0.0000000000000000000, 0.0000000000000000000, 1.000000000000000000 ) ) ;
#155 = DIRECTION ( 'NONE',  ( 0.0000000000000000000, 2.664535259100371400E-015, -1.000000000000000000 ) ) ;
#156 = AXIS2_PLACEMENT_3D ( 'NONE', #244, #383, #200 ) ;
#157 = CARTESIAN_POINT ( 'NONE',  ( -9.842519685039370400, 8.581055334058223000E-015, -3.220472440944886400 ) ) ;
#158 = EDGE_CURVE ( 'NONE', #343, #343, #42, .T. ) ;
#159 = CARTESIAN_POINT ( 'NONE',  ( -9.842519685039370400, 1.144490622277634700E-014, -4.295275590551192100 ) ) ;
#160 = ORIENTED_EDGE ( 'NONE', *, *, #296, .F. ) ;
#161 = EDGE_LOOP ( 'NONE', ( #91 ) ) ;
#162 = CARTESIAN_POINT ( 'NONE',  ( -9.842519685039370400, 9.842519685039377500, -3.220472440944917000 ) ) ;
#163 = SHAPE_DEFINITION_REPRESENTATION ( #380, #234 ) ;
#164 = CARTESIAN_POINT ( 'NONE',  ( -18.43307086614174400, 8.590551181102361200, -4.295275590551178800 ) ) ;
#165 = CARTESIAN_POINT ( 'NONE',  ( -9.842519685039370400, 9.842519685039379200, -3.937007874015785000 ) ) ;
#166 = FACE_BOUND ( 'NONE', #31, .T. ) ;
#167 = AXIS2_PLACEMENT_3D ( 'NONE', #336, #308, #292 ) ;
#168 = APPLICATION_PROTOCOL_DEFINITION ( 'international standard', 'config_control_design', 1994, #41 ) ;
#169 = FACE_BOUND ( 'NONE', #76, .T. ) ;
#170 = EDGE_CURVE ( 'NONE', #325, #325, #24, .T. ) ;
#171 = ORIENTED_EDGE ( 'NONE', *, *, #220, .T. ) ;
#172 = AXIS2_PLACEMENT_3D ( 'NONE', #269, #365, #115 ) ;
#173 = PRODUCT_DEFINITION ( 'UNKNOWN', '', #284, #181 ) ;
#174 = CARTESIAN_POINT ( 'NONE',  ( -19.68503937007874100, 1.968503937007874100, -5.727225405157615800E-015 ) ) ;
#175 =( LENGTH_UNIT ( ) NAMED_UNIT ( * ) SI_UNIT ( $, .METRE. ) );
#176 = DIRECTION ( 'NONE',  ( 7.148373282747179900E-022, 1.000000000000000000, -2.664535259100378500E-015 ) ) ;
#177 = EDGE_LOOP ( 'NONE', ( #64 ) ) ;
#178 = EDGE_LOOP ( 'NONE', ( #39 ) ) ;
#179 = CYLINDRICAL_SURFACE ( 'NONE', #370, 4.295275590551193000 ) ;
#180 = AXIS2_PLACEMENT_3D ( 'NONE', #98, #109, #357 ) ;
#181 = DESIGN_CONTEXT ( 'detailed design', #41, 'design' ) ;
#182 = ORIENTED_EDGE ( 'NONE', *, *, #103, .F. ) ;
#183 = DIRECTION ( 'NONE',  ( 1.000000000000000000, 7.148373282923456100E-022, -2.602404478484493100E-021 ) ) ;
#184 = AXIS2_PLACEMENT_3D ( 'NONE', #242, #71, #26 ) ;
#185 = FACE_OUTER_BOUND ( 'NONE', #178, .T. ) ;
#186 = MECHANICAL_CONTEXT ( 'NONE', #354, 'mechanical' ) ;
#187 = PERSON_AND_ORGANIZATION_ROLE ( 'design_supplier' ) ;
#188 = EDGE_CURVE ( 'NONE', #255, #94, #100, .T. ) ;
#189 = CARTESIAN_POINT ( 'NONE',  ( 1.024568692374962500E-020, 1.049029629567078300E-014, -3.937007874015758800 ) ) ;
#190 = FACE_OUTER_BOUND ( 'NONE', #90, .T. ) ;
#191 = VERTEX_POINT ( 'NONE', #162 ) ;
#192 = ORIENTED_EDGE ( 'NONE', *, *, #127, .T. ) ;
#193 = CARTESIAN_POINT ( 'NONE',  ( -9.842519685039370400, -7.035800473180550600E-021, 2.561421731228570300E-020 ) ) ;
#194 = CYLINDRICAL_SURFACE ( 'NONE', #156, 4.295275590551193000 ) ;
#195 = EDGE_LOOP ( 'NONE', ( #85 ) ) ;
#196 = FACE_OUTER_BOUND ( 'NONE', #201, .T. ) ;
#197 = EDGE_LOOP ( 'NONE', ( #54 ) ) ;
#198 = CARTESIAN_POINT ( 'NONE',  ( -9.842519685039370400, 8.581055334058223000E-015, -3.220472440944886400 ) ) ;
#199 =( NAMED_UNIT ( * ) PLANE_ANGLE_UNIT ( ) SI_UNIT ( $, .RADIAN. ) );
#200 = DIRECTION ( 'NONE',  ( 0.0000000000000000000, 2.671251548708549800E-015, -1.000000000000000000 ) ) ;
#201 = EDGE_LOOP ( 'NONE', ( #171 ) ) ;
#202 = DIRECTION ( 'NONE',  ( 7.148373282747179900E-022, 1.000000000000000000, -2.664535259100378500E-015 ) ) ;
#203 = EDGE_LOOP ( 'NONE', ( #192, #3 ) ) ;
#204 = DIRECTION ( 'NONE',  ( 2.602404478632397400E-021, 2.664535259100371800E-015, -1.000000000000000000 ) ) ;
#205 = LOCAL_TIME ( 15, 4, 14.00000000000000000, #144 ) ;
#206 = AXIS2_PLACEMENT_3D ( 'NONE', #297, #81, #204 ) ;
#207 = PERSON_AND_ORGANIZATION_ROLE ( 'creator' ) ;
#208 = DATE_TIME_ROLE ( 'creation_date' ) ;
#209 = CARTESIAN_POINT ( 'NONE',  ( -4.925196850393700900, 4.295275590551180600, -1.249690479714391100E-014 ) ) ;
#210 = ADVANCED_FACE ( 'NONE', ( #253, #36 ), #194, .T. ) ;
#211 = CC_DESIGN_PERSON_AND_ORGANIZATION_ASSIGNMENT ( #320, #207, ( #284 ) ) ;
#212 = APPROVAL ( #348, 'UNSPECIFIED' ) ;
#213 = CARTESIAN_POINT ( 'NONE',  ( 8.380971903627192400E-021, 8.581062369858700200E-015, -3.220472440944890800 ) ) ;
#214 = PLANE ( 'NONE',  #225 ) ;
#215 = CARTESIAN_POINT ( 'NONE',  ( -16.28346456692914000, 6.440944881889763000, -3.220472440944880200 ) ) ;
#216 = ORIENTED_EDGE ( 'NONE', *, *, #51, .T. ) ;
#217 = EDGE_CURVE ( 'NONE', #326, #326, #311, .T. ) ;
#218 = DIRECTION ( 'NONE',  ( 0.0000000000000000000, 2.498001805406595500E-015, -1.000000000000000000 ) ) ;
#219 = CARTESIAN_POINT ( 'NONE',  ( -4.566929133858272000, -3.264611416919769000E-021, 1.188499683651876700E-020 ) ) ;
#220 = EDGE_CURVE ( 'NONE', #331, #331, #125, .T. ) ;
#221 = AXIS2_PLACEMENT_3D ( 'NONE', #28, #266, #136 ) ;
#222 = EDGE_LOOP ( 'NONE', ( #102 ) ) ;
#223 = ADVANCED_FACE ( 'NONE', ( #344, #97 ), #84, .T. ) ;
#224 = APPROVAL_DATE_TIME ( #317, #367 ) ;
#225 = AXIS2_PLACEMENT_3D ( 'NONE', #174, #124, #131 ) ;
#226 = DIRECTION ( 'NONE',  ( -1.000000000000000000, -7.148373282923456100E-022, 2.602404478484493100E-021 ) ) ;
#227 = ADVANCED_FACE ( 'NONE', ( #329, #319 ), #132, .T. ) ;
#228 = DIRECTION ( 'NONE',  ( 0.0000000000000000000, 2.375171507449900300E-015, -1.000000000000000000 ) ) ;
#229 = CC_DESIGN_PERSON_AND_ORGANIZATION_ASSIGNMENT ( #257, #335, ( #173 ) ) ;
#230 = CIRCLE ( 'NONE', #74, 3.220472440944890800 ) ;
#231 = CARTESIAN_POINT ( 'NONE',  ( -16.28346456692912600, 6.440944881889761200, 3.220472440944881900 ) ) ;
#232 = DIRECTION ( 'NONE',  ( 0.0000000000000000000, 2.664535259100371400E-015, -1.000000000000000000 ) ) ;
#233 = DIRECTION ( 'NONE',  ( 1.000000000000000000, 7.148373282923456100E-022, -2.602404478484493100E-021 ) ) ;
#234 = ADVANCED_BREP_SHAPE_REPRESENTATION ( '581245080', ( #43, #35 ), #63 ) ;
#235 = EDGE_LOOP ( 'NONE', ( #373 ) ) ;
#236 = COORDINATED_UNIVERSAL_TIME_OFFSET ( 5, 0, .BEHIND. ) ;
#237 = LOCAL_TIME ( 15, 4, 14.00000000000000000, #236 ) ;
#238 = DIRECTION ( 'NONE',  ( -7.148373282747179900E-022, -1.000000000000000000, 2.664535259100378500E-015 ) ) ;
#239 = FACE_OUTER_BOUND ( 'NONE', #161, .T. ) ;
#240 = CIRCLE ( 'NONE', #299, 3.937007874015758800 ) ;
#241 = AXIS2_PLACEMENT_3D ( 'NONE', #111, #19, #106 ) ;
#242 = CARTESIAN_POINT ( 'NONE',  ( -2.283464566929136000, -1.632305705790879300E-021, 5.942498410495004400E-021 ) ) ;
#243 = EDGE_CURVE ( 'NONE', #350, #350, #240, .T. ) ;
#244 = CARTESIAN_POINT ( 'NONE',  ( -9.842519685039370400, 2.458661417322834700, -6.551164422429090200E-015 ) ) ;
#245 = APPROVAL_PERSON_ORGANIZATION ( #249, #283, #368 ) ;
#246 = DATE_AND_TIME ( #57, #237 ) ;
#247 = FACE_BOUND ( 'NONE', #21, .T. ) ;
#248 = CIRCLE ( 'NONE', #70, 3.937007874015758800 ) ;
#249 = PERSON_AND_ORGANIZATION ( #65, #270 ) ;
#250 = ADVANCED_FACE ( 'NONE', ( #247, #126 ), #278, .T. ) ;
#251 = DIRECTION ( 'NONE',  ( 0.0000000000000000000, 2.664535259100371800E-015, -1.000000000000000000 ) ) ;
#252 = VERTEX_POINT ( 'NONE', #157 ) ;
#253 = FACE_OUTER_BOUND ( 'NONE', #282, .T. ) ;
#254 = DATE_TIME_ROLE ( 'classification_date' ) ;
#255 = VERTEX_POINT ( 'NONE', #108 ) ;
#256 = FACE_OUTER_BOUND ( 'NONE', #120, .T. ) ;
#257 = PERSON_AND_ORGANIZATION ( #65, #270 ) ;
#258 = DATE_AND_TIME ( #276, #285 ) ;
#259 = COORDINATED_UNIVERSAL_TIME_OFFSET ( 5, 0, .BEHIND. ) ;
#260 = AXIS2_PLACEMENT_3D ( 'NONE', #101, #4, #122 ) ;
#261 = APPROVAL_DATE_TIME ( #258, #212 ) ;
#262 = CARTESIAN_POINT ( 'NONE',  ( -3.401574803149599800, 6.440944881889761200, -3.220472440944881900 ) ) ;
#263 = LOCAL_TIME ( 15, 4, 14.00000000000000000, #259 ) ;
#264 = CYLINDRICAL_SURFACE ( 'NONE', #184, 3.937007874015758800 ) ;
#265 = CARTESIAN_POINT ( 'NONE',  ( -9.842519685039370400, -8.383872342331897900E-015, 3.220472440944889500 ) ) ;
#266 = DIRECTION ( 'NONE',  ( -1.000000000000000000, -7.148373282923456100E-022, 2.602404478484493100E-021 ) ) ;
#267 = ADVANCED_FACE ( 'NONE', ( #190, #169 ), #135, .T. ) ;
#268 = PERSON_AND_ORGANIZATION ( #65, #270 ) ;
#269 = CARTESIAN_POINT ( 'NONE',  ( -15.11811023622047800, -1.080698953041188100E-020, 3.934343779193482800E-020 ) ) ;
#270 = ORGANIZATION ( 'UNSPECIFIED', 'UNSPECIFIED', '' ) ;
#271 = DIRECTION ( 'NONE',  ( -7.148373282747179900E-022, -1.000000000000000000, 2.664535259100378500E-015 ) ) ;
#272 = APPROVAL_PERSON_ORGANIZATION ( #288, #212, #69 ) ;
#273 = DIRECTION ( 'NONE',  ( 0.0000000000000000000, 2.671251548708549400E-015, -1.000000000000000000 ) ) ;
#274 = AXIS2_PLACEMENT_3D ( 'NONE', #40, #202, #218 ) ;
#275 = EDGE_CURVE ( 'NONE', #332, #332, #315, .T. ) ;
#276 = CALENDAR_DATE ( 2017, 27, 7 ) ;
#277 = PERSON_AND_ORGANIZATION ( #65, #270 ) ;
#278 = CONICAL_SURFACE ( 'NONE', #180, 4.295275590551192100, 0.7853981633974468400 ) ;
#279 = COORDINATED_UNIVERSAL_TIME_OFFSET ( 5, 0, .BEHIND. ) ;
#280 = CARTESIAN_POINT ( 'NONE',  ( -1.251968503936999000, 8.590551181102361200, -4.295275590551180600 ) ) ;
#281 = CARTESIAN_POINT ( 'NONE',  ( -9.842519685039370400, 9.842519685039368600, -2.622571512495963500E-014 ) ) ;
#282 = EDGE_LOOP ( 'NONE', ( #68 ) ) ;
#283 = APPROVAL ( #310, 'UNSPECIFIED' ) ;
#284 = PRODUCT_DEFINITION_FORMATION_WITH_SPECIFIED_SOURCE ( 'ANY', '', #53, .NOT_KNOWN. ) ;
#285 = LOCAL_TIME ( 15, 4, 14.00000000000000000, #279 ) ;
#286 = PERSON_AND_ORGANIZATION ( #65, #270 ) ;
#287 = EDGE_LOOP ( 'NONE', ( #47 ) ) ;
#288 = PERSON_AND_ORGANIZATION ( #65, #270 ) ;
#289 = CIRCLE ( 'NONE', #241, 3.937007874015758800 ) ;
#290 = AXIS2_PLACEMENT_3D ( 'NONE', #113, #117, #114 ) ;
#291 =( NAMED_UNIT ( * ) SI_UNIT ( $, .STERADIAN. ) SOLID_ANGLE_UNIT ( ) );
#292 = DIRECTION ( 'NONE',  ( 0.0000000000000000000, 1.000000000000000000, -2.909456529864853500E-015 ) ) ;
#293 = CC_DESIGN_PERSON_AND_ORGANIZATION_ASSIGNMENT ( #134, #187, ( #284 ) ) ;
#294 = ADVANCED_FACE ( 'NONE', ( #369, #352, #366 ), #179, .T. ) ;
#295 = APPROVAL_PERSON_ORGANIZATION ( #277, #367, #337 ) ;
#296 = EDGE_CURVE ( 'NONE', #321, #321, #289, .T. ) ;
#297 = CARTESIAN_POINT ( 'NONE',  ( 0.0000000000000000000, 1.968503937007874100, -5.727276633592228900E-015 ) ) ;
#298 = DATE_AND_TIME ( #12, #263 ) ;
#299 = AXIS2_PLACEMENT_3D ( 'NONE', #333, #176, #148 ) ;
#300 = ADVANCED_FACE ( 'NONE', ( #166, #89, #314 ), #79, .F. ) ;
#301 = AXIS2_PLACEMENT_3D ( 'NONE', #22, #99, #93 ) ;
#302 = PERSON_AND_ORGANIZATION_ROLE ( 'classification_officer' ) ;
#303 = DIRECTION ( 'NONE',  ( -1.000000000000000000, -7.148373282923456100E-022, 2.602404478484493100E-021 ) ) ;
#304 = AXIS2_PLACEMENT_3D ( 'NONE', #374, #328, #273 ) ;
#305 = CYLINDRICAL_SURFACE ( 'NONE', #116, 3.937007874015758800 ) ;
#306 = AXIS2_PLACEMENT_3D ( 'NONE', #362, #8, #27 ) ;
#307 = CARTESIAN_POINT ( 'NONE',  ( -19.68503937007874100, -1.407160094587583000E-020, 5.122843462457140700E-020 ) ) ;
#308 = DIRECTION ( 'NONE',  ( -1.000000000000000000, -7.148373282923456100E-022, 2.602404478484493100E-021 ) ) ;
#309 = APPROVAL_DATE_TIME ( #246, #283 ) ;
#310 = APPROVAL_STATUS ( 'not_yet_approved' ) ;
#311 = CIRCLE ( 'NONE', #172, 3.937007874015758800 ) ;
#312 = ORIENTED_EDGE ( 'NONE', *, *, #127, .F. ) ;
#313 = CARTESIAN_POINT ( 'NONE',  ( -1.251968503937020700, 8.590551181102361200, 4.295275590551178800 ) ) ;
#314 = FACE_OUTER_BOUND ( 'NONE', #10, .T. ) ;
#315 = CIRCLE ( 'NONE', #46, 3.937007874015758800 ) ;
#316 = LENGTH_MEASURE_WITH_UNIT ( LENGTH_MEASURE( 0.02539999999999999900 ), #175 );
#317 = DATE_AND_TIME ( #364, #67 ) ;
#318 = VERTEX_POINT ( 'NONE', #213 ) ;
#319 = FACE_OUTER_BOUND ( 'NONE', #123, .T. ) ;
#320 = PERSON_AND_ORGANIZATION ( #65, #270 ) ;
#321 = VERTEX_POINT ( 'NONE', #189 ) ;
#322 = CARTESIAN_POINT ( 'NONE',  ( -3.401574803149618000, 6.440944881889763000, 3.220472440944880200 ) ) ;
#323 = PRODUCT_RELATED_PRODUCT_CATEGORY ( 'detail', '', ( #53 ) ) ;
#324 = VERTEX_POINT ( 'NONE', #151 ) ;
#325 = VERTEX_POINT ( 'NONE', #165 ) ;
#326 = VERTEX_POINT ( 'NONE', #359 ) ;
#327 = DIRECTION ( 'NONE',  ( 1.000000000000000000, 0.0000000000000000000, 0.0000000000000000000 ) ) ;
#328 = DIRECTION ( 'NONE',  ( -7.148373282747179900E-022, -1.000000000000000000, 2.664535259100378500E-015 ) ) ;
#329 = FACE_OUTER_BOUND ( 'NONE', #287, .T. ) ;
#330 = EDGE_LOOP ( 'NONE', ( #55 ) ) ;
#331 = VERTEX_POINT ( 'NONE', #371 ) ;
#332 = VERTEX_POINT ( 'NONE', #5 ) ;
#333 = CARTESIAN_POINT ( 'NONE',  ( -9.842519685039370400, 5.275590551181102800, -1.405697142198152900E-014 ) ) ;
#334 = ADVANCED_FACE ( 'NONE', ( #9, #386 ), #342, .T. ) ;
#335 = PERSON_AND_ORGANIZATION_ROLE ( 'creator' ) ;
#336 = CARTESIAN_POINT ( 'NONE',  ( -14.75984251968504100, -1.055088638637641800E-020, 3.841108027540782400E-020 ) ) ;
#337 = APPROVAL_ROLE ( '' ) ;
#338 = AXIS2_PLACEMENT_3D ( 'NONE', #193, #33, #355 ) ;
#339 = VERTEX_POINT ( 'NONE', #341 ) ;
#340 = VERTEX_POINT ( 'NONE', #375 ) ;
#341 = CARTESIAN_POINT ( 'NONE',  ( -19.68503937007874100, 8.581048298257753700E-015, -3.220472440944890800 ) ) ;
#342 = PLANE ( 'NONE',  #206 ) ;
#343 = VERTEX_POINT ( 'NONE', #209 ) ;
#344 = FACE_OUTER_BOUND ( 'NONE', #222, .T. ) ;
#345 = CALENDAR_DATE ( 2017, 27, 7 ) ;
#346 = ADVANCED_FACE ( 'NONE', ( #239, #66 ), #305, .T. ) ;
#347 = UNCERTAINTY_MEASURE_WITH_UNIT (LENGTH_MEASURE( 1.000000000000000100E-005 ), #146, 'distance_accuracy_value', 'NONE');
#348 = APPROVAL_STATUS ( 'not_yet_approved' ) ;
#349 = EDGE_CURVE ( 'NONE', #318, #318, #230, .T. ) ;
#350 = VERTEX_POINT ( 'NONE', #379 ) ;
#351 = ORIENTED_EDGE ( 'NONE', *, *, #358, .F. ) ;
#352 = FACE_OUTER_BOUND ( 'NONE', #149, .T. ) ;
#353 = CC_DESIGN_APPROVAL ( #283, ( #284 ) ) ;
#354 = APPLICATION_CONTEXT ( 'configuration controlled 3d designs of mechanical parts and assemblies' ) ;
#355 = DIRECTION ( 'NONE',  ( 0.0000000000000000000, 2.664535259100371400E-015, -1.000000000000000000 ) ) ;
#356 = CC_DESIGN_DATE_AND_TIME_ASSIGNMENT ( #298, #208, ( #173 ) ) ;
#357 = DIRECTION ( 'NONE',  ( 0.0000000000000000000, 2.664535259100372100E-015, -1.000000000000000000 ) ) ;
#358 = EDGE_CURVE ( 'NONE', #324, #324, #377, .T. ) ;
#359 = CARTESIAN_POINT ( 'NONE',  ( -15.11811023622047800, 1.049028548868125400E-014, -3.937007874015758800 ) ) ;
#360 = DIRECTION ( 'NONE',  ( 2.602404478632397400E-021, 2.664535259100371400E-015, -1.000000000000000000 ) ) ;
#361 = FACE_OUTER_BOUND ( 'NONE', #128, .T. ) ;
#362 = CARTESIAN_POINT ( 'NONE',  ( -4.925196850393700900, -3.520714555617219900E-021, 1.281735433848755900E-020 ) ) ;
#363 = APPLICATION_PROTOCOL_DEFINITION ( 'international standard', 'config_control_design', 1994, #354 ) ;
#364 = CALENDAR_DATE ( 2017, 27, 7 ) ;
#365 = DIRECTION ( 'NONE',  ( -1.000000000000000000, -7.148373282923456100E-022, 2.602404478484493100E-021 ) ) ;
#366 = FACE_OUTER_BOUND ( 'NONE', #378, .T. ) ;
#367 = APPROVAL ( #121, 'UNSPECIFIED' ) ;
#368 = APPROVAL_ROLE ( '' ) ;
#369 = FACE_BOUND ( 'NONE', #382, .T. ) ;
#370 = AXIS2_PLACEMENT_3D ( 'NONE', #77, #183, #232 ) ;
#371 = CARTESIAN_POINT ( 'NONE',  ( -5.547244094488188000, 4.917322834645671200, -1.415436999304144400E-014 ) ) ;
#372 = CARTESIAN_POINT ( 'NONE',  ( -9.842519685039370400, 1.144490622277634700E-014, -4.295275590551192100 ) ) ;
#373 = ORIENTED_EDGE ( 'NONE', *, *, #358, .T. ) ;
#374 = CARTESIAN_POINT ( 'NONE',  ( -9.842519685039370400, 4.917322834645671200, -1.310235445907550000E-014 ) ) ;
#375 = CARTESIAN_POINT ( 'NONE',  ( -4.566929133858272000, 1.049029303105936800E-014, -3.937007874015758800 ) ) ;
#376 = AXIS2_PLACEMENT_3D ( 'NONE', #281, #271, #228 ) ;
#377 = CIRCLE ( 'NONE', #167, 4.295275590551181500 ) ;
#378 = EDGE_LOOP ( 'NONE', ( #145 ) ) ;
#379 = CARTESIAN_POINT ( 'NONE',  ( -9.842519685039370400, 5.275590551181113400, -3.937007874015773000 ) ) ;
#380 = PRODUCT_DEFINITION_SHAPE ( 'NONE', 'NONE',  #173 ) ;
#381 = CARTESIAN_POINT ( 'NONE',  ( -9.842519685039370400, 7.559055118110237000, -2.014134327347059000E-014 ) ) ;
#382 = EDGE_LOOP ( 'NONE', ( #87, #44 ) ) ;
#383 = DIRECTION ( 'NONE',  ( -7.148373282747179900E-022, -1.000000000000000000, 2.664535259100378500E-015 ) ) ;
#384 = ORIENTED_EDGE ( 'NONE', *, *, #188, .F. ) ;
#385 = DIRECTION ( 'NONE',  ( 1.000000000000000000, 7.148373282923456100E-022, -2.602404478484493100E-021 ) ) ;
#386 = FACE_BOUND ( 'NONE', #177, .T. ) ;
ENDSEC;
END-ISO-10303-21;
