ISO-10303-21;
HEADER;
FILE_DESCRIPTION (( 'STEP AP203' ),
    '1' );
FILE_NAME ('581245100.STEP',
    '2017-07-27T19:13:04',
    ( '' ),
    ( '' ),
    'SwSTEP 2.0',
    'SolidWorks 2017',
    '' );
FILE_SCHEMA (( 'CONFIG_CONTROL_DESIGN' ));
ENDSEC;

DATA;
#1 = EDGE_LOOP ( 'NONE', ( #250, #139 ) ) ;
#2 = MECHANICAL_CONTEXT ( 'NONE', #21, 'mechanical' ) ;
#3 = CARTESIAN_POINT ( 'NONE',  ( -1.507874015748035900, 10.73622047244094100, 5.368110236220469600 ) ) ;
#4 = CIRCLE ( 'NONE', #234, 4.921259842519685200 ) ;
#5 = CARTESIAN_POINT ( 'NONE',  ( -12.24409448818897600, 2.466168652613666000E-016, 4.027559055118110200 ) ) ;
#6 = DATE_AND_TIME ( #382, #317 ) ;
#7 = DIRECTION ( 'NONE',  ( 0.0000000000000000000, 0.0000000000000000000, -1.000000000000000000 ) ) ;
#8 = DIRECTION ( 'NONE',  ( -1.000000000000000000, -0.0000000000000000000, -0.0000000000000000000 ) ) ;
#9 = AXIS2_PLACEMENT_3D ( 'NONE', #116, #141, #316 ) ;
#10 = EDGE_CURVE ( 'NONE', #63, #63, #42, .T. ) ;
#11 = CARTESIAN_POINT ( 'NONE',  ( -20.29921259842519600, 8.055118110236220400, -4.027559055118108400 ) ) ;
#12 = ORIENTED_EDGE ( 'NONE', *, *, #194, .F. ) ;
#13 = EDGE_CURVE ( 'NONE', #278, #307, #384, .T. ) ;
#14 = ADVANCED_FACE ( 'NONE', ( #327, #322 ), #120, .T. ) ;
#15 = ORIENTED_EDGE ( 'NONE', *, *, #86, .T. ) ;
#16 = DIRECTION ( 'NONE',  ( 1.000000000000000000, 0.0000000000000000000, 0.0000000000000000000 ) ) ;
#17 = ADVANCED_FACE ( 'NONE', ( #268, #100 ), #244, .T. ) ;
#18 = CC_DESIGN_SECURITY_CLASSIFICATION ( #279, ( #74 ) ) ;
#19 = FACE_OUTER_BOUND ( 'NONE', #102, .T. ) ;
#20 = CARTESIAN_POINT ( 'NONE',  ( -1.507874015748035900, 10.73622047244094100, -5.368110236220472200 ) ) ;
#21 = APPLICATION_CONTEXT ( 'configuration controlled 3d designs of mechanical parts and assemblies' ) ;
#22 = DIRECTION ( 'NONE',  ( 1.000000000000000000, 0.0000000000000000000, 0.0000000000000000000 ) ) ;
#23 = AXIS2_PLACEMENT_3D ( 'NONE', #165, #114, #155 ) ;
#24 = APPLICATION_PROTOCOL_DEFINITION ( 'international standard', 'config_control_design', 1994, #21 ) ;
#25 = ORIENTED_EDGE ( 'NONE', *, *, #174, .T. ) ;
#26 = CIRCLE ( 'NONE', #23, 5.368110236220472200 ) ;
#27 = APPROVAL ( #368, 'UNSPECIFIED' ) ;
#28 = DIRECTION ( 'NONE',  ( -1.000000000000000000, -0.0000000000000000000, -0.0000000000000000000 ) ) ;
#29 = PERSON_AND_ORGANIZATION ( #209, #188 ) ;
#30 = EDGE_CURVE ( 'NONE', #128, #37, #232, .T. ) ;
#31 = DIRECTION ( 'NONE',  ( -1.000000000000000000, -0.0000000000000000000, 0.0000000000000000000 ) ) ;
#32 = ADVANCED_FACE ( 'NONE', ( #171, #280 ), #186, .T. ) ;
#33 = ORIENTED_EDGE ( 'NONE', *, *, #13, .T. ) ;
#34 = PLANE ( 'NONE',  #92 ) ;
#35 = EDGE_LOOP ( 'NONE', ( #238 ) ) ;
#36 = CIRCLE ( 'NONE', #9, 4.921259842519685200 ) ;
#37 = VERTEX_POINT ( 'NONE', #343 ) ;
#38 = CARTESIAN_POINT ( 'NONE',  ( -22.98031496062991200, 10.73622047244094100, 5.368110236220469600 ) ) ;
#39 = ORIENTED_EDGE ( 'NONE', *, *, #210, .F. ) ;
#40 = APPROVAL_DATE_TIME ( #175, #104 ) ;
#41 = DIRECTION ( 'NONE',  ( -1.000000000000000000, -0.0000000000000000000, -0.0000000000000000000 ) ) ;
#42 = CIRCLE ( 'NONE', #85, 4.921259842519685200 ) ;
#43 = COORDINATED_UNIVERSAL_TIME_OFFSET ( 5, 0, .BEHIND. ) ;
#44 = ORIENTED_EDGE ( 'NONE', *, *, #216, .T. ) ;
#45 = CARTESIAN_POINT ( 'NONE',  ( -12.24409448818897600, 2.466168652613666000E-016, 4.027559055118110200 ) ) ;
#46 = CARTESIAN_POINT ( 'NONE',  ( -2.913385826771653700, 0.0000000000000000000, 0.0000000000000000000 ) ) ;
#47 = CC_DESIGN_PERSON_AND_ORGANIZATION_ASSIGNMENT ( #323, #342, ( #74 ) ) ;
#48 = AXIS2_PLACEMENT_3D ( 'NONE', #266, #41, #226 ) ;
#49 = CARTESIAN_POINT ( 'NONE',  ( -12.24409448818897600, 0.0000000000000000000, 5.368110236220471300 ) ) ;
#50 = AXIS2_PLACEMENT_3D ( 'NONE', #88, #82, #344 ) ;
#51 = ORIENTED_EDGE ( 'NONE', *, *, #131, .T. ) ;
#52 = APPROVAL_PERSON_ORGANIZATION ( #217, #73, #251 ) ;
#53 = APPROVAL_DATE_TIME ( #147, #73 ) ;
#54 = CARTESIAN_POINT ( 'NONE',  ( -12.24409448818897600, 0.0000000000000000000, -4.027559055118110200 ) ) ;
#55 = DIRECTION ( 'NONE',  ( 0.0000000000000000000, 1.000000000000000000, 0.0000000000000000000 ) ) ;
#56 = DIRECTION ( 'NONE',  ( 0.0000000000000000000, 0.0000000000000000000, -1.000000000000000000 ) ) ;
#57 = FACE_BOUND ( 'NONE', #35, .T. ) ;
#58 = VERTEX_POINT ( 'NONE', #121 ) ;
#59 = DIRECTION ( 'NONE',  ( 0.0000000000000000000, 0.0000000000000000000, -1.000000000000000000 ) ) ;
#60 = CARTESIAN_POINT ( 'NONE',  ( -12.24409448818897600, 0.0000000000000000000, -4.027559055118110200 ) ) ;
#61 = EDGE_CURVE ( 'NONE', #228, #228, #169, .T. ) ;
#62 = CARTESIAN_POINT ( 'NONE',  ( -6.273622047244094400, 5.368110236220472200, -1.314764380658904000E-015 ) ) ;
#63 = VERTEX_POINT ( 'NONE', #199 ) ;
#64 = CYLINDRICAL_SURFACE ( 'NONE', #301, 4.027559055118110200 ) ;
#65 = LOCAL_TIME ( 15, 13, 4.000000000000000000, #281 ) ;
#66 = CARTESIAN_POINT ( 'NONE',  ( -12.24409448818897600, 0.0000000000000000000, 0.0000000000000000000 ) ) ;
#67 = CARTESIAN_POINT ( 'NONE',  ( -12.24409448818897600, 12.20472440944881900, -4.921259842519685200 ) ) ;
#68 = DIRECTION ( 'NONE',  ( 0.0000000000000000000, 0.0000000000000000000, -1.000000000000000000 ) ) ;
#69 = ORIENTED_EDGE ( 'NONE', *, *, #10, .T. ) ;
#70 = CARTESIAN_POINT ( 'NONE',  ( -24.48818897637795200, 0.0000000000000000000, -4.027559055118110200 ) ) ;
#71 = ADVANCED_FACE ( 'NONE', ( #84, #98 ), #304, .T. ) ;
#72 = CIRCLE ( 'NONE', #355, 4.921259842519685200 ) ;
#73 = APPROVAL ( #235, 'UNSPECIFIED' ) ;
#74 = PRODUCT_DEFINITION_FORMATION_WITH_SPECIFIED_SOURCE ( 'ANY', '', #354, .NOT_KNOWN. ) ;
#75 = DIRECTION ( 'NONE',  ( 0.0000000000000000000, 0.0000000000000000000, -1.000000000000000000 ) ) ;
#76 = CC_DESIGN_DATE_AND_TIME_ASSIGNMENT ( #374, #263, ( #279 ) ) ;
#77 = CYLINDRICAL_SURFACE ( 'NONE', #193, 5.368110236220472200 ) ;
#78 = VERTEX_POINT ( 'NONE', #94 ) ;
#79 = DIRECTION ( 'NONE',  ( 0.0000000000000000000, 0.0000000000000000000, -1.000000000000000000 ) ) ;
#80 = EDGE_CURVE ( 'NONE', #37, #128, #337, .T. ) ;
#81 = DIRECTION ( 'NONE',  ( 0.0000000000000000000, 0.0000000000000000000, -1.000000000000000000 ) ) ;
#82 = DIRECTION ( 'NONE',  ( 1.000000000000000000, 0.0000000000000000000, 0.0000000000000000000 ) ) ;
#83 = VERTEX_POINT ( 'NONE', #62 ) ;
#84 = FACE_BOUND ( 'NONE', #310, .T. ) ;
#85 = AXIS2_PLACEMENT_3D ( 'NONE', #265, #233, #56 ) ;
#86 = EDGE_CURVE ( 'NONE', #58, #58, #333, .T. ) ;
#87 = EDGE_CURVE ( 'NONE', #252, #252, #36, .T. ) ;
#88 = CARTESIAN_POINT ( 'NONE',  ( -5.826771653543307400, 0.0000000000000000000, 0.0000000000000000000 ) ) ;
#89 = FACE_OUTER_BOUND ( 'NONE', #187, .T. ) ;
#90 = ORIENTED_EDGE ( 'NONE', *, *, #134, .F. ) ;
#91 = AXIS2_PLACEMENT_3D ( 'NONE', #339, #241, #68 ) ;
#92 = AXIS2_PLACEMENT_3D ( 'NONE', #152, #201, #75 ) ;
#93 = EDGE_LOOP ( 'NONE', ( #12 ) ) ;
#94 = CARTESIAN_POINT ( 'NONE',  ( 0.0000000000000000000, 0.0000000000000000000, -4.027559055118110200 ) ) ;
#95 = PLANE ( 'NONE',  #237 ) ;
#96 = VERTEX_POINT ( 'NONE', #361 ) ;
#97 = ORIENTED_EDGE ( 'NONE', *, *, #277, .F. ) ;
#98 = FACE_OUTER_BOUND ( 'NONE', #285, .T. ) ;
#99 = CARTESIAN_POINT ( 'NONE',  ( -18.21456692913385900, 0.0000000000000000000, 0.0000000000000000000 ) ) ;
#100 = FACE_OUTER_BOUND ( 'NONE', #111, .T. ) ;
#101 = CARTESIAN_POINT ( 'NONE',  ( -6.875984251968502800, 5.931102362204725000, -1.314764380658888500E-015 ) ) ;
#102 = EDGE_LOOP ( 'NONE', ( #39 ) ) ;
#103 = CARTESIAN_POINT ( 'NONE',  ( -18.66141732283464800, 0.0000000000000000000, -4.921259842519685200 ) ) ;
#104 = APPROVAL ( #356, 'UNSPECIFIED' ) ;
#105 = AXIS2_PLACEMENT_3D ( 'NONE', #144, #31, #248 ) ;
#106 = EDGE_LOOP ( 'NONE', ( #157 ) ) ;
#107 = CARTESIAN_POINT ( 'NONE',  ( -12.24409448818897600, 2.466168652613666000E-016, 4.027559055118110200 ) ) ;
#108 = AXIS2_PLACEMENT_3D ( 'NONE', #220, #219, #330 ) ;
#109 = SHAPE_DEFINITION_REPRESENTATION ( #230, #218 ) ;
#110 = CARTESIAN_POINT ( 'NONE',  ( 0.0000000000000000000, 0.0000000000000000000, 0.0000000000000000000 ) ) ;
#111 = EDGE_LOOP ( 'NONE', ( #340 ) ) ;
#112 = AXIS2_PLACEMENT_3D ( 'NONE', #46, #303, #79 ) ;
#113 = AXIS2_PLACEMENT_3D ( 'NONE', #153, #212, #207 ) ;
#114 = DIRECTION ( 'NONE',  ( 1.000000000000000000, -0.0000000000000000000, -0.0000000000000000000 ) ) ;
#115 = DIRECTION ( 'NONE',  ( 0.0000000000000000000, 0.0000000000000000000, -1.000000000000000000 ) ) ;
#116 = CARTESIAN_POINT ( 'NONE',  ( -24.48818897637795200, 0.0000000000000000000, 0.0000000000000000000 ) ) ;
#117 = AXIS2_PLACEMENT_3D ( 'NONE', #110, #351, #16 ) ;
#118 = EDGE_LOOP ( 'NONE', ( #192 ) ) ;
#119 = CARTESIAN_POINT ( 'NONE',  ( -12.24409448818897600, 12.20472440944881900, -4.027559055118110200 ) ) ;
#120 = CYLINDRICAL_SURFACE ( 'NONE', #172, 5.368110236220472200 ) ;
#121 = CARTESIAN_POINT ( 'NONE',  ( -5.826771653543307400, 0.0000000000000000000, -4.921259842519685200 ) ) ;
#122 = DIRECTION ( 'NONE',  ( 1.000000000000000000, 0.0000000000000000000, 0.0000000000000000000 ) ) ;
#123 = ORIENTED_EDGE ( 'NONE', *, *, #131, .F. ) ;
#124 =( NAMED_UNIT ( * ) PLANE_ANGLE_UNIT ( ) SI_UNIT ( $, .RADIAN. ) );
#125 = LENGTH_MEASURE_WITH_UNIT ( LENGTH_MEASURE( 0.02539999999999999900 ), #227 );
#126 = PERSON_AND_ORGANIZATION_ROLE ( 'classification_officer' ) ;
#127 = APPROVAL_PERSON_ORGANIZATION ( #386, #27, #367 ) ;
#128 = VERTEX_POINT ( 'NONE', #49 ) ;
#129 =( NAMED_UNIT ( * ) SI_UNIT ( $, .STERADIAN. ) SOLID_ANGLE_UNIT ( ) );
#130 = CARTESIAN_POINT ( 'NONE',  ( -4.188976377952758200, 8.055118110236220400, 4.027559055118108400 ) ) ;
#131 = EDGE_CURVE ( 'NONE', #325, #325, #178, .T. ) ;
#132 = CARTESIAN_POINT ( 'NONE',  ( -18.21456692913385900, 5.368110236220472200, -1.314764380658904000E-015 ) ) ;
#133 = DIRECTION ( 'NONE',  ( -0.0000000000000000000, -1.000000000000000000, -0.0000000000000000000 ) ) ;
#134 = EDGE_CURVE ( 'NONE', #96, #96, #4, .T. ) ;
#135 = APPROVAL_DATE_TIME ( #6, #27 ) ;
#136 = DIRECTION ( 'NONE',  ( 0.0000000000000000000, 0.0000000000000000000, 1.000000000000000000 ) ) ;
#137 = CC_DESIGN_PERSON_AND_ORGANIZATION_ASSIGNMENT ( #245, #126, ( #279 ) ) ;
#138 = CARTESIAN_POINT ( 'NONE',  ( -12.24409448818897600, 12.20472440944881900, 0.0000000000000000000 ) ) ;
#139 = ORIENTED_EDGE ( 'NONE', *, *, #80, .F. ) ;
#140 = AXIS2_PLACEMENT_3D ( 'NONE', #99, #148, #115 ) ;
#141 = DIRECTION ( 'NONE',  ( -1.000000000000000000, -0.0000000000000000000, -0.0000000000000000000 ) ) ;
#142 = CIRCLE ( 'NONE', #150, 4.921259842519685200 ) ;
#143 = CALENDAR_DATE ( 2017, 27, 7 ) ;
#144 = CARTESIAN_POINT ( 'NONE',  ( -6.273622047244094400, 0.0000000000000000000, 0.0000000000000000000 ) ) ;
#145 = LOCAL_TIME ( 15, 13, 4.000000000000000000, #292 ) ;
#146 = DIRECTION ( 'NONE',  ( 0.0000000000000000000, 1.000000000000000000, 0.0000000000000000000 ) ) ;
#147 = DATE_AND_TIME ( #143, #160 ) ;
#148 = DIRECTION ( 'NONE',  ( 1.000000000000000000, 0.0000000000000000000, -0.0000000000000000000 ) ) ;
#149 = CC_DESIGN_APPROVAL ( #73, ( #279 ) ) ;
#150 = AXIS2_PLACEMENT_3D ( 'NONE', #306, #8, #164 ) ;
#151 = EDGE_LOOP ( 'NONE', ( #69 ) ) ;
#152 = CARTESIAN_POINT ( 'NONE',  ( 0.0000000000000000000, 2.460629921259842600, -6.026606071960512100E-016 ) ) ;
#153 = CARTESIAN_POINT ( 'NONE',  ( -9.783464566929133400, 12.20472440944881900, -6.026606071960512100E-016 ) ) ;
#154 = DIRECTION ( 'NONE',  ( -1.000000000000000000, 0.0000000000000000000, 0.0000000000000000000 ) ) ;
#155 = DIRECTION ( 'NONE',  ( 0.0000000000000000000, 1.000000000000000000, -2.449212707644750100E-016 ) ) ;
#156 = LOCAL_TIME ( 15, 13, 4.000000000000000000, #295 ) ;
#157 = ORIENTED_EDGE ( 'NONE', *, *, #10, .F. ) ;
#158 = ORIENTED_EDGE ( 'NONE', *, *, #277, .T. ) ;
#159 = CARTESIAN_POINT ( 'NONE',  ( -12.24409448818897600, 5.931102362204725000, 0.0000000000000000000 ) ) ;
#160 = LOCAL_TIME ( 15, 13, 4.000000000000000000, #225 ) ;
#161 = PERSON_AND_ORGANIZATION ( #209, #188 ) ;
#162 = ORIENTED_EDGE ( 'NONE', *, *, #30, .T. ) ;
#163 = CC_DESIGN_DATE_AND_TIME_ASSIGNMENT ( #293, #357, ( #298 ) ) ;
#164 = DIRECTION ( 'NONE',  ( 0.0000000000000000000, 0.0000000000000000000, -1.000000000000000000 ) ) ;
#165 = CARTESIAN_POINT ( 'NONE',  ( -6.273622047244094400, 0.0000000000000000000, 0.0000000000000000000 ) ) ;
#166 = AXIS2_PLACEMENT_3D ( 'NONE', #276, #195, #346 ) ;
#167 = FACE_OUTER_BOUND ( 'NONE', #272, .T. ) ;
#168 = FACE_OUTER_BOUND ( 'NONE', #275, .T. ) ;
#169 = CIRCLE ( 'NONE', #302, 5.368110236220472200 ) ;
#170 = ORIENTED_EDGE ( 'NONE', *, *, #13, .F. ) ;
#171 = FACE_OUTER_BOUND ( 'NONE', #286, .T. ) ;
#172 = AXIS2_PLACEMENT_3D ( 'NONE', #336, #133, #335 ) ;
#173 = EDGE_LOOP ( 'NONE', ( #313 ) ) ;
#174 = EDGE_CURVE ( 'NONE', #358, #358, #326, .T. ) ;
#175 = DATE_AND_TIME ( #253, #156 ) ;
#176 = CARTESIAN_POINT ( 'NONE',  ( -12.24409448818897600, 12.20472440944881900, 0.0000000000000000000 ) ) ;
#177 = FACE_OUTER_BOUND ( 'NONE', #364, .T. ) ;
#178 = CIRCLE ( 'NONE', #297, 4.027559055118110200 ) ;
#179 = DIMENSIONAL_EXPONENTS ( 1.000000000000000000, 0.0000000000000000000, 0.0000000000000000000, 0.0000000000000000000, 0.0000000000000000000, 0.0000000000000000000, 0.0000000000000000000 ) ;
#180 = CARTESIAN_POINT ( 'NONE',  ( -20.29921259842519600, 8.055118110236220400, 4.027559055118110200 ) ) ;
#181 = FACE_OUTER_BOUND ( 'NONE', #380, .T. ) ;
#182 = FACE_BOUND ( 'NONE', #211, .T. ) ;
#183 = CC_DESIGN_APPROVAL ( #27, ( #298 ) ) ;
#184 = ADVANCED_FACE ( 'NONE', ( #261, #181, #19 ), #328, .F. ) ;
#185 = FACE_OUTER_BOUND ( 'NONE', #222, .T. ) ;
#186 = CYLINDRICAL_SURFACE ( 'NONE', #112, 4.921259842519685200 ) ;
#187 = EDGE_LOOP ( 'NONE', ( #215 ) ) ;
#188 = ORGANIZATION ( 'UNSPECIFIED', 'UNSPECIFIED', '' ) ;
#189 = PLANE ( 'NONE',  #113 ) ;
#190 = EDGE_LOOP ( 'NONE', ( #51 ) ) ;
#191 = CYLINDRICAL_SURFACE ( 'NONE', #256, 4.921259842519685200 ) ;
#192 = ORIENTED_EDGE ( 'NONE', *, *, #334, .T. ) ;
#193 = AXIS2_PLACEMENT_3D ( 'NONE', #314, #122, #81 ) ;
#194 = EDGE_CURVE ( 'NONE', #229, #229, #142, .T. ) ;
#195 = DIRECTION ( 'NONE',  ( 1.000000000000000000, 0.0000000000000000000, 0.0000000000000000000 ) ) ;
#196 = ORIENTED_EDGE ( 'NONE', *, *, #210, .T. ) ;
#197 = FACE_BOUND ( 'NONE', #190, .T. ) ;
#198 = CARTESIAN_POINT ( 'NONE',  ( -12.24409448818897600, 0.0000000000000000000, 5.368110236220471300 ) ) ;
#199 = CARTESIAN_POINT ( 'NONE',  ( 0.0000000000000000000, 0.0000000000000000000, -4.921259842519685200 ) ) ;
#200 = ADVANCED_FACE ( 'NONE', ( #373, #289 ), #34, .T. ) ;
#201 = DIRECTION ( 'NONE',  ( 1.000000000000000000, 0.0000000000000000000, 0.0000000000000000000 ) ) ;
#202 = ADVANCED_FACE ( 'NONE', ( #243, #197 ), #189, .T. ) ;
#203 = CARTESIAN_POINT ( 'NONE',  ( -12.24409448818897600, 0.0000000000000000000, -5.368110236220471300 ) ) ;
#204 = FACE_OUTER_BOUND ( 'NONE', #270, .T. ) ;
#205 = ADVANCED_FACE ( 'NONE', ( #236, #57 ), #319, .T. ) ;
#206 = CARTESIAN_POINT ( 'NONE',  ( -12.24409448818897600, 9.291338582677166600, 0.0000000000000000000 ) ) ;
#207 = DIRECTION ( 'NONE',  ( -1.000000000000000000, -9.094947017729280600E-016, 0.0000000000000000000 ) ) ;
#208 = CC_DESIGN_PERSON_AND_ORGANIZATION_ASSIGNMENT ( #291, #360, ( #298 ) ) ;
#209 = PERSON ( 'UNSPECIFIED', 'UNSPECIFIED', 'UNSPECIFIED', ('UNSPECIFIED'), ('UNSPECIFIED'), ('UNSPECIFIED') ) ;
#210 = EDGE_CURVE ( 'NONE', #78, #78, #283, .T. ) ;
#211 = EDGE_LOOP ( 'NONE', ( #162, #321 ) ) ;
#212 = DIRECTION ( 'NONE',  ( -9.094947017729280600E-016, 1.000000000000000000, 2.227545981117800000E-031 ) ) ;
#213 =( CONVERSION_BASED_UNIT ( 'INCH', #125 ) LENGTH_UNIT ( ) NAMED_UNIT ( #179 ) );
#214 = DIRECTION ( 'NONE',  ( 0.0000000000000000000, 0.0000000000000000000, -1.000000000000000000 ) ) ;
#215 = ORIENTED_EDGE ( 'NONE', *, *, #87, .T. ) ;
#216 = EDGE_CURVE ( 'NONE', #320, #320, #345, .T. ) ;
#217 = PERSON_AND_ORGANIZATION ( #209, #188 ) ;
#218 = ADVANCED_BREP_SHAPE_REPRESENTATION ( '581245100', ( #271, #117 ), #262 ) ;
#219 = DIRECTION ( 'NONE',  ( 0.0000000000000000000, -1.000000000000000000, 0.0000000000000000000 ) ) ;
#220 = CARTESIAN_POINT ( 'NONE',  ( -12.24409448818897600, 5.931102362204724100, 0.0000000000000000000 ) ) ;
#221 = DIRECTION ( 'NONE',  ( -0.0000000000000000000, -1.000000000000000000, -0.0000000000000000000 ) ) ;
#222 = EDGE_LOOP ( 'NONE', ( #123 ) ) ;
#223 = EDGE_LOOP ( 'NONE', ( #318 ) ) ;
#224 = CC_DESIGN_PERSON_AND_ORGANIZATION_ASSIGNMENT ( #161, #347, ( #74 ) ) ;
#225 = COORDINATED_UNIVERSAL_TIME_OFFSET ( 5, 0, .BEHIND. ) ;
#226 = DIRECTION ( 'NONE',  ( 0.0000000000000000000, 0.0000000000000000000, -1.000000000000000000 ) ) ;
#227 =( LENGTH_UNIT ( ) NAMED_UNIT ( * ) SI_UNIT ( $, .METRE. ) );
#228 = VERTEX_POINT ( 'NONE', #132 ) ;
#229 = VERTEX_POINT ( 'NONE', #103 ) ;
#230 = PRODUCT_DEFINITION_SHAPE ( 'NONE', 'NONE',  #298 ) ;
#231 = ORIENTED_EDGE ( 'NONE', *, *, #174, .F. ) ;
#232 =( BOUNDED_CURVE ( )  B_SPLINE_CURVE ( 3, ( #348, #38, #296, #240 ),
 .UNSPECIFIED., .F., .T. ) 
 B_SPLINE_CURVE_WITH_KNOTS ( ( 4, 4 ),
 ( 1.570796326794896800, 4.712388980384689700 ),
 .UNSPECIFIED. ) 
 CURVE ( )  GEOMETRIC_REPRESENTATION_ITEM ( )  RATIONAL_B_SPLINE_CURVE ( ( 1.000000000000000000, 0.3333333333333333700, 0.3333333333333333700, 1.000000000000000000 ) ) 
 REPRESENTATION_ITEM ( '' )  );
#233 = DIRECTION ( 'NONE',  ( 1.000000000000000000, 0.0000000000000000000, 0.0000000000000000000 ) ) ;
#234 = AXIS2_PLACEMENT_3D ( 'NONE', #366, #55, #59 ) ;
#235 = APPROVAL_STATUS ( 'not_yet_approved' ) ;
#236 = FACE_OUTER_BOUND ( 'NONE', #118, .T. ) ;
#237 = AXIS2_PLACEMENT_3D ( 'NONE', #371, #154, #136 ) ;
#238 = ORIENTED_EDGE ( 'NONE', *, *, #86, .F. ) ;
#239 = CALENDAR_DATE ( 2017, 27, 7 ) ;
#240 = CARTESIAN_POINT ( 'NONE',  ( -12.24409448818897600, 0.0000000000000000000, -5.368110236220471300 ) ) ;
#241 = DIRECTION ( 'NONE',  ( 1.000000000000000000, 0.0000000000000000000, 0.0000000000000000000 ) ) ;
#242 = DIRECTION ( 'NONE',  ( 0.0000000000000000000, -1.000000000000000000, 0.0000000000000000000 ) ) ;
#243 = FACE_OUTER_BOUND ( 'NONE', #173, .T. ) ;
#244 = CONICAL_SURFACE ( 'NONE', #140, 5.368110236220471300, 0.7853981633974465000 ) ;
#245 = PERSON_AND_ORGANIZATION ( #209, #188 ) ;
#246 = ORIENTED_EDGE ( 'NONE', *, *, #216, .F. ) ;
#247 = APPROVAL_PERSON_ORGANIZATION ( #29, #104, #353 ) ;
#248 = DIRECTION ( 'NONE',  ( 0.0000000000000000000, 0.0000000000000000000, 1.000000000000000000 ) ) ;
#249 = ADVANCED_FACE ( 'NONE', ( #204, #185 ), #64, .F. ) ;
#250 = ORIENTED_EDGE ( 'NONE', *, *, #30, .F. ) ;
#251 = APPROVAL_ROLE ( '' ) ;
#252 = VERTEX_POINT ( 'NONE', #352 ) ;
#253 = CALENDAR_DATE ( 2017, 27, 7 ) ;
#254 = ORIENTED_EDGE ( 'NONE', *, *, #308, .F. ) ;
#255 = CARTESIAN_POINT ( 'NONE',  ( -12.24409448818897600, 0.0000000000000000000, -4.027559055118110200 ) ) ;
#256 = AXIS2_PLACEMENT_3D ( 'NONE', #206, #221, #372 ) ;
#257 = DIRECTION ( 'NONE',  ( 0.0000000000000000000, 0.0000000000000000000, -1.000000000000000000 ) ) ;
#258 = FACE_OUTER_BOUND ( 'NONE', #223, .T. ) ;
#259 = EDGE_LOOP ( 'NONE', ( #44 ) ) ;
#260 = ORIENTED_EDGE ( 'NONE', *, *, #134, .T. ) ;
#261 = FACE_BOUND ( 'NONE', #338, .T. ) ;
#262 =( GEOMETRIC_REPRESENTATION_CONTEXT ( 3 ) GLOBAL_UNCERTAINTY_ASSIGNED_CONTEXT ( ( #264 ) ) GLOBAL_UNIT_ASSIGNED_CONTEXT ( ( #213, #124, #129 ) ) REPRESENTATION_CONTEXT ( 'NONE', 'WORKASPACE' ) );
#263 = DATE_TIME_ROLE ( 'classification_date' ) ;
#264 = UNCERTAINTY_MEASURE_WITH_UNIT (LENGTH_MEASURE( 1.000000000000000100E-005 ), #213, 'distance_accuracy_value', 'NONE');
#265 = CARTESIAN_POINT ( 'NONE',  ( 0.0000000000000000000, 0.0000000000000000000, 0.0000000000000000000 ) ) ;
#266 = CARTESIAN_POINT ( 'NONE',  ( 0.0000000000000000000, 0.0000000000000000000, 0.0000000000000000000 ) ) ;
#267 = VERTEX_POINT ( 'NONE', #67 ) ;
#268 = FACE_BOUND ( 'NONE', #93, .T. ) ;
#269 = ADVANCED_FACE ( 'NONE', ( #182, #258, #167 ), #77, .T. ) ;
#270 = EDGE_LOOP ( 'NONE', ( #158, #33 ) ) ;
#271 = MANIFOLD_SOLID_BREP ( '1', #362 ) ;
#272 = EDGE_LOOP ( 'NONE', ( #312 ) ) ;
#273 = FACE_BOUND ( 'NONE', #259, .T. ) ;
#274 = EDGE_LOOP ( 'NONE', ( #385 ) ) ;
#275 = EDGE_LOOP ( 'NONE', ( #309 ) ) ;
#276 = CARTESIAN_POINT ( 'NONE',  ( 0.03937007874015748000, 0.0000000000000000000, 0.0000000000000000000 ) ) ;
#277 = EDGE_CURVE ( 'NONE', #307, #278, #290, .T. ) ;
#278 = VERTEX_POINT ( 'NONE', #45 ) ;
#279 = SECURITY_CLASSIFICATION ( '', '', #331 ) ;
#280 = FACE_OUTER_BOUND ( 'NONE', #106, .T. ) ;
#281 = COORDINATED_UNIVERSAL_TIME_OFFSET ( 5, 0, .BEHIND. ) ;
#282 = DIRECTION ( 'NONE',  ( 0.0000000000000000000, -1.000000000000000000, 0.0000000000000000000 ) ) ;
#283 = CIRCLE ( 'NONE', #48, 4.027559055118110200 ) ;
#284 = CARTESIAN_POINT ( 'NONE',  ( -4.188976377952758200, 8.055118110236220400, -4.027559055118110200 ) ) ;
#285 = EDGE_LOOP ( 'NONE', ( #25 ) ) ;
#286 = EDGE_LOOP ( 'NONE', ( #15 ) ) ;
#287 = ADVANCED_FACE ( 'NONE', ( #305, #168 ), #381, .T. ) ;
#288 = DIRECTION ( 'NONE',  ( 0.0000000000000000000, 1.000000000000000000, -2.449212707644750100E-016 ) ) ;
#289 = FACE_BOUND ( 'NONE', #375, .T. ) ;
#290 =( BOUNDED_CURVE ( )  B_SPLINE_CURVE ( 3, ( #54, #284, #130, #5 ),
 .UNSPECIFIED., .F., .T. ) 
 B_SPLINE_CURVE_WITH_KNOTS ( ( 4, 4 ),
 ( 1.570796326794896600, 4.712388980384689700 ),
 .UNSPECIFIED. ) 
 CURVE ( )  GEOMETRIC_REPRESENTATION_ITEM ( )  RATIONAL_B_SPLINE_CURVE ( ( 1.000000000000000000, 0.3333333333333333700, 0.3333333333333333700, 1.000000000000000000 ) ) 
 REPRESENTATION_ITEM ( '' )  );
#291 = PERSON_AND_ORGANIZATION ( #209, #188 ) ;
#292 = COORDINATED_UNIVERSAL_TIME_OFFSET ( 5, 0, .BEHIND. ) ;
#293 = DATE_AND_TIME ( #299, #145 ) ;
#294 = CARTESIAN_POINT ( 'NONE',  ( -18.21456692913385900, 0.0000000000000000000, 0.0000000000000000000 ) ) ;
#295 = COORDINATED_UNIVERSAL_TIME_OFFSET ( 5, 0, .BEHIND. ) ;
#296 = CARTESIAN_POINT ( 'NONE',  ( -22.98031496062991200, 10.73622047244094100, -5.368110236220469600 ) ) ;
#297 = AXIS2_PLACEMENT_3D ( 'NONE', #138, #282, #7 ) ;
#298 = PRODUCT_DEFINITION ( 'UNKNOWN', '', #74, #363 ) ;
#299 = CALENDAR_DATE ( 2017, 27, 7 ) ;
#300 = CC_DESIGN_APPROVAL ( #104, ( #74 ) ) ;
#301 = AXIS2_PLACEMENT_3D ( 'NONE', #66, #242, #214 ) ;
#302 = AXIS2_PLACEMENT_3D ( 'NONE', #294, #28, #288 ) ;
#303 = DIRECTION ( 'NONE',  ( 1.000000000000000000, 0.0000000000000000000, 0.0000000000000000000 ) ) ;
#304 = CONICAL_SURFACE ( 'NONE', #108, 5.368110236220475800, 0.7853981633974520500 ) ;
#305 = FACE_OUTER_BOUND ( 'NONE', #274, .T. ) ;
#306 = CARTESIAN_POINT ( 'NONE',  ( -18.66141732283464800, 0.0000000000000000000, 0.0000000000000000000 ) ) ;
#307 = VERTEX_POINT ( 'NONE', #255 ) ;
#308 = EDGE_CURVE ( 'NONE', #267, #267, #72, .T. ) ;
#309 = ORIENTED_EDGE ( 'NONE', *, *, #194, .T. ) ;
#310 = EDGE_LOOP ( 'NONE', ( #90 ) ) ;
#311 = FACE_OUTER_BOUND ( 'NONE', #315, .T. ) ;
#312 = ORIENTED_EDGE ( 'NONE', *, *, #334, .F. ) ;
#313 = ORIENTED_EDGE ( 'NONE', *, *, #308, .T. ) ;
#314 = CARTESIAN_POINT ( 'NONE',  ( -12.24409448818897600, 0.0000000000000000000, 0.0000000000000000000 ) ) ;
#315 = EDGE_LOOP ( 'NONE', ( #260 ) ) ;
#316 = DIRECTION ( 'NONE',  ( 0.0000000000000000000, 0.0000000000000000000, -1.000000000000000000 ) ) ;
#317 = LOCAL_TIME ( 15, 13, 4.000000000000000000, #43 ) ;
#318 = ORIENTED_EDGE ( 'NONE', *, *, #61, .F. ) ;
#319 = CONICAL_SURFACE ( 'NONE', #105, 5.368110236220471300, 0.7853981633974458400 ) ;
#320 = VERTEX_POINT ( 'NONE', #70 ) ;
#321 = ORIENTED_EDGE ( 'NONE', *, *, #80, .T. ) ;
#322 = FACE_OUTER_BOUND ( 'NONE', #1, .T. ) ;
#323 = PERSON_AND_ORGANIZATION ( #209, #188 ) ;
#324 = ADVANCED_FACE ( 'NONE', ( #177, #311 ), #191, .T. ) ;
#325 = VERTEX_POINT ( 'NONE', #119 ) ;
#326 = CIRCLE ( 'NONE', #349, 5.368110236220474000 ) ;
#327 = FACE_OUTER_BOUND ( 'NONE', #365, .T. ) ;
#328 = CYLINDRICAL_SURFACE ( 'NONE', #166, 4.027559055118110200 ) ;
#329 = DIRECTION ( 'NONE',  ( 0.0000000000000000000, 1.000000000000000000, 0.0000000000000000000 ) ) ;
#330 = DIRECTION ( 'NONE',  ( 0.0000000000000000000, 0.0000000000000000000, -1.000000000000000000 ) ) ;
#331 = SECURITY_CLASSIFICATION_LEVEL ( 'unclassified' ) ;
#332 = CARTESIAN_POINT ( 'NONE',  ( -21.57480314960630000, 0.0000000000000000000, 0.0000000000000000000 ) ) ;
#333 = CIRCLE ( 'NONE', #50, 4.921259842519685200 ) ;
#334 = EDGE_CURVE ( 'NONE', #83, #83, #26, .T. ) ;
#335 = DIRECTION ( 'NONE',  ( 0.0000000000000000000, 0.0000000000000000000, -1.000000000000000000 ) ) ;
#336 = CARTESIAN_POINT ( 'NONE',  ( -12.24409448818897600, 2.965551181102362500, 0.0000000000000000000 ) ) ;
#337 =( BOUNDED_CURVE ( )  B_SPLINE_CURVE ( 3, ( #203, #20, #3, #198 ),
 .UNSPECIFIED., .F., .T. ) 
 B_SPLINE_CURVE_WITH_KNOTS ( ( 4, 4 ),
 ( 1.570796326794896600, 4.712388980384689700 ),
 .UNSPECIFIED. ) 
 CURVE ( )  GEOMETRIC_REPRESENTATION_ITEM ( )  RATIONAL_B_SPLINE_CURVE ( ( 1.000000000000000000, 0.3333333333333333700, 0.3333333333333333700, 1.000000000000000000 ) ) 
 REPRESENTATION_ITEM ( '' )  );
#338 = EDGE_LOOP ( 'NONE', ( #170, #97 ) ) ;
#339 = CARTESIAN_POINT ( 'NONE',  ( -24.48818897637795200, 0.0000000000000000000, 0.0000000000000000000 ) ) ;
#340 = ORIENTED_EDGE ( 'NONE', *, *, #61, .T. ) ;
#341 = DIRECTION ( 'NONE',  ( 0.0000000000000000000, 0.0000000000000000000, -1.000000000000000000 ) ) ;
#342 = PERSON_AND_ORGANIZATION_ROLE ( 'design_supplier' ) ;
#343 = CARTESIAN_POINT ( 'NONE',  ( -12.24409448818897600, 0.0000000000000000000, -5.368110236220471300 ) ) ;
#344 = DIRECTION ( 'NONE',  ( 0.0000000000000000000, 0.0000000000000000000, -1.000000000000000000 ) ) ;
#345 = CIRCLE ( 'NONE', #91, 4.027559055118110200 ) ;
#346 = DIRECTION ( 'NONE',  ( 0.0000000000000000000, 0.0000000000000000000, -1.000000000000000000 ) ) ;
#347 = PERSON_AND_ORGANIZATION_ROLE ( 'creator' ) ;
#348 = CARTESIAN_POINT ( 'NONE',  ( -12.24409448818897600, 0.0000000000000000000, 5.368110236220471300 ) ) ;
#349 = AXIS2_PLACEMENT_3D ( 'NONE', #159, #329, #370 ) ;
#350 = PRODUCT_RELATED_PRODUCT_CATEGORY ( 'detail', '', ( #354 ) ) ;
#351 = DIRECTION ( 'NONE',  ( 0.0000000000000000000, 0.0000000000000000000, 1.000000000000000000 ) ) ;
#352 = CARTESIAN_POINT ( 'NONE',  ( -24.48818897637795200, 0.0000000000000000000, -4.921259842519685200 ) ) ;
#353 = APPROVAL_ROLE ( '' ) ;
#354 = PRODUCT ( '581245100', '581245100', '', ( #2 ) ) ;
#355 = AXIS2_PLACEMENT_3D ( 'NONE', #176, #146, #341 ) ;
#356 = APPROVAL_STATUS ( 'not_yet_approved' ) ;
#357 = DATE_TIME_ROLE ( 'creation_date' ) ;
#358 = VERTEX_POINT ( 'NONE', #101 ) ;
#359 = AXIS2_PLACEMENT_3D ( 'NONE', #332, #22, #257 ) ;
#360 = PERSON_AND_ORGANIZATION_ROLE ( 'creator' ) ;
#361 = CARTESIAN_POINT ( 'NONE',  ( -12.24409448818897600, 6.377952755905512000, -4.921259842519685200 ) ) ;
#362 = CLOSED_SHELL ( 'NONE', ( #184, #376, #200, #249, #287, #32, #202, #17, #205, #324, #269, #71, #14 ) ) ;
#363 = DESIGN_CONTEXT ( 'detailed design', #379, 'design' ) ;
#364 = EDGE_LOOP ( 'NONE', ( #254 ) ) ;
#365 = EDGE_LOOP ( 'NONE', ( #231 ) ) ;
#366 = CARTESIAN_POINT ( 'NONE',  ( -12.24409448818897600, 6.377952755905512000, 0.0000000000000000000 ) ) ;
#367 = APPROVAL_ROLE ( '' ) ;
#368 = APPROVAL_STATUS ( 'not_yet_approved' ) ;
#369 = CC_DESIGN_PERSON_AND_ORGANIZATION_ASSIGNMENT ( #378, #383, ( #354 ) ) ;
#370 = DIRECTION ( 'NONE',  ( 1.000000000000000000, 0.0000000000000000000, -2.449212707644720000E-016 ) ) ;
#371 = CARTESIAN_POINT ( 'NONE',  ( -24.48818897637795200, 2.460629921259842600, -6.026606071960512100E-016 ) ) ;
#372 = DIRECTION ( 'NONE',  ( 0.0000000000000000000, 0.0000000000000000000, -1.000000000000000000 ) ) ;
#373 = FACE_OUTER_BOUND ( 'NONE', #151, .T. ) ;
#374 = DATE_AND_TIME ( #239, #65 ) ;
#375 = EDGE_LOOP ( 'NONE', ( #196 ) ) ;
#376 = ADVANCED_FACE ( 'NONE', ( #89, #273 ), #95, .T. ) ;
#377 = APPLICATION_PROTOCOL_DEFINITION ( 'international standard', 'config_control_design', 1994, #379 ) ;
#378 = PERSON_AND_ORGANIZATION ( #209, #188 ) ;
#379 = APPLICATION_CONTEXT ( 'configuration controlled 3d designs of mechanical parts and assemblies' ) ;
#380 = EDGE_LOOP ( 'NONE', ( #246 ) ) ;
#381 = CYLINDRICAL_SURFACE ( 'NONE', #359, 4.921259842519685200 ) ;
#382 = CALENDAR_DATE ( 2017, 27, 7 ) ;
#383 = PERSON_AND_ORGANIZATION_ROLE ( 'design_owner' ) ;
#384 =( BOUNDED_CURVE ( )  B_SPLINE_CURVE ( 3, ( #107, #180, #11, #60 ),
 .UNSPECIFIED., .F., .T. ) 
 B_SPLINE_CURVE_WITH_KNOTS ( ( 4, 4 ),
 ( 1.570796326794896600, 4.712388980384689700 ),
 .UNSPECIFIED. ) 
 CURVE ( )  GEOMETRIC_REPRESENTATION_ITEM ( )  RATIONAL_B_SPLINE_CURVE ( ( 1.000000000000000000, 0.3333333333333333700, 0.3333333333333333700, 1.000000000000000000 ) ) 
 REPRESENTATION_ITEM ( '' )  );
#385 = ORIENTED_EDGE ( 'NONE', *, *, #87, .F. ) ;
#386 = PERSON_AND_ORGANIZATION ( #209, #188 ) ;
ENDSEC;
END-ISO-10303-21;
