ISO-10303-21;
HEADER;
FILE_DESCRIPTION (( 'STEP AP203' ),
    '1' );
FILE_NAME ('581245120.STEP',
    '2017-07-27T19:18:05',
    ( '' ),
    ( '' ),
    'SwSTEP 2.0',
    'SolidWorks 2017',
    '' );
FILE_SCHEMA (( 'CONFIG_CONTROL_DESIGN' ));
ENDSEC;

DATA;
#1 = APPLICATION_PROTOCOL_DEFINITION ( 'international standard', 'config_control_design', 1994, #6 ) ;
#2 = EDGE_LOOP ( 'NONE', ( #151 ) ) ;
#3 = APPROVAL_STATUS ( 'not_yet_approved' ) ;
#4 = FACE_OUTER_BOUND ( 'NONE', #2, .T. ) ;
#5 = AXIS2_PLACEMENT_3D ( 'NONE', #14, #345, #140 ) ;
#6 = APPLICATION_CONTEXT ( 'configuration controlled 3d designs of mechanical parts and assemblies' ) ;
#7 = CARTESIAN_POINT ( 'NONE',  ( 0.0000000000000000000, 0.0000000000000000000, -5.074803149606300000 ) ) ;
#8 = DIRECTION ( 'NONE',  ( 0.0000000000000000000, 0.0000000000000000000, 1.000000000000000000 ) ) ;
#9 = FACE_BOUND ( 'NONE', #20, .T. ) ;
#10 = APPROVAL ( #188, 'UNSPECIFIED' ) ;
#11 = APPLICATION_CONTEXT ( 'configuration controlled 3d designs of mechanical parts and assemblies' ) ;
#12 = EDGE_LOOP ( 'NONE', ( #152 ) ) ;
#13 = COORDINATED_UNIVERSAL_TIME_OFFSET ( 5, 0, .BEHIND. ) ;
#14 = CARTESIAN_POINT ( 'NONE',  ( -14.80314960629921300, 14.76377952755905600, 0.0000000000000000000 ) ) ;
#15 = CARTESIAN_POINT ( 'NONE',  ( -14.80314960629921300, 7.507874015748033300, 0.0000000000000000000 ) ) ;
#16 = CARTESIAN_POINT ( 'NONE',  ( -3.346456692913386100, 0.0000000000000000000, 0.0000000000000000000 ) ) ;
#17 = CIRCLE ( 'NONE', #212, 5.074803149606300000 ) ;
#18 = CARTESIAN_POINT ( 'NONE',  ( -28.33070866141732200, 13.52755905511810800, 6.763779527559055500 ) ) ;
#19 = COORDINATED_UNIVERSAL_TIME_OFFSET ( 5, 0, .BEHIND. ) ;
#20 = EDGE_LOOP ( 'NONE', ( #209, #166 ) ) ;
#21 = DIRECTION ( 'NONE',  ( 0.0000000000000000000, -1.000000000000000000, 0.0000000000000000000 ) ) ;
#22 = ORIENTED_EDGE ( 'NONE', *, *, #98, .T. ) ;
#23 = ADVANCED_BREP_SHAPE_REPRESENTATION ( '581245120', ( #364, #289 ), #287 ) ;
#24 = CC_DESIGN_PERSON_AND_ORGANIZATION_ASSIGNMENT ( #185, #125, ( #245 ) ) ;
#25 = DIRECTION ( 'NONE',  ( 0.0000000000000000000, -1.000000000000000000, 0.0000000000000000000 ) ) ;
#26 = FACE_OUTER_BOUND ( 'NONE', #104, .T. ) ;
#27 = ORIENTED_EDGE ( 'NONE', *, *, #341, .F. ) ;
#28 = CARTESIAN_POINT ( 'NONE',  ( -14.80314960629921300, 0.0000000000000000000, -5.074803149606300000 ) ) ;
#29 = DIRECTION ( 'NONE',  ( -1.000000000000000000, 0.0000000000000000000, 0.0000000000000000000 ) ) ;
#30 = CARTESIAN_POINT ( 'NONE',  ( -14.80314960629921300, 8.070866141732285100, -6.200787401574803700 ) ) ;
#31 = EDGE_LOOP ( 'NONE', ( #199 ) ) ;
#32 = LOCAL_TIME ( 15, 18, 5.000000000000000000, #276 ) ;
#33 = APPROVAL ( #137, 'UNSPECIFIED' ) ;
#34 = CARTESIAN_POINT ( 'NONE',  ( -7.255905511811024900, 0.0000000000000000000, 0.0000000000000000000 ) ) ;
#35 = DIRECTION ( 'NONE',  ( 1.000000000000000000, -0.0000000000000000000, -0.0000000000000000000 ) ) ;
#36 = FACE_BOUND ( 'NONE', #239, .T. ) ;
#37 = CARTESIAN_POINT ( 'NONE',  ( -1.275590551181106100, 13.52755905511810800, -6.763779527559055500 ) ) ;
#38 = EDGE_LOOP ( 'NONE', ( #198 ) ) ;
#39 = CARTESIAN_POINT ( 'NONE',  ( -14.80314960629921300, 3.107420716734131200E-016, 5.074803149606300000 ) ) ;
#40 = AXIS2_PLACEMENT_3D ( 'NONE', #159, #155, #117 ) ;
#41 = DIRECTION ( 'NONE',  ( 0.0000000000000000000, 0.0000000000000000000, -1.000000000000000000 ) ) ;
#42 = CYLINDRICAL_SURFACE ( 'NONE', #206, 6.763779527559055500 ) ;
#43 = AXIS2_PLACEMENT_3D ( 'NONE', #332, #310, #177 ) ;
#44 = AXIS2_PLACEMENT_3D ( 'NONE', #271, #270, #41 ) ;
#45 = CARTESIAN_POINT ( 'NONE',  ( 0.0000000000000000000, 0.0000000000000000000, 0.0000000000000000000 ) ) ;
#46 = ADVANCED_FACE ( 'NONE', ( #300, #73 ), #238, .T. ) ;
#47 = CC_DESIGN_DATE_AND_TIME_ASSIGNMENT ( #373, #213, ( #154 ) ) ;
#48 = AXIS2_PLACEMENT_3D ( 'NONE', #74, #25, #360 ) ;
#49 = CARTESIAN_POINT ( 'NONE',  ( -1.275590551181103900, 13.52755905511811100, 6.763779527559052900 ) ) ;
#50 = AXIS2_PLACEMENT_3D ( 'NONE', #34, #35, #71 ) ;
#51 = CARTESIAN_POINT ( 'NONE',  ( -29.60629921259842600, 3.100393700787401800, -7.593523650670236700E-016 ) ) ;
#52 = LOCAL_TIME ( 15, 18, 5.000000000000000000, #13 ) ;
#53 = CARTESIAN_POINT ( 'NONE',  ( -24.95275590551181100, 10.14960629921259500, 5.074803149606300000 ) ) ;
#54 = CARTESIAN_POINT ( 'NONE',  ( -22.35039370078740700, 6.763779527559054600, -1.656593477060504200E-015 ) ) ;
#55 = EDGE_LOOP ( 'NONE', ( #181 ) ) ;
#56 = ORIENTED_EDGE ( 'NONE', *, *, #230, .F. ) ;
#57 = CONICAL_SURFACE ( 'NONE', #268, 6.763779527559058200, 0.7853981633974541600 ) ;
#58 = PRODUCT_DEFINITION_FORMATION_WITH_SPECIFIED_SOURCE ( 'ANY', '', #252, .NOT_KNOWN. ) ;
#59 = PERSON_AND_ORGANIZATION_ROLE ( 'design_supplier' ) ;
#60 = AXIS2_PLACEMENT_3D ( 'NONE', #116, #355, #378 ) ;
#61 = VERTEX_POINT ( 'NONE', #97 ) ;
#62 = VERTEX_POINT ( 'NONE', #379 ) ;
#63 = ORIENTED_EDGE ( 'NONE', *, *, #203, .T. ) ;
#64 = PERSON_AND_ORGANIZATION_ROLE ( 'design_owner' ) ;
#65 = ORIENTED_EDGE ( 'NONE', *, *, #99, .T. ) ;
#66 = PRODUCT_RELATED_PRODUCT_CATEGORY ( 'detail', '', ( #252 ) ) ;
#67 = PERSON_AND_ORGANIZATION ( #218, #88 ) ;
#68 = EDGE_LOOP ( 'NONE', ( #234 ) ) ;
#69 = CYLINDRICAL_SURFACE ( 'NONE', #48, 5.074803149606300000 ) ;
#70 = FACE_OUTER_BOUND ( 'NONE', #194, .T. ) ;
#71 = DIRECTION ( 'NONE',  ( 0.0000000000000000000, 1.000000000000000000, -2.449212707644750100E-016 ) ) ;
#72 = AXIS2_PLACEMENT_3D ( 'NONE', #96, #139, #193 ) ;
#73 = FACE_OUTER_BOUND ( 'NONE', #142, .T. ) ;
#74 = CARTESIAN_POINT ( 'NONE',  ( -14.80314960629921300, 0.0000000000000000000, 0.0000000000000000000 ) ) ;
#75 = APPLICATION_PROTOCOL_DEFINITION ( 'international standard', 'config_control_design', 1994, #11 ) ;
#76 = DIMENSIONAL_EXPONENTS ( 1.000000000000000000, 0.0000000000000000000, 0.0000000000000000000, 0.0000000000000000000, 0.0000000000000000000, 0.0000000000000000000, 0.0000000000000000000 ) ;
#77 = FACE_OUTER_BOUND ( 'NONE', #31, .T. ) ;
#78 = CARTESIAN_POINT ( 'NONE',  ( -14.80314960629921300, 3.107420716734131200E-016, 5.074803149606300000 ) ) ;
#79 = VERTEX_POINT ( 'NONE', #326 ) ;
#80 = AXIS2_PLACEMENT_3D ( 'NONE', #330, #362, #353 ) ;
#81 = ORIENTED_EDGE ( 'NONE', *, *, #92, .T. ) ;
#82 = APPROVAL_ROLE ( '' ) ;
#83 = EDGE_CURVE ( 'NONE', #147, #147, #85, .T. ) ;
#84 = DIRECTION ( 'NONE',  ( -1.000000000000000000, -0.0000000000000000000, -0.0000000000000000000 ) ) ;
#85 = CIRCLE ( 'NONE', #80, 6.763779527559054600 ) ;
#86 =( LENGTH_UNIT ( ) NAMED_UNIT ( * ) SI_UNIT ( $, .METRE. ) );
#87 = PERSON_AND_ORGANIZATION_ROLE ( 'creator' ) ;
#88 = ORGANIZATION ( 'UNSPECIFIED', 'UNSPECIFIED', '' ) ;
#89 = ADVANCED_FACE ( 'NONE', ( #224, #102 ), #331, .T. ) ;
#90 = APPROVAL_ROLE ( '' ) ;
#91 = FACE_OUTER_BOUND ( 'NONE', #298, .T. ) ;
#92 = EDGE_CURVE ( 'NONE', #62, #354, #129, .T. ) ;
#93 = FACE_BOUND ( 'NONE', #132, .T. ) ;
#94 = DIRECTION ( 'NONE',  ( 0.0000000000000000000, -1.000000000000000000, 0.0000000000000000000 ) ) ;
#95 = DIRECTION ( 'NONE',  ( 0.0000000000000000000, 0.0000000000000000000, 1.000000000000000000 ) ) ;
#96 = CARTESIAN_POINT ( 'NONE',  ( -26.25984251968504100, 0.0000000000000000000, 0.0000000000000000000 ) ) ;
#97 = CARTESIAN_POINT ( 'NONE',  ( -29.60629921259842600, 0.0000000000000000000, -5.074803149606300000 ) ) ;
#98 = EDGE_CURVE ( 'NONE', #354, #62, #358, .T. ) ;
#99 = EDGE_CURVE ( 'NONE', #318, #318, #150, .T. ) ;
#100 =( BOUNDED_CURVE ( )  B_SPLINE_CURVE ( 3, ( #144, #18, #304, #285 ),
 .UNSPECIFIED., .F., .T. ) 
 B_SPLINE_CURVE_WITH_KNOTS ( ( 4, 4 ),
 ( 1.570796326794896600, 4.712388980384689700 ),
 .UNSPECIFIED. ) 
 CURVE ( )  GEOMETRIC_REPRESENTATION_ITEM ( )  RATIONAL_B_SPLINE_CURVE ( ( 1.000000000000000000, 0.3333333333333333700, 0.3333333333333333700, 1.000000000000000000 ) ) 
 REPRESENTATION_ITEM ( '' )  );
#101 = CARTESIAN_POINT ( 'NONE',  ( -7.255905511811024900, 6.763779527559055500, -1.656593477060504400E-015 ) ) ;
#102 = FACE_OUTER_BOUND ( 'NONE', #327, .T. ) ;
#103 = DIRECTION ( 'NONE',  ( -1.443642383766550000E-015, 1.000000000000000000, 3.535787271616110200E-031 ) ) ;
#104 = EDGE_LOOP ( 'NONE', ( #56 ) ) ;
#105 = DIRECTION ( 'NONE',  ( 0.0000000000000000000, 0.0000000000000000000, -1.000000000000000000 ) ) ;
#106 = AXIS2_PLACEMENT_3D ( 'NONE', #169, #111, #328 ) ;
#107 = CIRCLE ( 'NONE', #221, 6.200787401574803700 ) ;
#108 = EDGE_CURVE ( 'NONE', #215, #215, #178, .T. ) ;
#109 = PERSON_AND_ORGANIZATION ( #218, #88 ) ;
#110 = ADVANCED_FACE ( 'NONE', ( #253, #36 ), #205, .T. ) ;
#111 = DIRECTION ( 'NONE',  ( -0.0000000000000000000, -1.000000000000000000, -0.0000000000000000000 ) ) ;
#112 = ORIENTED_EDGE ( 'NONE', *, *, #246, .T. ) ;
#113 = EDGE_LOOP ( 'NONE', ( #112 ) ) ;
#114 = EDGE_CURVE ( 'NONE', #294, #294, #153, .T. ) ;
#115 = CYLINDRICAL_SURFACE ( 'NONE', #121, 6.763779527559055500 ) ;
#116 = CARTESIAN_POINT ( 'NONE',  ( -7.255905511811024900, 0.0000000000000000000, 0.0000000000000000000 ) ) ;
#117 = DIRECTION ( 'NONE',  ( 0.0000000000000000000, 0.0000000000000000000, -1.000000000000000000 ) ) ;
#118 = FACE_BOUND ( 'NONE', #374, .T. ) ;
#119 = APPROVAL ( #3, 'UNSPECIFIED' ) ;
#120 = CARTESIAN_POINT ( 'NONE',  ( -14.80314960629921300, 8.070866141732285100, 0.0000000000000000000 ) ) ;
#121 = AXIS2_PLACEMENT_3D ( 'NONE', #347, #184, #367 ) ;
#122 = CYLINDRICAL_SURFACE ( 'NONE', #128, 5.074803149606300000 ) ;
#123 = DIRECTION ( 'NONE',  ( 0.0000000000000000000, 1.000000000000000000, 0.0000000000000000000 ) ) ;
#124 = AXIS2_PLACEMENT_3D ( 'NONE', #337, #223, #325 ) ;
#125 = PERSON_AND_ORGANIZATION_ROLE ( 'classification_officer' ) ;
#126 = AXIS2_PLACEMENT_3D ( 'NONE', #196, #103, #174 ) ;
#127 = CARTESIAN_POINT ( 'NONE',  ( 0.0000000000000000000, 3.100393700787401800, -7.593523650670236700E-016 ) ) ;
#128 = AXIS2_PLACEMENT_3D ( 'NONE', #301, #303, #314 ) ;
#129 =( BOUNDED_CURVE ( )  B_SPLINE_CURVE ( 3, ( #39, #53, #349, #385 ),
 .UNSPECIFIED., .F., .T. ) 
 B_SPLINE_CURVE_WITH_KNOTS ( ( 4, 4 ),
 ( 1.570796326794896600, 4.712388980384689700 ),
 .UNSPECIFIED. ) 
 CURVE ( )  GEOMETRIC_REPRESENTATION_ITEM ( )  RATIONAL_B_SPLINE_CURVE ( ( 1.000000000000000000, 0.3333333333333333700, 0.3333333333333333700, 1.000000000000000000 ) ) 
 REPRESENTATION_ITEM ( '' )  );
#130 = AXIS2_PLACEMENT_3D ( 'NONE', #148, #21, #105 ) ;
#131 = APPROVAL_PERSON_ORGANIZATION ( #157, #10, #90 ) ;
#132 = EDGE_LOOP ( 'NONE', ( #229 ) ) ;
#133 = VERTEX_POINT ( 'NONE', #233 ) ;
#134 = FACE_OUTER_BOUND ( 'NONE', #68, .T. ) ;
#135 = DIRECTION ( 'NONE',  ( 0.0000000000000000000, 0.0000000000000000000, -1.000000000000000000 ) ) ;
#136 = PLANE ( 'NONE',  #126 ) ;
#137 = APPROVAL_STATUS ( 'not_yet_approved' ) ;
#138 = MECHANICAL_CONTEXT ( 'NONE', #11, 'mechanical' ) ;
#139 = DIRECTION ( 'NONE',  ( 1.000000000000000000, 0.0000000000000000000, 0.0000000000000000000 ) ) ;
#140 = DIRECTION ( 'NONE',  ( 0.0000000000000000000, 0.0000000000000000000, -1.000000000000000000 ) ) ;
#141 = ADVANCED_FACE ( 'NONE', ( #91, #344 ), #69, .F. ) ;
#142 = EDGE_LOOP ( 'NONE', ( #277 ) ) ;
#143 = APPROVAL_PERSON_ORGANIZATION ( #167, #33, #225 ) ;
#144 = CARTESIAN_POINT ( 'NONE',  ( -14.80314960629921300, 0.0000000000000000000, 6.763779527559054600 ) ) ;
#145 = CARTESIAN_POINT ( 'NONE',  ( -14.80314960629921300, 0.0000000000000000000, -6.763779527559054600 ) ) ;
#146 = DIRECTION ( 'NONE',  ( 0.0000000000000000000, 0.0000000000000000000, -1.000000000000000000 ) ) ;
#147 = VERTEX_POINT ( 'NONE', #54 ) ;
#148 = CARTESIAN_POINT ( 'NONE',  ( -14.80314960629921300, 14.76377952755905600, 0.0000000000000000000 ) ) ;
#149 = CARTESIAN_POINT ( 'NONE',  ( -29.60629921259842600, 0.0000000000000000000, -6.200787401574803700 ) ) ;
#150 = CIRCLE ( 'NONE', #240, 6.200787401574803700 ) ;
#151 = ORIENTED_EDGE ( 'NONE', *, *, #83, .T. ) ;
#152 = ORIENTED_EDGE ( 'NONE', *, *, #99, .F. ) ;
#153 = CIRCLE ( 'NONE', #50, 6.763779527559055500 ) ;
#154 = PRODUCT_DEFINITION ( 'UNKNOWN', '', #58, #235 ) ;
#155 = DIRECTION ( 'NONE',  ( -1.000000000000000000, -0.0000000000000000000, -0.0000000000000000000 ) ) ;
#156 = CIRCLE ( 'NONE', #43, 6.200787401574803700 ) ;
#157 = PERSON_AND_ORGANIZATION ( #218, #88 ) ;
#158 = EDGE_CURVE ( 'NONE', #266, #351, #280, .T. ) ;
#159 = CARTESIAN_POINT ( 'NONE',  ( -22.91338582677165200, 0.0000000000000000000, 0.0000000000000000000 ) ) ;
#160 = FACE_OUTER_BOUND ( 'NONE', #163, .T. ) ;
#161 = CC_DESIGN_PERSON_AND_ORGANIZATION_ASSIGNMENT ( #67, #236, ( #58 ) ) ;
#162 = CARTESIAN_POINT ( 'NONE',  ( -29.60629921259842600, 0.0000000000000000000, 0.0000000000000000000 ) ) ;
#163 = EDGE_LOOP ( 'NONE', ( #291 ) ) ;
#164 = FACE_BOUND ( 'NONE', #342, .T. ) ;
#165 = CARTESIAN_POINT ( 'NONE',  ( -14.80314960629921300, 3.753937007874011700, 0.0000000000000000000 ) ) ;
#166 = ORIENTED_EDGE ( 'NONE', *, *, #98, .F. ) ;
#167 = PERSON_AND_ORGANIZATION ( #218, #88 ) ;
#168 = DIRECTION ( 'NONE',  ( 0.0000000000000000000, 0.0000000000000000000, -1.000000000000000000 ) ) ;
#169 = CARTESIAN_POINT ( 'NONE',  ( -14.80314960629921300, 11.41732283464566900, 0.0000000000000000000 ) ) ;
#170 = ORIENTED_EDGE ( 'NONE', *, *, #108, .T. ) ;
#171 = CC_DESIGN_PERSON_AND_ORGANIZATION_ASSIGNMENT ( #366, #59, ( #58 ) ) ;
#172 = ORIENTED_EDGE ( 'NONE', *, *, #114, .F. ) ;
#173 = EDGE_LOOP ( 'NONE', ( #182 ) ) ;
#174 = DIRECTION ( 'NONE',  ( -1.000000000000000000, -1.443642383766550000E-015, 0.0000000000000000000 ) ) ;
#175 = APPROVAL_DATE_TIME ( #222, #119 ) ;
#176 = AXIS2_PLACEMENT_3D ( 'NONE', #51, #29, #8 ) ;
#177 = DIRECTION ( 'NONE',  ( 0.0000000000000000000, 0.0000000000000000000, -1.000000000000000000 ) ) ;
#178 = CIRCLE ( 'NONE', #5, 6.200787401574803700 ) ;
#179 = DATE_AND_TIME ( #180, #52 ) ;
#180 = CALENDAR_DATE ( 2017, 27, 7 ) ;
#181 = ORIENTED_EDGE ( 'NONE', *, *, #114, .T. ) ;
#182 = ORIENTED_EDGE ( 'NONE', *, *, #275, .T. ) ;
#183 = CIRCLE ( 'NONE', #44, 6.200787401574803700 ) ;
#184 = DIRECTION ( 'NONE',  ( 1.000000000000000000, 0.0000000000000000000, 0.0000000000000000000 ) ) ;
#185 = PERSON_AND_ORGANIZATION ( #218, #88 ) ;
#186 = FACE_OUTER_BOUND ( 'NONE', #278, .T. ) ;
#187 = CARTESIAN_POINT ( 'NONE',  ( -14.80314960629921300, 7.507874015748034100, 0.0000000000000000000 ) ) ;
#188 = APPROVAL_STATUS ( 'not_yet_approved' ) ;
#189 = DIRECTION ( 'NONE',  ( -1.000000000000000000, -0.0000000000000000000, -0.0000000000000000000 ) ) ;
#190 = AXIS2_PLACEMENT_3D ( 'NONE', #16, #371, #192 ) ;
#191 = EDGE_LOOP ( 'NONE', ( #63 ) ) ;
#192 = DIRECTION ( 'NONE',  ( 0.0000000000000000000, 0.0000000000000000000, -1.000000000000000000 ) ) ;
#193 = DIRECTION ( 'NONE',  ( 0.0000000000000000000, 0.0000000000000000000, -1.000000000000000000 ) ) ;
#194 = EDGE_LOOP ( 'NONE', ( #228 ) ) ;
#195 = ORIENTED_EDGE ( 'NONE', *, *, #246, .F. ) ;
#196 = CARTESIAN_POINT ( 'NONE',  ( -11.70275590551181100, 14.76377952755905600, -7.593523650670236700E-016 ) ) ;
#197 = COORDINATED_UNIVERSAL_TIME_OFFSET ( 5, 0, .BEHIND. ) ;
#198 = ORIENTED_EDGE ( 'NONE', *, *, #83, .F. ) ;
#199 = ORIENTED_EDGE ( 'NONE', *, *, #108, .F. ) ;
#200 = CARTESIAN_POINT ( 'NONE',  ( -14.80314960629921300, 0.0000000000000000000, -5.074803149606300000 ) ) ;
#201 = APPROVAL_PERSON_ORGANIZATION ( #288, #119, #82 ) ;
#202 = LOCAL_TIME ( 15, 18, 5.000000000000000000, #302 ) ;
#203 = EDGE_CURVE ( 'NONE', #226, #226, #107, .T. ) ;
#204 = FACE_BOUND ( 'NONE', #333, .T. ) ;
#205 = CONICAL_SURFACE ( 'NONE', #60, 6.763779527559055500, 0.7853981633974463900 ) ;
#206 = AXIS2_PLACEMENT_3D ( 'NONE', #165, #269, #146 ) ;
#207 = CC_DESIGN_APPROVAL ( #33, ( #245 ) ) ;
#208 = ORIENTED_EDGE ( 'NONE', *, *, #369, .F. ) ;
#209 = ORIENTED_EDGE ( 'NONE', *, *, #92, .F. ) ;
#210 = CARTESIAN_POINT ( 'NONE',  ( -14.80314960629921300, 0.0000000000000000000, 6.763779527559054600 ) ) ;
#211 = ORIENTED_EDGE ( 'NONE', *, *, #158, .F. ) ;
#212 = AXIS2_PLACEMENT_3D ( 'NONE', #45, #189, #135 ) ;
#213 = DATE_TIME_ROLE ( 'creation_date' ) ;
#214 = CALENDAR_DATE ( 2017, 27, 7 ) ;
#215 = VERTEX_POINT ( 'NONE', #250 ) ;
#216 = CIRCLE ( 'NONE', #237, 6.763779527559056400 ) ;
#217 = DIRECTION ( 'NONE',  ( 1.000000000000000000, 0.0000000000000000000, -2.449212707645110000E-016 ) ) ;
#218 = PERSON ( 'UNSPECIFIED', 'UNSPECIFIED', 'UNSPECIFIED', ('UNSPECIFIED'), ('UNSPECIFIED'), ('UNSPECIFIED') ) ;
#219 = PERSON_AND_ORGANIZATION ( #218, #88 ) ;
#220 = CC_DESIGN_SECURITY_CLASSIFICATION ( #245, ( #58 ) ) ;
#221 = AXIS2_PLACEMENT_3D ( 'NONE', #120, #123, #290 ) ;
#222 = DATE_AND_TIME ( #320, #282 ) ;
#223 = DIRECTION ( 'NONE',  ( 1.000000000000000000, 0.0000000000000000000, 0.0000000000000000000 ) ) ;
#224 = FACE_OUTER_BOUND ( 'NONE', #12, .T. ) ;
#225 = APPROVAL_ROLE ( '' ) ;
#226 = VERTEX_POINT ( 'NONE', #30 ) ;
#227 = ADVANCED_FACE ( 'NONE', ( #77, #322 ), #305, .T. ) ;
#228 = ORIENTED_EDGE ( 'NONE', *, *, #275, .F. ) ;
#229 = ORIENTED_EDGE ( 'NONE', *, *, #248, .F. ) ;
#230 = EDGE_CURVE ( 'NONE', #306, #306, #17, .T. ) ;
#231 = ORIENTED_EDGE ( 'NONE', *, *, #230, .T. ) ;
#232 = DIRECTION ( 'NONE',  ( 0.0000000000000000000, 1.000000000000000000, 0.0000000000000000000 ) ) ;
#233 = CARTESIAN_POINT ( 'NONE',  ( -14.80314960629921300, 14.76377952755905600, -5.074803149606300000 ) ) ;
#234 = ORIENTED_EDGE ( 'NONE', *, *, #369, .T. ) ;
#235 = DESIGN_CONTEXT ( 'detailed design', #6, 'design' ) ;
#236 = PERSON_AND_ORGANIZATION_ROLE ( 'creator' ) ;
#237 = AXIS2_PLACEMENT_3D ( 'NONE', #187, #232, #217 ) ;
#238 = CYLINDRICAL_SURFACE ( 'NONE', #190, 6.200787401574803700 ) ;
#239 = EDGE_LOOP ( 'NONE', ( #195 ) ) ;
#240 = AXIS2_PLACEMENT_3D ( 'NONE', #162, #84, #368 ) ;
#241 = DATE_AND_TIME ( #254, #202 ) ;
#242 = FACE_OUTER_BOUND ( 'NONE', #359, .T. ) ;
#243 = CC_DESIGN_DATE_AND_TIME_ASSIGNMENT ( #241, #381, ( #245 ) ) ;
#244 = CIRCLE ( 'NONE', #40, 6.200787401574803700 ) ;
#245 = SECURITY_CLASSIFICATION ( '', '', #384 ) ;
#246 = EDGE_CURVE ( 'NONE', #292, #292, #183, .T. ) ;
#247 = EDGE_CURVE ( 'NONE', #336, #336, #156, .T. ) ;
#248 = EDGE_CURVE ( 'NONE', #79, #79, #244, .T. ) ;
#249 = PLANE ( 'NONE',  #176 ) ;
#250 = CARTESIAN_POINT ( 'NONE',  ( -14.80314960629921300, 14.76377952755905600, -6.200787401574803700 ) ) ;
#251 = LOCAL_TIME ( 15, 18, 5.000000000000000000, #19 ) ;
#252 = PRODUCT ( '581245120', '581245120', '', ( #138 ) ) ;
#253 = FACE_OUTER_BOUND ( 'NONE', #55, .T. ) ;
#254 = CALENDAR_DATE ( 2017, 27, 7 ) ;
#255 = ADVANCED_FACE ( 'NONE', ( #160, #164 ), #263, .T. ) ;
#256 = CARTESIAN_POINT ( 'NONE',  ( -4.653543307086617500, 10.14960629921259500, -5.074803149606300000 ) ) ;
#257 = ORIENTED_EDGE ( 'NONE', *, *, #334, .F. ) ;
#258 = ORIENTED_EDGE ( 'NONE', *, *, #341, .T. ) ;
#259 = DIRECTION ( 'NONE',  ( 1.000000000000000000, 0.0000000000000000000, -0.0000000000000000000 ) ) ;
#260 = CC_DESIGN_PERSON_AND_ORGANIZATION_ASSIGNMENT ( #109, #64, ( #252 ) ) ;
#261 = ORIENTED_EDGE ( 'NONE', *, *, #158, .T. ) ;
#262 = ADVANCED_FACE ( 'NONE', ( #9, #70, #26 ), #122, .F. ) ;
#263 = PLANE ( 'NONE',  #284 ) ;
#264 = PRODUCT_DEFINITION_SHAPE ( 'NONE', 'NONE',  #154 ) ;
#265 = CIRCLE ( 'NONE', #130, 5.074803149606300000 ) ;
#266 = VERTEX_POINT ( 'NONE', #286 ) ;
#267 = DIRECTION ( 'NONE',  ( 0.0000000000000000000, 0.0000000000000000000, -1.000000000000000000 ) ) ;
#268 = AXIS2_PLACEMENT_3D ( 'NONE', #15, #94, #293 ) ;
#269 = DIRECTION ( 'NONE',  ( -0.0000000000000000000, -1.000000000000000000, -0.0000000000000000000 ) ) ;
#270 = DIRECTION ( 'NONE',  ( 1.000000000000000000, 0.0000000000000000000, 0.0000000000000000000 ) ) ;
#271 = CARTESIAN_POINT ( 'NONE',  ( -6.692913385826772200, 0.0000000000000000000, 0.0000000000000000000 ) ) ;
#272 = SHAPE_DEFINITION_REPRESENTATION ( #264, #23 ) ;
#273 = UNCERTAINTY_MEASURE_WITH_UNIT (LENGTH_MEASURE( 1.000000000000000100E-005 ), #313, 'distance_accuracy_value', 'NONE');
#274 = CIRCLE ( 'NONE', #124, 5.074803149606300000 ) ;
#275 = EDGE_CURVE ( 'NONE', #61, #61, #274, .T. ) ;
#276 = COORDINATED_UNIVERSAL_TIME_OFFSET ( 5, 0, .BEHIND. ) ;
#277 = ORIENTED_EDGE ( 'NONE', *, *, #247, .F. ) ;
#278 = EDGE_LOOP ( 'NONE', ( #65 ) ) ;
#279 = ORIENTED_EDGE ( 'NONE', *, *, #334, .T. ) ;
#280 =( BOUNDED_CURVE ( )  B_SPLINE_CURVE ( 3, ( #145, #37, #49, #375 ),
 .UNSPECIFIED., .F., .T. ) 
 B_SPLINE_CURVE_WITH_KNOTS ( ( 4, 4 ),
 ( 1.570796326794896600, 4.712388980384689700 ),
 .UNSPECIFIED. ) 
 CURVE ( )  GEOMETRIC_REPRESENTATION_ITEM ( )  RATIONAL_B_SPLINE_CURVE ( ( 1.000000000000000000, 0.3333333333333333700, 0.3333333333333333700, 1.000000000000000000 ) ) 
 REPRESENTATION_ITEM ( '' )  );
#281 = EDGE_LOOP ( 'NONE', ( #279 ) ) ;
#282 = LOCAL_TIME ( 15, 18, 5.000000000000000000, #197 ) ;
#283 = FACE_BOUND ( 'NONE', #173, .T. ) ;
#284 = AXIS2_PLACEMENT_3D ( 'NONE', #127, #323, #267 ) ;
#285 = CARTESIAN_POINT ( 'NONE',  ( -14.80314960629921300, 0.0000000000000000000, -6.763779527559054600 ) ) ;
#286 = CARTESIAN_POINT ( 'NONE',  ( -14.80314960629921300, 0.0000000000000000000, -6.763779527559054600 ) ) ;
#287 =( GEOMETRIC_REPRESENTATION_CONTEXT ( 3 ) GLOBAL_UNCERTAINTY_ASSIGNED_CONTEXT ( ( #273 ) ) GLOBAL_UNIT_ASSIGNED_CONTEXT ( ( #313, #299, #309 ) ) REPRESENTATION_CONTEXT ( 'NONE', 'WORKASPACE' ) );
#288 = PERSON_AND_ORGANIZATION ( #218, #88 ) ;
#289 = AXIS2_PLACEMENT_3D ( 'NONE', #295, #95, #338 ) ;
#290 = DIRECTION ( 'NONE',  ( 0.0000000000000000000, 0.0000000000000000000, -1.000000000000000000 ) ) ;
#291 = ORIENTED_EDGE ( 'NONE', *, *, #247, .T. ) ;
#292 = VERTEX_POINT ( 'NONE', #365 ) ;
#293 = DIRECTION ( 'NONE',  ( 0.0000000000000000000, 0.0000000000000000000, -1.000000000000000000 ) ) ;
#294 = VERTEX_POINT ( 'NONE', #101 ) ;
#295 = CARTESIAN_POINT ( 'NONE',  ( 0.0000000000000000000, 0.0000000000000000000, 0.0000000000000000000 ) ) ;
#296 = ADVANCED_FACE ( 'NONE', ( #93, #4 ), #377, .T. ) ;
#297 = ORIENTED_EDGE ( 'NONE', *, *, #203, .F. ) ;
#298 = EDGE_LOOP ( 'NONE', ( #22, #81 ) ) ;
#299 =( NAMED_UNIT ( * ) PLANE_ANGLE_UNIT ( ) SI_UNIT ( $, .RADIAN. ) );
#300 = FACE_OUTER_BOUND ( 'NONE', #113, .T. ) ;
#301 = CARTESIAN_POINT ( 'NONE',  ( 0.03937007874015748000, 0.0000000000000000000, 0.0000000000000000000 ) ) ;
#302 = COORDINATED_UNIVERSAL_TIME_OFFSET ( 5, 0, .BEHIND. ) ;
#303 = DIRECTION ( 'NONE',  ( 1.000000000000000000, 0.0000000000000000000, 0.0000000000000000000 ) ) ;
#304 = CARTESIAN_POINT ( 'NONE',  ( -28.33070866141732600, 13.52755905511811100, -6.763779527559052900 ) ) ;
#305 = CYLINDRICAL_SURFACE ( 'NONE', #106, 6.200787401574803700 ) ;
#306 = VERTEX_POINT ( 'NONE', #7 ) ;
#307 = AXIS2_PLACEMENT_3D ( 'NONE', #340, #259, #168 ) ;
#308 = CC_DESIGN_APPROVAL ( #10, ( #154 ) ) ;
#309 =( NAMED_UNIT ( * ) SI_UNIT ( $, .STERADIAN. ) SOLID_ANGLE_UNIT ( ) );
#310 = DIRECTION ( 'NONE',  ( 1.000000000000000000, 0.0000000000000000000, 0.0000000000000000000 ) ) ;
#311 = ADVANCED_FACE ( 'NONE', ( #204, #386, #316 ), #115, .T. ) ;
#312 = CALENDAR_DATE ( 2017, 27, 7 ) ;
#313 =( CONVERSION_BASED_UNIT ( 'INCH', #376 ) LENGTH_UNIT ( ) NAMED_UNIT ( #76 ) );
#314 = DIRECTION ( 'NONE',  ( 0.0000000000000000000, 0.0000000000000000000, -1.000000000000000000 ) ) ;
#315 = ADVANCED_FACE ( 'NONE', ( #186, #283 ), #249, .T. ) ;
#316 = FACE_OUTER_BOUND ( 'NONE', #372, .T. ) ;
#317 = DATE_AND_TIME ( #214, #251 ) ;
#318 = VERTEX_POINT ( 'NONE', #149 ) ;
#319 = ADVANCED_FACE ( 'NONE', ( #339, #356 ), #136, .T. ) ;
#320 = CALENDAR_DATE ( 2017, 27, 7 ) ;
#321 = EDGE_LOOP ( 'NONE', ( #170 ) ) ;
#322 = FACE_OUTER_BOUND ( 'NONE', #191, .T. ) ;
#323 = DIRECTION ( 'NONE',  ( 1.000000000000000000, 0.0000000000000000000, 0.0000000000000000000 ) ) ;
#324 = CLOSED_SHELL ( 'NONE', ( #262, #315, #255, #141, #89, #46, #319, #296, #110, #227, #311, #357, #350 ) ) ;
#325 = DIRECTION ( 'NONE',  ( 0.0000000000000000000, 0.0000000000000000000, -1.000000000000000000 ) ) ;
#326 = CARTESIAN_POINT ( 'NONE',  ( -22.91338582677165200, 0.0000000000000000000, -6.200787401574803700 ) ) ;
#327 = EDGE_LOOP ( 'NONE', ( #348 ) ) ;
#328 = DIRECTION ( 'NONE',  ( 0.0000000000000000000, 0.0000000000000000000, -1.000000000000000000 ) ) ;
#329 = CC_DESIGN_PERSON_AND_ORGANIZATION_ASSIGNMENT ( #219, #87, ( #154 ) ) ;
#330 = CARTESIAN_POINT ( 'NONE',  ( -22.35039370078740700, 0.0000000000000000000, 0.0000000000000000000 ) ) ;
#331 = CYLINDRICAL_SURFACE ( 'NONE', #72, 6.200787401574803700 ) ;
#332 = CARTESIAN_POINT ( 'NONE',  ( 0.0000000000000000000, 0.0000000000000000000, 0.0000000000000000000 ) ) ;
#333 = EDGE_LOOP ( 'NONE', ( #258, #261 ) ) ;
#334 = EDGE_CURVE ( 'NONE', #133, #133, #265, .T. ) ;
#335 = CARTESIAN_POINT ( 'NONE',  ( 0.0000000000000000000, 0.0000000000000000000, -6.200787401574803700 ) ) ;
#336 = VERTEX_POINT ( 'NONE', #335 ) ;
#337 = CARTESIAN_POINT ( 'NONE',  ( -29.60629921259842600, 0.0000000000000000000, 0.0000000000000000000 ) ) ;
#338 = DIRECTION ( 'NONE',  ( 1.000000000000000000, 0.0000000000000000000, 0.0000000000000000000 ) ) ;
#339 = FACE_OUTER_BOUND ( 'NONE', #321, .T. ) ;
#340 = CARTESIAN_POINT ( 'NONE',  ( -22.35039370078740700, 0.0000000000000000000, 0.0000000000000000000 ) ) ;
#341 = EDGE_CURVE ( 'NONE', #351, #266, #100, .T. ) ;
#342 = EDGE_LOOP ( 'NONE', ( #231 ) ) ;
#343 = CARTESIAN_POINT ( 'NONE',  ( -4.653543307086617500, 10.14960629921259500, 5.074803149606296400 ) ) ;
#344 = FACE_OUTER_BOUND ( 'NONE', #380, .T. ) ;
#345 = DIRECTION ( 'NONE',  ( 0.0000000000000000000, 1.000000000000000000, 0.0000000000000000000 ) ) ;
#346 = APPROVAL_DATE_TIME ( #317, #33 ) ;
#347 = CARTESIAN_POINT ( 'NONE',  ( -14.80314960629921300, 0.0000000000000000000, 0.0000000000000000000 ) ) ;
#348 = ORIENTED_EDGE ( 'NONE', *, *, #248, .T. ) ;
#349 = CARTESIAN_POINT ( 'NONE',  ( -24.95275590551181100, 10.14960629921259500, -5.074803149606296400 ) ) ;
#350 = ADVANCED_FACE ( 'NONE', ( #361, #242 ), #42, .T. ) ;
#351 = VERTEX_POINT ( 'NONE', #210 ) ;
#352 = CC_DESIGN_APPROVAL ( #119, ( #58 ) ) ;
#353 = DIRECTION ( 'NONE',  ( 0.0000000000000000000, 1.000000000000000000, -2.449212707644750100E-016 ) ) ;
#354 = VERTEX_POINT ( 'NONE', #200 ) ;
#355 = DIRECTION ( 'NONE',  ( -1.000000000000000000, -0.0000000000000000000, 0.0000000000000000000 ) ) ;
#356 = FACE_BOUND ( 'NONE', #281, .T. ) ;
#357 = ADVANCED_FACE ( 'NONE', ( #118, #134 ), #57, .T. ) ;
#358 =( BOUNDED_CURVE ( )  B_SPLINE_CURVE ( 3, ( #28, #256, #343, #78 ),
 .UNSPECIFIED., .F., .T. ) 
 B_SPLINE_CURVE_WITH_KNOTS ( ( 4, 4 ),
 ( 1.570796326794896600, 4.712388980384689700 ),
 .UNSPECIFIED. ) 
 CURVE ( )  GEOMETRIC_REPRESENTATION_ITEM ( )  RATIONAL_B_SPLINE_CURVE ( ( 1.000000000000000000, 0.3333333333333333700, 0.3333333333333333700, 1.000000000000000000 ) ) 
 REPRESENTATION_ITEM ( '' )  );
#359 = EDGE_LOOP ( 'NONE', ( #27, #211 ) ) ;
#360 = DIRECTION ( 'NONE',  ( 0.0000000000000000000, 0.0000000000000000000, -1.000000000000000000 ) ) ;
#361 = FACE_OUTER_BOUND ( 'NONE', #370, .T. ) ;
#362 = DIRECTION ( 'NONE',  ( -1.000000000000000000, -0.0000000000000000000, -0.0000000000000000000 ) ) ;
#363 = CARTESIAN_POINT ( 'NONE',  ( -8.039370078740155600, 7.507874015748034100, -1.656593477060747800E-015 ) ) ;
#364 = MANIFOLD_SOLID_BREP ( '1', #324 ) ;
#365 = CARTESIAN_POINT ( 'NONE',  ( -6.692913385826772200, 0.0000000000000000000, -6.200787401574803700 ) ) ;
#366 = PERSON_AND_ORGANIZATION ( #218, #88 ) ;
#367 = DIRECTION ( 'NONE',  ( 0.0000000000000000000, 0.0000000000000000000, -1.000000000000000000 ) ) ;
#368 = DIRECTION ( 'NONE',  ( 0.0000000000000000000, 0.0000000000000000000, -1.000000000000000000 ) ) ;
#369 = EDGE_CURVE ( 'NONE', #383, #383, #216, .T. ) ;
#370 = EDGE_LOOP ( 'NONE', ( #208 ) ) ;
#371 = DIRECTION ( 'NONE',  ( 1.000000000000000000, 0.0000000000000000000, 0.0000000000000000000 ) ) ;
#372 = EDGE_LOOP ( 'NONE', ( #172 ) ) ;
#373 = DATE_AND_TIME ( #312, #32 ) ;
#374 = EDGE_LOOP ( 'NONE', ( #297 ) ) ;
#375 = CARTESIAN_POINT ( 'NONE',  ( -14.80314960629921300, 0.0000000000000000000, 6.763779527559054600 ) ) ;
#376 = LENGTH_MEASURE_WITH_UNIT ( LENGTH_MEASURE( 0.02539999999999999900 ), #86 );
#377 = CONICAL_SURFACE ( 'NONE', #307, 6.763779527559054600, 0.7853981633974463900 ) ;
#378 = DIRECTION ( 'NONE',  ( 0.0000000000000000000, 0.0000000000000000000, 1.000000000000000000 ) ) ;
#379 = CARTESIAN_POINT ( 'NONE',  ( -14.80314960629921300, 3.107420716734131200E-016, 5.074803149606300000 ) ) ;
#380 = EDGE_LOOP ( 'NONE', ( #257 ) ) ;
#381 = DATE_TIME_ROLE ( 'classification_date' ) ;
#382 = APPROVAL_DATE_TIME ( #179, #10 ) ;
#383 = VERTEX_POINT ( 'NONE', #363 ) ;
#384 = SECURITY_CLASSIFICATION_LEVEL ( 'unclassified' ) ;
#385 = CARTESIAN_POINT ( 'NONE',  ( -14.80314960629921300, 0.0000000000000000000, -5.074803149606300000 ) ) ;
#386 = FACE_OUTER_BOUND ( 'NONE', #38, .T. ) ;
ENDSEC;
END-ISO-10303-21;
