ISO-10303-21;
HEADER;
FILE_DESCRIPTION (( 'STEP AP203' ),
    '1' );
FILE_NAME ('581246010.STEP',
    '2017-07-27T19:25:26',
    ( '' ),
    ( '' ),
    'SwSTEP 2.0',
    'SolidWorks 2017',
    '' );
FILE_SCHEMA (( 'CONFIG_CONTROL_DESIGN' ));
ENDSEC;

DATA;
#1 = EDGE_LOOP ( 'NONE', ( #327, #316 ) ) ;
#2 = DIRECTION ( 'NONE',  ( 0.0000000000000000000, 1.000000000000000000, -2.449212707644750600E-016 ) ) ;
#3 = FACE_OUTER_BOUND ( 'NONE', #351, .T. ) ;
#4 = COORDINATED_UNIVERSAL_TIME_OFFSET ( 5, 0, .BEHIND. ) ;
#5 = CONICAL_SURFACE ( 'NONE', #299, 0.6889763779527560100, 0.7853981633974482800 ) ;
#6 = CARTESIAN_POINT ( 'NONE',  ( 0.0000000000000000000, 0.0000000000000000000, -0.5118110236220473300 ) ) ;
#7 = PRODUCT ( '581246010', '581246010', '', ( #159 ) ) ;
#8 = FACE_OUTER_BOUND ( 'NONE', #195, .T. ) ;
#9 = ORIENTED_EDGE ( 'NONE', *, *, #251, .F. ) ;
#10 = PERSON_AND_ORGANIZATION_ROLE ( 'classification_officer' ) ;
#11 = CARTESIAN_POINT ( 'NONE',  ( -1.771653543307086600, 0.0000000000000000000, -0.6889763779527559000 ) ) ;
#12 = APPROVAL_DATE_TIME ( #324, #24 ) ;
#13 = ORIENTED_EDGE ( 'NONE', *, *, #28, .F. ) ;
#14 = SECURITY_CLASSIFICATION_LEVEL ( 'unclassified' ) ;
#15 = ADVANCED_FACE ( 'NONE', ( #202, #359 ), #121, .T. ) ;
#16 = FACE_OUTER_BOUND ( 'NONE', #32, .T. ) ;
#17 = APPROVAL_ROLE ( '' ) ;
#18 = ORIENTED_EDGE ( 'NONE', *, *, #354, .F. ) ;
#19 = FACE_OUTER_BOUND ( 'NONE', #136, .T. ) ;
#20 = CC_DESIGN_PERSON_AND_ORGANIZATION_ASSIGNMENT ( #239, #338, ( #115 ) ) ;
#21 = CYLINDRICAL_SURFACE ( 'NONE', #79, 0.6889763779527560100 ) ;
#22 = DIRECTION ( 'NONE',  ( 0.0000000000000000000, 0.0000000000000000000, -1.000000000000000000 ) ) ;
#23 = PERSON_AND_ORGANIZATION ( #57, #96 ) ;
#24 = APPROVAL ( #346, 'UNSPECIFIED' ) ;
#25 = CARTESIAN_POINT ( 'NONE',  ( -1.771653543307086600, 0.9055118110236221000, 0.0000000000000000000 ) ) ;
#26 = DIRECTION ( 'NONE',  ( 0.0000000000000000000, -1.000000000000000000, 0.0000000000000000000 ) ) ;
#27 = CARTESIAN_POINT ( 'NONE',  ( -1.771653543307086600, 0.0000000000000000000, 0.6889763779527559000 ) ) ;
#28 = EDGE_CURVE ( 'NONE', #69, #69, #320, .T. ) ;
#29 = FACE_OUTER_BOUND ( 'NONE', #256, .T. ) ;
#30 = APPLICATION_PROTOCOL_DEFINITION ( 'international standard', 'config_control_design', 1994, #323 ) ;
#31 = CARTESIAN_POINT ( 'NONE',  ( -1.082677165354330600, 0.9055118110236221000, -1.687449700148858800E-016 ) ) ;
#32 = EDGE_LOOP ( 'NONE', ( #385 ) ) ;
#33 = ADVANCED_FACE ( 'NONE', ( #332, #153 ), #212, .T. ) ;
#34 = ADVANCED_FACE ( 'NONE', ( #325, #349 ), #232, .F. ) ;
#35 = FACE_OUTER_BOUND ( 'NONE', #370, .T. ) ;
#36 = FACE_OUTER_BOUND ( 'NONE', #107, .T. ) ;
#37 = CC_DESIGN_APPROVAL ( #24, ( #115 ) ) ;
#38 = MANIFOLD_SOLID_BREP ( '1', #343 ) ;
#39 = CYLINDRICAL_SURFACE ( 'NONE', #157, 0.5118110236220473300 ) ;
#40 = FACE_BOUND ( 'NONE', #237, .T. ) ;
#41 = CARTESIAN_POINT ( 'NONE',  ( -0.8661417322834646900, 0.0000000000000000000, 0.0000000000000000000 ) ) ;
#42 = VERTEX_POINT ( 'NONE', #123 ) ;
#43 = ADVANCED_FACE ( 'NONE', ( #19, #344 ), #113, .T. ) ;
#44 = CARTESIAN_POINT ( 'NONE',  ( -1.771653543307086600, 0.0000000000000000000, 0.6889763779527559000 ) ) ;
#45 = CARTESIAN_POINT ( 'NONE',  ( -2.736220472440945400, 0.0000000000000000000, -0.6299212598425196800 ) ) ;
#46 = CALENDAR_DATE ( 2017, 27, 7 ) ;
#47 =( LENGTH_UNIT ( ) NAMED_UNIT ( * ) SI_UNIT ( $, .METRE. ) );
#48 = ORIENTED_EDGE ( 'NONE', *, *, #259, .T. ) ;
#49 = CARTESIAN_POINT ( 'NONE',  ( -2.677165354330708800, 0.6889763779527560100, -1.687449700148942400E-016 ) ) ;
#50 = EDGE_LOOP ( 'NONE', ( #360 ) ) ;
#51 = CARTESIAN_POINT ( 'NONE',  ( -0.8661417322834646900, 0.6889763779527559000, -1.687449700148942400E-016 ) ) ;
#52 = CARTESIAN_POINT ( 'NONE',  ( -1.456692913385826800, 1.771653543307086600, -7.714055772109449500E-017 ) ) ;
#53 = DIRECTION ( 'NONE',  ( 0.0000000000000000000, 1.000000000000000000, -2.449212707644750100E-016 ) ) ;
#54 = DIRECTION ( 'NONE',  ( 0.0000000000000000000, 0.0000000000000000000, -1.000000000000000000 ) ) ;
#55 = APPROVAL_DATE_TIME ( #300, #117 ) ;
#56 = DATE_TIME_ROLE ( 'classification_date' ) ;
#57 = PERSON ( 'UNSPECIFIED', 'UNSPECIFIED', 'UNSPECIFIED', ('UNSPECIFIED'), ('UNSPECIFIED'), ('UNSPECIFIED') ) ;
#58 = AXIS2_PLACEMENT_3D ( 'NONE', #84, #196, #72 ) ;
#59 = VERTEX_POINT ( 'NONE', #236 ) ;
#60 = DIRECTION ( 'NONE',  ( 1.000000000000000000, 0.0000000000000000000, 0.0000000000000000000 ) ) ;
#61 = EDGE_LOOP ( 'NONE', ( #302 ) ) ;
#62 = DATE_AND_TIME ( #66, #94 ) ;
#63 = DESIGN_CONTEXT ( 'detailed design', #348, 'design' ) ;
#64 = LOCAL_TIME ( 15, 25, 26.00000000000000000, #218 ) ;
#65 = DIRECTION ( 'NONE',  ( 0.0000000000000000000, 0.0000000000000000000, -1.000000000000000000 ) ) ;
#66 = CALENDAR_DATE ( 2017, 27, 7 ) ;
#67 = PERSON_AND_ORGANIZATION_ROLE ( 'creator' ) ;
#68 = DIRECTION ( 'NONE',  ( -0.0000000000000000000, -1.000000000000000000, -0.0000000000000000000 ) ) ;
#69 = VERTEX_POINT ( 'NONE', #6 ) ;
#70 = ORIENTED_EDGE ( 'NONE', *, *, #130, .F. ) ;
#71 = CIRCLE ( 'NONE', #305, 0.6889763779527560100 ) ;
#72 = DIRECTION ( 'NONE',  ( 0.0000000000000000000, 0.0000000000000000000, -1.000000000000000000 ) ) ;
#73 = CARTESIAN_POINT ( 'NONE',  ( -0.3937007874015751600, 1.377952755905511400, 0.6889763779527555700 ) ) ;
#74 = DATE_AND_TIME ( #310, #156 ) ;
#75 = CARTESIAN_POINT ( 'NONE',  ( -1.771653543307086600, 0.0000000000000000000, 0.0000000000000000000 ) ) ;
#76 = DIRECTION ( 'NONE',  ( -1.000000000000000000, -0.0000000000000000000, -0.0000000000000000000 ) ) ;
#77 = CARTESIAN_POINT ( 'NONE',  ( 0.03937007874015748000, 0.0000000000000000000, 0.0000000000000000000 ) ) ;
#78 = ORIENTED_EDGE ( 'NONE', *, *, #86, .T. ) ;
#79 = AXIS2_PLACEMENT_3D ( 'NONE', #308, #333, #268 ) ;
#80 = AXIS2_PLACEMENT_3D ( 'NONE', #269, #197, #65 ) ;
#81 = CC_DESIGN_DATE_AND_TIME_ASSIGNMENT ( #62, #56, ( #227 ) ) ;
#82 = PERSON_AND_ORGANIZATION ( #57, #96 ) ;
#83 = EDGE_LOOP ( 'NONE', ( #161 ) ) ;
#84 = CARTESIAN_POINT ( 'NONE',  ( -3.543307086614173200, 0.0000000000000000000, 0.0000000000000000000 ) ) ;
#85 = LOCAL_TIME ( 15, 25, 26.00000000000000000, #337 ) ;
#86 = EDGE_CURVE ( 'NONE', #59, #59, #133, .T. ) ;
#87 = CARTESIAN_POINT ( 'NONE',  ( -1.771653543307086600, 3.133938659235353000E-017, 0.5118110236220472200 ) ) ;
#88 = DIRECTION ( 'NONE',  ( 0.0000000000000000000, 0.0000000000000000000, -1.000000000000000000 ) ) ;
#89 = CARTESIAN_POINT ( 'NONE',  ( -0.8070866141732283600, 0.0000000000000000000, 0.0000000000000000000 ) ) ;
#90 = CARTESIAN_POINT ( 'NONE',  ( -1.771653543307086600, 0.0000000000000000000, -0.6889763779527559000 ) ) ;
#91 = FACE_BOUND ( 'NONE', #363, .T. ) ;
#92 = VERTEX_POINT ( 'NONE', #216 ) ;
#93 = ORIENTED_EDGE ( 'NONE', *, *, #284, .F. ) ;
#94 = LOCAL_TIME ( 15, 25, 26.00000000000000000, #209 ) ;
#95 = CARTESIAN_POINT ( 'NONE',  ( -0.8661417322834646900, 0.0000000000000000000, 0.0000000000000000000 ) ) ;
#96 = ORGANIZATION ( 'UNSPECIFIED', 'UNSPECIFIED', '' ) ;
#97 = DIRECTION ( 'NONE',  ( 1.000000000000000000, 0.0000000000000000000, 0.0000000000000000000 ) ) ;
#98 = CC_DESIGN_PERSON_AND_ORGANIZATION_ASSIGNMENT ( #291, #10, ( #227 ) ) ;
#99 = FACE_BOUND ( 'NONE', #1, .T. ) ;
#100 = PLANE ( 'NONE',  #288 ) ;
#101 = DIRECTION ( 'NONE',  ( 1.000000000000000000, 0.0000000000000000000, 0.0000000000000000000 ) ) ;
#102 = CARTESIAN_POINT ( 'NONE',  ( -1.771653543307086600, 1.771653543307086600, 0.0000000000000000000 ) ) ;
#103 = AXIS2_PLACEMENT_3D ( 'NONE', #25, #287, #140 ) ;
#104 = DIRECTION ( 'NONE',  ( 0.0000000000000000000, 0.0000000000000000000, -1.000000000000000000 ) ) ;
#105 =( BOUNDED_CURVE ( )  B_SPLINE_CURVE ( 3, ( #188, #111, #298, #116 ),
 .UNSPECIFIED., .F., .T. ) 
 B_SPLINE_CURVE_WITH_KNOTS ( ( 4, 4 ),
 ( 1.570796326794896600, 4.712388980384689700 ),
 .UNSPECIFIED. ) 
 CURVE ( )  GEOMETRIC_REPRESENTATION_ITEM ( )  RATIONAL_B_SPLINE_CURVE ( ( 1.000000000000000000, 0.3333333333333333700, 0.3333333333333333700, 1.000000000000000000 ) ) 
 REPRESENTATION_ITEM ( '' )  );
#106 = CYLINDRICAL_SURFACE ( 'NONE', #238, 0.6299212598425196800 ) ;
#107 = EDGE_LOOP ( 'NONE', ( #235 ) ) ;
#108 = EDGE_LOOP ( 'NONE', ( #203 ) ) ;
#109 = DIRECTION ( 'NONE',  ( 0.0000000000000000000, 0.0000000000000000000, 1.000000000000000000 ) ) ;
#110 = CARTESIAN_POINT ( 'NONE',  ( -1.771653543307086600, 0.0000000000000000000, -0.6889763779527559000 ) ) ;
#111 = CARTESIAN_POINT ( 'NONE',  ( -0.7480314960629922400, 1.023622047244094200, -0.5118110236220473300 ) ) ;
#112 = CARTESIAN_POINT ( 'NONE',  ( -0.3937007874015751600, 1.377952755905511400, -0.6889763779527560100 ) ) ;
#113 = CYLINDRICAL_SURFACE ( 'NONE', #326, 0.6299212598425196800 ) ;
#114 = CC_DESIGN_APPROVAL ( #117, ( #154 ) ) ;
#115 = PRODUCT_DEFINITION ( 'UNKNOWN', '', #154, #63 ) ;
#116 = CARTESIAN_POINT ( 'NONE',  ( -1.771653543307086600, 3.133938659235353000E-017, 0.5118110236220472200 ) ) ;
#117 = APPROVAL ( #357, 'UNSPECIFIED' ) ;
#118 = VERTEX_POINT ( 'NONE', #51 ) ;
#119 = DATE_TIME_ROLE ( 'creation_date' ) ;
#120 = DIRECTION ( 'NONE',  ( 1.000000000000000000, 0.0000000000000000000, -0.0000000000000000000 ) ) ;
#121 = PLANE ( 'NONE',  #294 ) ;
#122 = EDGE_CURVE ( 'NONE', #379, #379, #376, .T. ) ;
#123 = CARTESIAN_POINT ( 'NONE',  ( -3.543307086614173200, 0.0000000000000000000, -0.5118110236220473300 ) ) ;
#124 =( NAMED_UNIT ( * ) SI_UNIT ( $, .STERADIAN. ) SOLID_ANGLE_UNIT ( ) );
#125 = PERSON_AND_ORGANIZATION ( #57, #96 ) ;
#126 = LOCAL_TIME ( 15, 25, 26.00000000000000000, #210 ) ;
#127 = FACE_OUTER_BOUND ( 'NONE', #164, .T. ) ;
#128 = CARTESIAN_POINT ( 'NONE',  ( -0.8070866141732283600, 0.0000000000000000000, -0.6299212598425196800 ) ) ;
#129 = DIRECTION ( 'NONE',  ( 0.0000000000000000000, 0.0000000000000000000, -1.000000000000000000 ) ) ;
#130 = EDGE_CURVE ( 'NONE', #296, #296, #142, .T. ) ;
#131 = CARTESIAN_POINT ( 'NONE',  ( -2.677165354330708800, 0.0000000000000000000, 0.0000000000000000000 ) ) ;
#132 =( BOUNDED_CURVE ( )  B_SPLINE_CURVE ( 3, ( #375, #230, #226, #335 ),
 .UNSPECIFIED., .F., .T. ) 
 B_SPLINE_CURVE_WITH_KNOTS ( ( 4, 4 ),
 ( 1.570796326794896600, 4.712388980384689700 ),
 .UNSPECIFIED. ) 
 CURVE ( )  GEOMETRIC_REPRESENTATION_ITEM ( )  RATIONAL_B_SPLINE_CURVE ( ( 1.000000000000000000, 0.3333333333333333700, 0.3333333333333333700, 1.000000000000000000 ) ) 
 REPRESENTATION_ITEM ( '' )  );
#133 = CIRCLE ( 'NONE', #211, 0.6299212598425196800 ) ;
#134 = AXIS2_PLACEMENT_3D ( 'NONE', #102, #165, #88 ) ;
#135 = VERTEX_POINT ( 'NONE', #373 ) ;
#136 = EDGE_LOOP ( 'NONE', ( #283 ) ) ;
#137 = CARTESIAN_POINT ( 'NONE',  ( 0.0000000000000000000, 0.3149606299212598400, -7.714055772109449500E-017 ) ) ;
#138 = CALENDAR_DATE ( 2017, 27, 7 ) ;
#139 = APPROVAL_DATE_TIME ( #219, #277 ) ;
#140 = DIRECTION ( 'NONE',  ( 1.000000000000000000, 0.0000000000000000000, -2.449212707644628800E-016 ) ) ;
#141 = AXIS2_PLACEMENT_3D ( 'NONE', #186, #306, #328 ) ;
#142 = CIRCLE ( 'NONE', #381, 0.6299212598425196800 ) ;
#143 = CARTESIAN_POINT ( 'NONE',  ( -3.543307086614173200, 0.0000000000000000000, -0.6299212598425196800 ) ) ;
#144 = CARTESIAN_POINT ( 'NONE',  ( -1.771653543307086600, 0.0000000000000000000, 0.0000000000000000000 ) ) ;
#145 = DIRECTION ( 'NONE',  ( 1.000000000000000000, 0.0000000000000000000, 0.0000000000000000000 ) ) ;
#146 = EDGE_LOOP ( 'NONE', ( #217 ) ) ;
#147 = EDGE_LOOP ( 'NONE', ( #341 ) ) ;
#148 = DIRECTION ( 'NONE',  ( -1.000000000000000000, -0.0000000000000000000, -0.0000000000000000000 ) ) ;
#149 = ADVANCED_FACE ( 'NONE', ( #36, #342 ), #5, .T. ) ;
#150 = VERTEX_POINT ( 'NONE', #11 ) ;
#151 = DIRECTION ( 'NONE',  ( 1.000000000000000000, 0.0000000000000000000, 0.0000000000000000000 ) ) ;
#152 = CIRCLE ( 'NONE', #167, 0.6889763779527559000 ) ;
#153 = FACE_OUTER_BOUND ( 'NONE', #258, .T. ) ;
#154 = PRODUCT_DEFINITION_FORMATION_WITH_SPECIFIED_SOURCE ( 'ANY', '', #7, .NOT_KNOWN. ) ;
#155 = EDGE_LOOP ( 'NONE', ( #13 ) ) ;
#156 = LOCAL_TIME ( 15, 25, 26.00000000000000000, #4 ) ;
#157 = AXIS2_PLACEMENT_3D ( 'NONE', #77, #250, #22 ) ;
#158 = CC_DESIGN_PERSON_AND_ORGANIZATION_ASSIGNMENT ( #263, #301, ( #7 ) ) ;
#159 = MECHANICAL_CONTEXT ( 'NONE', #323, 'mechanical' ) ;
#160 = FACE_BOUND ( 'NONE', #240, .T. ) ;
#161 = ORIENTED_EDGE ( 'NONE', *, *, #378, .F. ) ;
#162 = CALENDAR_DATE ( 2017, 27, 7 ) ;
#163 = DIMENSIONAL_EXPONENTS ( 1.000000000000000000, 0.0000000000000000000, 0.0000000000000000000, 0.0000000000000000000, 0.0000000000000000000, 0.0000000000000000000, 0.0000000000000000000 ) ;
#164 = EDGE_LOOP ( 'NONE', ( #311, #244 ) ) ;
#165 = DIRECTION ( 'NONE',  ( 0.0000000000000000000, 1.000000000000000000, 0.0000000000000000000 ) ) ;
#166 = DIRECTION ( 'NONE',  ( 0.0000000000000000000, 0.0000000000000000000, -1.000000000000000000 ) ) ;
#167 = AXIS2_PLACEMENT_3D ( 'NONE', #95, #254, #2 ) ;
#168 = DIRECTION ( 'NONE',  ( 0.0000000000000000000, 0.0000000000000000000, -1.000000000000000000 ) ) ;
#169 = VERTEX_POINT ( 'NONE', #128 ) ;
#170 = ADVANCED_FACE ( 'NONE', ( #273, #127 ), #21, .T. ) ;
#171 = DIRECTION ( 'NONE',  ( 0.0000000000000000000, 1.000000000000000000, 0.0000000000000000000 ) ) ;
#172 = AXIS2_PLACEMENT_3D ( 'NONE', #204, #207, #200 ) ;
#173 = CARTESIAN_POINT ( 'NONE',  ( -1.771653543307086600, 0.9645669291338583300, 0.0000000000000000000 ) ) ;
#174 = APPROVAL_PERSON_ORGANIZATION ( #23, #24, #315 ) ;
#175 = CC_DESIGN_APPROVAL ( #277, ( #227 ) ) ;
#176 = CARTESIAN_POINT ( 'NONE',  ( -1.771653543307086600, 0.0000000000000000000, -0.5118110236220472200 ) ) ;
#177 = APPROVAL_ROLE ( '' ) ;
#178 = EDGE_CURVE ( 'NONE', #213, #213, #289, .T. ) ;
#179 = CARTESIAN_POINT ( 'NONE',  ( -0.4035433070866141800, 0.0000000000000000000, 0.0000000000000000000 ) ) ;
#180 =( GEOMETRIC_REPRESENTATION_CONTEXT ( 3 ) GLOBAL_UNCERTAINTY_ASSIGNED_CONTEXT ( ( #189 ) ) GLOBAL_UNIT_ASSIGNED_CONTEXT ( ( #225, #353, #124 ) ) REPRESENTATION_CONTEXT ( 'NONE', 'WORKASPACE' ) );
#181 = CYLINDRICAL_SURFACE ( 'NONE', #233, 0.6299212598425196800 ) ;
#182 = ORIENTED_EDGE ( 'NONE', *, *, #271, .T. ) ;
#183 = EDGE_CURVE ( 'NONE', #150, #92, #334, .T. ) ;
#184 = DIRECTION ( 'NONE',  ( 0.0000000000000000000, 0.0000000000000000000, -1.000000000000000000 ) ) ;
#185 = CARTESIAN_POINT ( 'NONE',  ( -3.543307086614173200, 0.0000000000000000000, 0.0000000000000000000 ) ) ;
#186 = CARTESIAN_POINT ( 'NONE',  ( 0.0000000000000000000, 0.0000000000000000000, 0.0000000000000000000 ) ) ;
#187 = FACE_OUTER_BOUND ( 'NONE', #365, .T. ) ;
#188 = CARTESIAN_POINT ( 'NONE',  ( -1.771653543307086600, 0.0000000000000000000, -0.5118110236220472200 ) ) ;
#189 = UNCERTAINTY_MEASURE_WITH_UNIT (LENGTH_MEASURE( 1.000000000000000100E-005 ), #225, 'distance_accuracy_value', 'NONE');
#190 = CIRCLE ( 'NONE', #134, 0.6299212598425196800 ) ;
#191 =( BOUNDED_CURVE ( )  B_SPLINE_CURVE ( 3, ( #27, #248, #270, #90 ),
 .UNSPECIFIED., .F., .T. ) 
 B_SPLINE_CURVE_WITH_KNOTS ( ( 4, 4 ),
 ( 1.570796326794896800, 4.712388980384689700 ),
 .UNSPECIFIED. ) 
 CURVE ( )  GEOMETRIC_REPRESENTATION_ITEM ( )  RATIONAL_B_SPLINE_CURVE ( ( 1.000000000000000000, 0.3333333333333333700, 0.3333333333333333700, 1.000000000000000000 ) ) 
 REPRESENTATION_ITEM ( '' )  );
#192 = LENGTH_MEASURE_WITH_UNIT ( LENGTH_MEASURE( 0.02539999999999999900 ), #47 );
#193 = DIRECTION ( 'NONE',  ( 0.0000000000000000000, 1.000000000000000000, 0.0000000000000000000 ) ) ;
#194 = EDGE_LOOP ( 'NONE', ( #314 ) ) ;
#195 = EDGE_LOOP ( 'NONE', ( #347 ) ) ;
#196 = DIRECTION ( 'NONE',  ( 1.000000000000000000, 0.0000000000000000000, 0.0000000000000000000 ) ) ;
#197 = DIRECTION ( 'NONE',  ( 0.0000000000000000000, -1.000000000000000000, 0.0000000000000000000 ) ) ;
#198 = PLANE ( 'NONE',  #367 ) ;
#199 = DIRECTION ( 'NONE',  ( 0.0000000000000000000, 0.0000000000000000000, -1.000000000000000000 ) ) ;
#200 = DIRECTION ( 'NONE',  ( 0.0000000000000000000, 0.0000000000000000000, -1.000000000000000000 ) ) ;
#201 = AXIS2_PLACEMENT_3D ( 'NONE', #89, #97, #199 ) ;
#202 = FACE_OUTER_BOUND ( 'NONE', #331, .T. ) ;
#203 = ORIENTED_EDGE ( 'NONE', *, *, #242, .F. ) ;
#204 = CARTESIAN_POINT ( 'NONE',  ( -1.771653543307086600, 0.9055118110236221000, 0.0000000000000000000 ) ) ;
#205 = DIRECTION ( 'NONE',  ( 0.0000000000000000000, -0.0000000000000000000, 1.000000000000000000 ) ) ;
#206 = AXIS2_PLACEMENT_3D ( 'NONE', #131, #120, #168 ) ;
#207 = DIRECTION ( 'NONE',  ( 0.0000000000000000000, -1.000000000000000000, 0.0000000000000000000 ) ) ;
#208 = ADVANCED_FACE ( 'NONE', ( #40, #3, #220 ), #39, .F. ) ;
#209 = COORDINATED_UNIVERSAL_TIME_OFFSET ( 5, 0, .BEHIND. ) ;
#210 = COORDINATED_UNIVERSAL_TIME_OFFSET ( 5, 0, .BEHIND. ) ;
#211 = AXIS2_PLACEMENT_3D ( 'NONE', #366, #151, #54 ) ;
#212 = CONICAL_SURFACE ( 'NONE', #206, 0.6889763779527560100, 0.7853981633974482800 ) ;
#213 = VERTEX_POINT ( 'NONE', #31 ) ;
#214 = VERTEX_POINT ( 'NONE', #87 ) ;
#215 = ORIENTED_EDGE ( 'NONE', *, *, #262, .F. ) ;
#216 = CARTESIAN_POINT ( 'NONE',  ( -1.771653543307086600, 0.0000000000000000000, 0.6889763779527559000 ) ) ;
#217 = ORIENTED_EDGE ( 'NONE', *, *, #271, .F. ) ;
#218 = COORDINATED_UNIVERSAL_TIME_OFFSET ( 5, 0, .BEHIND. ) ;
#219 = DATE_AND_TIME ( #46, #126 ) ;
#220 = FACE_OUTER_BOUND ( 'NONE', #155, .T. ) ;
#221 = AXIS2_PLACEMENT_3D ( 'NONE', #75, #145, #245 ) ;
#222 = SHAPE_DEFINITION_REPRESENTATION ( #312, #275 ) ;
#223 = ORIENTED_EDGE ( 'NONE', *, *, #242, .T. ) ;
#224 = EDGE_CURVE ( 'NONE', #92, #150, #191, .T. ) ;
#225 =( CONVERSION_BASED_UNIT ( 'INCH', #192 ) LENGTH_UNIT ( ) NAMED_UNIT ( #163 ) );
#226 = CARTESIAN_POINT ( 'NONE',  ( -2.795275590551180600, 1.023622047244094700, -0.5118110236220470000 ) ) ;
#227 = SECURITY_CLASSIFICATION ( '', '', #14 ) ;
#228 = PERSON_AND_ORGANIZATION ( #57, #96 ) ;
#229 = AXIS2_PLACEMENT_3D ( 'NONE', #173, #171, #264 ) ;
#230 = CARTESIAN_POINT ( 'NONE',  ( -2.795275590551180600, 1.023622047244094200, 0.5118110236220473300 ) ) ;
#231 = DIRECTION ( 'NONE',  ( 0.0000000000000000000, 0.0000000000000000000, 1.000000000000000000 ) ) ;
#232 = CYLINDRICAL_SURFACE ( 'NONE', #317, 0.5118110236220473300 ) ;
#233 = AXIS2_PLACEMENT_3D ( 'NONE', #274, #68, #295 ) ;
#234 = CIRCLE ( 'NONE', #58, 0.5118110236220473300 ) ;
#235 = ORIENTED_EDGE ( 'NONE', *, *, #378, .T. ) ;
#236 = CARTESIAN_POINT ( 'NONE',  ( 0.0000000000000000000, 0.0000000000000000000, -0.6299212598425196800 ) ) ;
#237 = EDGE_LOOP ( 'NONE', ( #318, #215 ) ) ;
#238 = AXIS2_PLACEMENT_3D ( 'NONE', #386, #101, #166 ) ;
#239 = PERSON_AND_ORGANIZATION ( #57, #96 ) ;
#240 = EDGE_LOOP ( 'NONE', ( #364 ) ) ;
#241 = ADVANCED_FACE ( 'NONE', ( #35, #29 ), #106, .T. ) ;
#242 = EDGE_CURVE ( 'NONE', #329, #329, #190, .T. ) ;
#243 = FACE_OUTER_BOUND ( 'NONE', #108, .T. ) ;
#244 = ORIENTED_EDGE ( 'NONE', *, *, #183, .F. ) ;
#245 = DIRECTION ( 'NONE',  ( 0.0000000000000000000, 0.0000000000000000000, -1.000000000000000000 ) ) ;
#246 = AXIS2_PLACEMENT_3D ( 'NONE', #345, #109, #356 ) ;
#247 = ORIENTED_EDGE ( 'NONE', *, *, #383, .T. ) ;
#248 = CARTESIAN_POINT ( 'NONE',  ( -3.149606299212598200, 1.377952755905511400, 0.6889763779527555700 ) ) ;
#249 = DIRECTION ( 'NONE',  ( -1.000000000000000000, -0.0000000000000000000, 0.0000000000000000000 ) ) ;
#250 = DIRECTION ( 'NONE',  ( 1.000000000000000000, 0.0000000000000000000, 0.0000000000000000000 ) ) ;
#251 = EDGE_CURVE ( 'NONE', #169, #169, #285, .T. ) ;
#252 = APPLICATION_PROTOCOL_DEFINITION ( 'international standard', 'config_control_design', 1994, #348 ) ;
#253 = ORIENTED_EDGE ( 'NONE', *, *, #130, .T. ) ;
#254 = DIRECTION ( 'NONE',  ( 1.000000000000000000, -0.0000000000000000000, -0.0000000000000000000 ) ) ;
#255 = CONICAL_SURFACE ( 'NONE', #172, 0.6889763779527560100, 0.7853981633974482800 ) ;
#256 = EDGE_LOOP ( 'NONE', ( #253 ) ) ;
#257 = PERSON_AND_ORGANIZATION_ROLE ( 'design_supplier' ) ;
#258 = EDGE_LOOP ( 'NONE', ( #182 ) ) ;
#259 = EDGE_CURVE ( 'NONE', #135, #135, #358, .T. ) ;
#260 = CARTESIAN_POINT ( 'NONE',  ( -2.736220472440945400, 0.0000000000000000000, 0.0000000000000000000 ) ) ;
#261 = CC_DESIGN_DATE_AND_TIME_ASSIGNMENT ( #74, #119, ( #115 ) ) ;
#262 = EDGE_CURVE ( 'NONE', #362, #214, #105, .T. ) ;
#263 = PERSON_AND_ORGANIZATION ( #57, #96 ) ;
#264 = DIRECTION ( 'NONE',  ( 0.0000000000000000000, 0.0000000000000000000, -1.000000000000000000 ) ) ;
#265 = ORIENTED_EDGE ( 'NONE', *, *, #262, .T. ) ;
#266 = CARTESIAN_POINT ( 'NONE',  ( -1.771653543307086600, 1.771653543307086600, -0.6299212598425196800 ) ) ;
#267 = DIRECTION ( 'NONE',  ( -1.000000000000000000, -0.0000000000000000000, -0.0000000000000000000 ) ) ;
#268 = DIRECTION ( 'NONE',  ( 0.0000000000000000000, 0.0000000000000000000, -1.000000000000000000 ) ) ;
#269 = CARTESIAN_POINT ( 'NONE',  ( -1.771653543307086600, 1.771653543307086600, 0.0000000000000000000 ) ) ;
#270 = CARTESIAN_POINT ( 'NONE',  ( -3.149606299212598200, 1.377952755905511400, -0.6889763779527555700 ) ) ;
#271 = EDGE_CURVE ( 'NONE', #280, #280, #71, .T. ) ;
#272 = FACE_BOUND ( 'NONE', #350, .T. ) ;
#273 = FACE_OUTER_BOUND ( 'NONE', #61, .T. ) ;
#274 = CARTESIAN_POINT ( 'NONE',  ( -1.771653543307086600, 1.368110236220472700, 0.0000000000000000000 ) ) ;
#275 = ADVANCED_BREP_SHAPE_REPRESENTATION ( '581246010', ( #38, #246 ), #180 ) ;
#276 = DIRECTION ( 'NONE',  ( 0.0000000000000000000, 0.0000000000000000000, 1.000000000000000000 ) ) ;
#277 = APPROVAL ( #377, 'UNSPECIFIED' ) ;
#278 = CIRCLE ( 'NONE', #229, 0.6299212598425196800 ) ;
#279 = CC_DESIGN_PERSON_AND_ORGANIZATION_ASSIGNMENT ( #125, #257, ( #154 ) ) ;
#280 = VERTEX_POINT ( 'NONE', #49 ) ;
#281 = ADVANCED_FACE ( 'NONE', ( #352, #160 ), #100, .T. ) ;
#282 = EDGE_LOOP ( 'NONE', ( #9 ) ) ;
#283 = ORIENTED_EDGE ( 'NONE', *, *, #251, .T. ) ;
#284 = EDGE_CURVE ( 'NONE', #361, #361, #278, .T. ) ;
#285 = CIRCLE ( 'NONE', #201, 0.6299212598425196800 ) ;
#286 = CC_DESIGN_PERSON_AND_ORGANIZATION_ASSIGNMENT ( #374, #67, ( #154 ) ) ;
#287 = DIRECTION ( 'NONE',  ( 0.0000000000000000000, 1.000000000000000000, 0.0000000000000000000 ) ) ;
#288 = AXIS2_PLACEMENT_3D ( 'NONE', #293, #330, #231 ) ;
#289 = CIRCLE ( 'NONE', #103, 0.6889763779527560100 ) ;
#290 = CARTESIAN_POINT ( 'NONE',  ( -2.677165354330708800, 0.0000000000000000000, 0.0000000000000000000 ) ) ;
#291 = PERSON_AND_ORGANIZATION ( #57, #96 ) ;
#292 = APPROVAL_PERSON_ORGANIZATION ( #82, #277, #17 ) ;
#293 = CARTESIAN_POINT ( 'NONE',  ( -3.543307086614173200, 0.3149606299212598400, -7.714055772109449500E-017 ) ) ;
#294 = AXIS2_PLACEMENT_3D ( 'NONE', #137, #60, #129 ) ;
#295 = DIRECTION ( 'NONE',  ( 0.0000000000000000000, 0.0000000000000000000, -1.000000000000000000 ) ) ;
#296 = VERTEX_POINT ( 'NONE', #45 ) ;
#297 = CC_DESIGN_SECURITY_CLASSIFICATION ( #227, ( #154 ) ) ;
#298 = CARTESIAN_POINT ( 'NONE',  ( -0.7480314960629922400, 1.023622047244094700, 0.5118110236220470000 ) ) ;
#299 = AXIS2_PLACEMENT_3D ( 'NONE', #41, #249, #276 ) ;
#300 = DATE_AND_TIME ( #138, #64 ) ;
#301 = PERSON_AND_ORGANIZATION_ROLE ( 'design_owner' ) ;
#302 = ORIENTED_EDGE ( 'NONE', *, *, #178, .F. ) ;
#303 = ADVANCED_FACE ( 'NONE', ( #243, #16 ), #181, .T. ) ;
#304 = CYLINDRICAL_SURFACE ( 'NONE', #221, 0.6889763779527560100 ) ;
#305 = AXIS2_PLACEMENT_3D ( 'NONE', #290, #76, #53 ) ;
#306 = DIRECTION ( 'NONE',  ( -1.000000000000000000, -0.0000000000000000000, -0.0000000000000000000 ) ) ;
#307 = ADVANCED_FACE ( 'NONE', ( #187, #272 ), #198, .T. ) ;
#308 = CARTESIAN_POINT ( 'NONE',  ( -1.771653543307086600, 0.4527559055118110500, 0.0000000000000000000 ) ) ;
#309 = ADVANCED_FACE ( 'NONE', ( #91, #8 ), #255, .T. ) ;
#310 = CALENDAR_DATE ( 2017, 27, 7 ) ;
#311 = ORIENTED_EDGE ( 'NONE', *, *, #224, .F. ) ;
#312 = PRODUCT_DEFINITION_SHAPE ( 'NONE', 'NONE',  #115 ) ;
#313 = FACE_OUTER_BOUND ( 'NONE', #83, .T. ) ;
#314 = ORIENTED_EDGE ( 'NONE', *, *, #86, .F. ) ;
#315 = APPROVAL_ROLE ( '' ) ;
#316 = ORIENTED_EDGE ( 'NONE', *, *, #183, .T. ) ;
#317 = AXIS2_PLACEMENT_3D ( 'NONE', #144, #26, #104 ) ;
#318 = ORIENTED_EDGE ( 'NONE', *, *, #383, .F. ) ;
#319 = ORIENTED_EDGE ( 'NONE', *, *, #259, .F. ) ;
#320 = CIRCLE ( 'NONE', #141, 0.5118110236220473300 ) ;
#321 = CARTESIAN_POINT ( 'NONE',  ( -1.771653543307086600, 0.9645669291338583300, -0.6299212598425196800 ) ) ;
#322 = AXIS2_PLACEMENT_3D ( 'NONE', #185, #148, #184 ) ;
#323 = APPLICATION_CONTEXT ( 'configuration controlled 3d designs of mechanical parts and assemblies' ) ;
#324 = DATE_AND_TIME ( #162, #85 ) ;
#325 = FACE_OUTER_BOUND ( 'NONE', #340, .T. ) ;
#326 = AXIS2_PLACEMENT_3D ( 'NONE', #179, #380, #368 ) ;
#327 = ORIENTED_EDGE ( 'NONE', *, *, #224, .T. ) ;
#328 = DIRECTION ( 'NONE',  ( 0.0000000000000000000, 0.0000000000000000000, -1.000000000000000000 ) ) ;
#329 = VERTEX_POINT ( 'NONE', #266 ) ;
#330 = DIRECTION ( 'NONE',  ( -1.000000000000000000, 0.0000000000000000000, 0.0000000000000000000 ) ) ;
#331 = EDGE_LOOP ( 'NONE', ( #78 ) ) ;
#332 = FACE_BOUND ( 'NONE', #371, .T. ) ;
#333 = DIRECTION ( 'NONE',  ( -0.0000000000000000000, -1.000000000000000000, -0.0000000000000000000 ) ) ;
#334 =( BOUNDED_CURVE ( )  B_SPLINE_CURVE ( 3, ( #110, #112, #73, #44 ),
 .UNSPECIFIED., .F., .T. ) 
 B_SPLINE_CURVE_WITH_KNOTS ( ( 4, 4 ),
 ( 1.570796326794896600, 4.712388980384689700 ),
 .UNSPECIFIED. ) 
 CURVE ( )  GEOMETRIC_REPRESENTATION_ITEM ( )  RATIONAL_B_SPLINE_CURVE ( ( 1.000000000000000000, 0.3333333333333333700, 0.3333333333333333700, 1.000000000000000000 ) ) 
 REPRESENTATION_ITEM ( '' )  );
#335 = CARTESIAN_POINT ( 'NONE',  ( -1.771653543307086600, 0.0000000000000000000, -0.5118110236220472200 ) ) ;
#336 = PRODUCT_RELATED_PRODUCT_CATEGORY ( 'detail', '', ( #7 ) ) ;
#337 = COORDINATED_UNIVERSAL_TIME_OFFSET ( 5, 0, .BEHIND. ) ;
#338 = PERSON_AND_ORGANIZATION_ROLE ( 'creator' ) ;
#339 = FACE_OUTER_BOUND ( 'NONE', #146, .T. ) ;
#340 = EDGE_LOOP ( 'NONE', ( #265, #247 ) ) ;
#341 = ORIENTED_EDGE ( 'NONE', *, *, #122, .T. ) ;
#342 = FACE_BOUND ( 'NONE', #282, .T. ) ;
#343 = CLOSED_SHELL ( 'NONE', ( #208, #281, #15, #34, #241, #43, #307, #33, #149, #303, #382, #309, #170 ) ) ;
#344 = FACE_OUTER_BOUND ( 'NONE', #194, .T. ) ;
#345 = CARTESIAN_POINT ( 'NONE',  ( 0.0000000000000000000, 0.0000000000000000000, 0.0000000000000000000 ) ) ;
#346 = APPROVAL_STATUS ( 'not_yet_approved' ) ;
#347 = ORIENTED_EDGE ( 'NONE', *, *, #178, .T. ) ;
#348 = APPLICATION_CONTEXT ( 'configuration controlled 3d designs of mechanical parts and assemblies' ) ;
#349 = FACE_OUTER_BOUND ( 'NONE', #369, .T. ) ;
#350 = EDGE_LOOP ( 'NONE', ( #48 ) ) ;
#351 = EDGE_LOOP ( 'NONE', ( #18 ) ) ;
#352 = FACE_OUTER_BOUND ( 'NONE', #147, .T. ) ;
#353 =( NAMED_UNIT ( * ) PLANE_ANGLE_UNIT ( ) SI_UNIT ( $, .RADIAN. ) );
#354 = EDGE_CURVE ( 'NONE', #42, #42, #234, .T. ) ;
#355 = ORIENTED_EDGE ( 'NONE', *, *, #122, .F. ) ;
#356 = DIRECTION ( 'NONE',  ( 1.000000000000000000, 0.0000000000000000000, 0.0000000000000000000 ) ) ;
#357 = APPROVAL_STATUS ( 'not_yet_approved' ) ;
#358 = CIRCLE ( 'NONE', #80, 0.5118110236220473300 ) ;
#359 = FACE_BOUND ( 'NONE', #50, .T. ) ;
#360 = ORIENTED_EDGE ( 'NONE', *, *, #28, .T. ) ;
#361 = VERTEX_POINT ( 'NONE', #321 ) ;
#362 = VERTEX_POINT ( 'NONE', #176 ) ;
#363 = EDGE_LOOP ( 'NONE', ( #93 ) ) ;
#364 = ORIENTED_EDGE ( 'NONE', *, *, #354, .T. ) ;
#365 = EDGE_LOOP ( 'NONE', ( #223 ) ) ;
#366 = CARTESIAN_POINT ( 'NONE',  ( 0.0000000000000000000, 0.0000000000000000000, 0.0000000000000000000 ) ) ;
#367 = AXIS2_PLACEMENT_3D ( 'NONE', #52, #193, #205 ) ;
#368 = DIRECTION ( 'NONE',  ( 0.0000000000000000000, 0.0000000000000000000, -1.000000000000000000 ) ) ;
#369 = EDGE_LOOP ( 'NONE', ( #319 ) ) ;
#370 = EDGE_LOOP ( 'NONE', ( #355 ) ) ;
#371 = EDGE_LOOP ( 'NONE', ( #70 ) ) ;
#372 = DIRECTION ( 'NONE',  ( 0.0000000000000000000, 0.0000000000000000000, -1.000000000000000000 ) ) ;
#373 = CARTESIAN_POINT ( 'NONE',  ( -1.771653543307086600, 1.771653543307086600, -0.5118110236220473300 ) ) ;
#374 = PERSON_AND_ORGANIZATION ( #57, #96 ) ;
#375 = CARTESIAN_POINT ( 'NONE',  ( -1.771653543307086600, 3.133938659235353000E-017, 0.5118110236220472200 ) ) ;
#376 = CIRCLE ( 'NONE', #322, 0.6299212598425196800 ) ;
#377 = APPROVAL_STATUS ( 'not_yet_approved' ) ;
#378 = EDGE_CURVE ( 'NONE', #118, #118, #152, .T. ) ;
#379 = VERTEX_POINT ( 'NONE', #143 ) ;
#380 = DIRECTION ( 'NONE',  ( 1.000000000000000000, 0.0000000000000000000, 0.0000000000000000000 ) ) ;
#381 = AXIS2_PLACEMENT_3D ( 'NONE', #260, #267, #372 ) ;
#382 = ADVANCED_FACE ( 'NONE', ( #99, #339, #313 ), #304, .T. ) ;
#383 = EDGE_CURVE ( 'NONE', #214, #362, #132, .T. ) ;
#384 = APPROVAL_PERSON_ORGANIZATION ( #228, #117, #177 ) ;
#385 = ORIENTED_EDGE ( 'NONE', *, *, #284, .T. ) ;
#386 = CARTESIAN_POINT ( 'NONE',  ( -3.139763779527559300, 0.0000000000000000000, 0.0000000000000000000 ) ) ;
ENDSEC;
END-ISO-10303-21;
