ISO-10303-21;
HEADER;
FILE_DESCRIPTION (( 'STEP AP203' ),
    '1' );
FILE_NAME ('581246060.STEP',
    '2017-07-27T19:41:37',
    ( '' ),
    ( '' ),
    'SwSTEP 2.0',
    'SolidWorks 2017',
    '' );
FILE_SCHEMA (( 'CONFIG_CONTROL_DESIGN' ));
ENDSEC;

DATA;
#1 = CARTESIAN_POINT ( 'NONE',  ( -6.692913385826772200, 2.080708661417323100, 0.0000000000000000000 ) ) ;
#2 = AXIS2_PLACEMENT_3D ( 'NONE', #260, #102, #255 ) ;
#3 = ORIENTED_EDGE ( 'NONE', *, *, #114, .F. ) ;
#4 = CYLINDRICAL_SURFACE ( 'NONE', #112, 3.149606299212598600 ) ;
#5 = DIRECTION ( 'NONE',  ( -0.0000000000000000000, -1.000000000000000000, -0.0000000000000000000 ) ) ;
#6 = ADVANCED_FACE ( 'NONE', ( #17, #94, #323 ), #146, .F. ) ;
#7 = CC_DESIGN_PERSON_AND_ORGANIZATION_ASSIGNMENT ( #82, #320, ( #84 ) ) ;
#8 = SECURITY_CLASSIFICATION ( '', '', #23 ) ;
#9 = CARTESIAN_POINT ( 'NONE',  ( 0.0000000000000000000, 1.574803149606299300, -3.857027886054732100E-016 ) ) ;
#10 = ORIENTED_EDGE ( 'NONE', *, *, #375, .T. ) ;
#11 = VERTEX_POINT ( 'NONE', #367 ) ;
#12 = CARTESIAN_POINT ( 'NONE',  ( 0.0000000000000000000, 0.0000000000000000000, 0.0000000000000000000 ) ) ;
#13 = DIRECTION ( 'NONE',  ( 1.000000000000000000, 0.0000000000000000000, -0.0000000000000000000 ) ) ;
#14 = CARTESIAN_POINT ( 'NONE',  ( 0.03937007874015748000, 0.0000000000000000000, 0.0000000000000000000 ) ) ;
#15 = EDGE_CURVE ( 'NONE', #337, #337, #297, .T. ) ;
#16 = CARTESIAN_POINT ( 'NONE',  ( 0.0000000000000000000, 0.0000000000000000000, 0.0000000000000000000 ) ) ;
#17 = FACE_BOUND ( 'NONE', #39, .T. ) ;
#18 = CARTESIAN_POINT ( 'NONE',  ( -2.531496062992125900, 3.437007874015747700, -8.417963361314435400E-016 ) ) ;
#19 = CONICAL_SURFACE ( 'NONE', #292, 3.437007874015750400, 0.7853981633974501700 ) ;
#20 = DIRECTION ( 'NONE',  ( 1.000000000000000000, 0.0000000000000000000, 0.0000000000000000000 ) ) ;
#21 = PERSON_AND_ORGANIZATION ( #326, #81 ) ;
#22 = AXIS2_PLACEMENT_3D ( 'NONE', #16, #54, #20 ) ;
#23 = SECURITY_CLASSIFICATION_LEVEL ( 'unclassified' ) ;
#24 = DATE_AND_TIME ( #322, #87 ) ;
#25 = EDGE_LOOP ( 'NONE', ( #382 ) ) ;
#26 = CYLINDRICAL_SURFACE ( 'NONE', #58, 3.149606299212598600 ) ;
#27 = AXIS2_PLACEMENT_3D ( 'NONE', #100, #216, #278 ) ;
#28 = ORIENTED_EDGE ( 'NONE', *, *, #55, .T. ) ;
#29 = CIRCLE ( 'NONE', #127, 3.149606299212598600 ) ;
#30 = EDGE_CURVE ( 'NONE', #175, #122, #66, .T. ) ;
#31 = ORIENTED_EDGE ( 'NONE', *, *, #63, .F. ) ;
#32 = CYLINDRICAL_SURFACE ( 'NONE', #92, 2.574803149606300000 ) ;
#33 = AXIS2_PLACEMENT_3D ( 'NONE', #358, #34, #364 ) ;
#34 = DIRECTION ( 'NONE',  ( -1.000000000000000000, -0.0000000000000000000, 0.0000000000000000000 ) ) ;
#35 = AXIS2_PLACEMENT_3D ( 'NONE', #14, #185, #132 ) ;
#36 = DIRECTION ( 'NONE',  ( 0.0000000000000000000, 0.0000000000000000000, -1.000000000000000000 ) ) ;
#37 = APPROVAL_DATE_TIME ( #304, #258 ) ;
#38 = EDGE_CURVE ( 'NONE', #237, #153, #325, .T. ) ;
#39 = EDGE_LOOP ( 'NONE', ( #202, #269 ) ) ;
#40 = VERTEX_POINT ( 'NONE', #111 ) ;
#41 = DIRECTION ( 'NONE',  ( 0.0000000000000000000, 0.0000000000000000000, -1.000000000000000000 ) ) ;
#42 = ADVANCED_FACE ( 'NONE', ( #254, #374, #312 ), #281, .T. ) ;
#43 = AXIS2_PLACEMENT_3D ( 'NONE', #12, #109, #314 ) ;
#44 = CARTESIAN_POINT ( 'NONE',  ( -10.85433070866141800, 0.0000000000000000000, 0.0000000000000000000 ) ) ;
#45 = EDGE_LOOP ( 'NONE', ( #245 ) ) ;
#46 = CIRCLE ( 'NONE', #2, 2.574803149606300000 ) ;
#47 = CARTESIAN_POINT ( 'NONE',  ( -6.692913385826772200, 0.0000000000000000000, 0.0000000000000000000 ) ) ;
#48 = CARTESIAN_POINT ( 'NONE',  ( -11.14173228346456800, 0.0000000000000000000, 0.0000000000000000000 ) ) ;
#49 = DIRECTION ( 'NONE',  ( 0.0000000000000000000, 0.0000000000000000000, -1.000000000000000000 ) ) ;
#50 = CARTESIAN_POINT ( 'NONE',  ( 0.1811023622047219200, 6.874015748031495400, -3.437007874015748100 ) ) ;
#51 = ORIENTED_EDGE ( 'NONE', *, *, #38, .T. ) ;
#52 = CARTESIAN_POINT ( 'NONE',  ( -2.244094488188976400, 0.0000000000000000000, -3.149606299212598600 ) ) ;
#53 = CC_DESIGN_DATE_AND_TIME_ASSIGNMENT ( #226, #143, ( #84 ) ) ;
#54 = DIRECTION ( 'NONE',  ( 0.0000000000000000000, 0.0000000000000000000, 1.000000000000000000 ) ) ;
#55 = EDGE_CURVE ( 'NONE', #270, #270, #46, .T. ) ;
#56 = PERSON_AND_ORGANIZATION_ROLE ( 'design_owner' ) ;
#57 = COORDINATED_UNIVERSAL_TIME_OFFSET ( 5, 0, .BEHIND. ) ;
#58 = AXIS2_PLACEMENT_3D ( 'NONE', #303, #5, #182 ) ;
#59 = ORIENTED_EDGE ( 'NONE', *, *, #63, .T. ) ;
#60 = DATE_TIME_ROLE ( 'classification_date' ) ;
#61 = AXIS2_PLACEMENT_3D ( 'NONE', #331, #309, #104 ) ;
#62 = CC_DESIGN_DATE_AND_TIME_ASSIGNMENT ( #275, #60, ( #8 ) ) ;
#63 = EDGE_CURVE ( 'NONE', #347, #347, #235, .T. ) ;
#64 = EDGE_LOOP ( 'NONE', ( #336 ) ) ;
#65 = FACE_OUTER_BOUND ( 'NONE', #362, .T. ) ;
#66 =( BOUNDED_CURVE ( )  B_SPLINE_CURVE ( 3, ( #343, #384, #310, #128 ),
 .UNSPECIFIED., .F., .F. ) 
 B_SPLINE_CURVE_WITH_KNOTS ( ( 4, 4 ),
 ( 1.570796326794896600, 4.712388980384689700 ),
 .UNSPECIFIED. ) 
 CURVE ( )  GEOMETRIC_REPRESENTATION_ITEM ( )  RATIONAL_B_SPLINE_CURVE ( ( 1.000000000000000000, 0.3333333333333333700, 0.3333333333333333700, 1.000000000000000000 ) ) 
 REPRESENTATION_ITEM ( '' )  );
#67 = LOCAL_TIME ( 15, 41, 37.00000000000000000, #57 ) ;
#68 = CARTESIAN_POINT ( 'NONE',  ( -2.244094488188976400, 0.0000000000000000000, 0.0000000000000000000 ) ) ;
#69 = FACE_OUTER_BOUND ( 'NONE', #305, .T. ) ;
#70 = EDGE_CURVE ( 'NONE', #40, #40, #354, .T. ) ;
#71 = ADVANCED_FACE ( 'NONE', ( #301, #206 ), #26, .T. ) ;
#72 = ORIENTED_EDGE ( 'NONE', *, *, #359, .F. ) ;
#73 = CIRCLE ( 'NONE', #43, 2.574803149606300000 ) ;
#74 = CARTESIAN_POINT ( 'NONE',  ( -6.692913385826772200, 1.576612217799939400E-016, 2.574803149606300000 ) ) ;
#75 = EDGE_LOOP ( 'NONE', ( #353 ) ) ;
#76 = CIRCLE ( 'NONE', #294, 3.149606299212598600 ) ;
#77 = DIRECTION ( 'NONE',  ( 1.000000000000000000, 0.0000000000000000000, 0.0000000000000000000 ) ) ;
#78 =( BOUNDED_CURVE ( )  B_SPLINE_CURVE ( 3, ( #334, #154, #299, #95 ),
 .UNSPECIFIED., .F., .T. ) 
 B_SPLINE_CURVE_WITH_KNOTS ( ( 4, 4 ),
 ( 1.570796326794896800, 4.712388980384689700 ),
 .UNSPECIFIED. ) 
 CURVE ( )  GEOMETRIC_REPRESENTATION_ITEM ( )  RATIONAL_B_SPLINE_CURVE ( ( 1.000000000000000000, 0.3333333333333333700, 0.3333333333333333700, 1.000000000000000000 ) ) 
 REPRESENTATION_ITEM ( '' )  );
#79 = EDGE_CURVE ( 'NONE', #106, #106, #340, .T. ) ;
#80 = DIRECTION ( 'NONE',  ( 0.0000000000000000000, 1.000000000000000000, 0.0000000000000000000 ) ) ;
#81 = ORGANIZATION ( 'UNSPECIFIED', 'UNSPECIFIED', '' ) ;
#82 = PERSON_AND_ORGANIZATION ( #326, #81 ) ;
#83 = APPLICATION_PROTOCOL_DEFINITION ( 'international standard', 'config_control_design', 1994, #263 ) ;
#84 = PRODUCT_DEFINITION ( 'UNKNOWN', '', #220, #183 ) ;
#85 = APPROVAL_PERSON_ORGANIZATION ( #21, #196, #86 ) ;
#86 = APPROVAL_ROLE ( '' ) ;
#87 = LOCAL_TIME ( 15, 41, 37.00000000000000000, #145 ) ;
#88 = ORIENTED_EDGE ( 'NONE', *, *, #221, .T. ) ;
#89 = VERTEX_POINT ( 'NONE', #166 ) ;
#90 = ORIENTED_EDGE ( 'NONE', *, *, #15, .F. ) ;
#91 = EDGE_CURVE ( 'NONE', #218, #218, #242, .T. ) ;
#92 = AXIS2_PLACEMENT_3D ( 'NONE', #381, #125, #357 ) ;
#93 = DIRECTION ( 'NONE',  ( 0.0000000000000000000, 0.0000000000000000000, 1.000000000000000000 ) ) ;
#94 = FACE_OUTER_BOUND ( 'NONE', #75, .T. ) ;
#95 = CARTESIAN_POINT ( 'NONE',  ( -6.692913385826772200, 0.0000000000000000000, -3.437007874015747700 ) ) ;
#96 = AXIS2_PLACEMENT_3D ( 'NONE', #184, #186, #93 ) ;
#97 = COORDINATED_UNIVERSAL_TIME_OFFSET ( 5, 0, .BEHIND. ) ;
#98 = EDGE_LOOP ( 'NONE', ( #147 ) ) ;
#99 = FACE_BOUND ( 'NONE', #177, .T. ) ;
#100 = CARTESIAN_POINT ( 'NONE',  ( -6.692913385826772200, 4.161417322834646300, 0.0000000000000000000 ) ) ;
#101 = ADVANCED_FACE ( 'NONE', ( #267, #144 ), #213, .T. ) ;
#102 = DIRECTION ( 'NONE',  ( 0.0000000000000000000, -1.000000000000000000, 0.0000000000000000000 ) ) ;
#103 = PRODUCT_DEFINITION_SHAPE ( 'NONE', 'NONE',  #84 ) ;
#104 = DIRECTION ( 'NONE',  ( 0.0000000000000000000, 0.0000000000000000000, -1.000000000000000000 ) ) ;
#105 = ORIENTED_EDGE ( 'NONE', *, *, #120, .T. ) ;
#106 = VERTEX_POINT ( 'NONE', #316 ) ;
#107 = DIRECTION ( 'NONE',  ( 1.000000000000000000, -0.0000000000000000000, -0.0000000000000000000 ) ) ;
#108 = DIRECTION ( 'NONE',  ( 0.0000000000000000000, 0.0000000000000000000, -1.000000000000000000 ) ) ;
#109 = DIRECTION ( 'NONE',  ( -1.000000000000000000, -0.0000000000000000000, -0.0000000000000000000 ) ) ;
#110 = EDGE_LOOP ( 'NONE', ( #90 ) ) ;
#111 = CARTESIAN_POINT ( 'NONE',  ( -13.38582677165354400, 0.0000000000000000000, -3.149606299212598600 ) ) ;
#112 = AXIS2_PLACEMENT_3D ( 'NONE', #137, #135, #366 ) ;
#113 =( CONVERSION_BASED_UNIT ( 'INCH', #236 ) LENGTH_UNIT ( ) NAMED_UNIT ( #246 ) );
#114 = EDGE_CURVE ( 'NONE', #176, #176, #76, .T. ) ;
#115 = APPROVAL_ROLE ( '' ) ;
#116 = PERSON_AND_ORGANIZATION ( #326, #81 ) ;
#117 = EDGE_LOOP ( 'NONE', ( #234 ) ) ;
#118 = FACE_BOUND ( 'NONE', #351, .T. ) ;
#119 = AXIS2_PLACEMENT_3D ( 'NONE', #194, #107, #345 ) ;
#120 = EDGE_CURVE ( 'NONE', #122, #175, #204, .T. ) ;
#121 = CLOSED_SHELL ( 'NONE', ( #6, #191, #338, #159, #249, #279, #219, #306, #101, #71, #42, #363, #129 ) ) ;
#122 = VERTEX_POINT ( 'NONE', #74 ) ;
#123 = VERTEX_POINT ( 'NONE', #225 ) ;
#124 = PLANE ( 'NONE',  #96 ) ;
#125 = DIRECTION ( 'NONE',  ( 0.0000000000000000000, -1.000000000000000000, 0.0000000000000000000 ) ) ;
#126 = CARTESIAN_POINT ( 'NONE',  ( -11.84251968503936700, 5.149606299212597300, -2.574803149606298200 ) ) ;
#127 = AXIS2_PLACEMENT_3D ( 'NONE', #259, #80, #282 ) ;
#128 = CARTESIAN_POINT ( 'NONE',  ( -6.692913385826772200, 1.576612217799939400E-016, 2.574803149606300000 ) ) ;
#129 = ADVANCED_FACE ( 'NONE', ( #295, #69 ), #383, .T. ) ;
#130 = ORIENTED_EDGE ( 'NONE', *, *, #79, .T. ) ;
#131 = AXIS2_PLACEMENT_3D ( 'NONE', #47, #380, #244 ) ;
#132 = DIRECTION ( 'NONE',  ( 0.0000000000000000000, 0.0000000000000000000, -1.000000000000000000 ) ) ;
#133 = DIRECTION ( 'NONE',  ( 0.0000000000000000000, 1.000000000000000000, 0.0000000000000000000 ) ) ;
#134 = MANIFOLD_SOLID_BREP ( '1', #121 ) ;
#135 = DIRECTION ( 'NONE',  ( 1.000000000000000000, 0.0000000000000000000, 0.0000000000000000000 ) ) ;
#136 = DIRECTION ( 'NONE',  ( -2.527039312750513000E-032, -1.000000000000000000, -7.948332077786057800E-017 ) ) ;
#137 = CARTESIAN_POINT ( 'NONE',  ( -1.122047244094488200, 0.0000000000000000000, 0.0000000000000000000 ) ) ;
#138 = EDGE_CURVE ( 'NONE', #153, #237, #78, .T. ) ;
#139 = CARTESIAN_POINT ( 'NONE',  ( -13.38582677165354400, 0.0000000000000000000, -2.574803149606300000 ) ) ;
#140 =( NAMED_UNIT ( * ) SI_UNIT ( $, .STERADIAN. ) SOLID_ANGLE_UNIT ( ) );
#141 = COORDINATED_UNIVERSAL_TIME_OFFSET ( 5, 0, .BEHIND. ) ;
#142 = ORIENTED_EDGE ( 'NONE', *, *, #114, .T. ) ;
#143 = DATE_TIME_ROLE ( 'creation_date' ) ;
#144 = FACE_BOUND ( 'NONE', #261, .T. ) ;
#145 = COORDINATED_UNIVERSAL_TIME_OFFSET ( 5, 0, .BEHIND. ) ;
#146 = CYLINDRICAL_SURFACE ( 'NONE', #35, 2.574803149606300000 ) ;
#147 = ORIENTED_EDGE ( 'NONE', *, *, #243, .F. ) ;
#148 = FACE_OUTER_BOUND ( 'NONE', #117, .T. ) ;
#149 = CC_DESIGN_APPROVAL ( #258, ( #84 ) ) ;
#150 = CARTESIAN_POINT ( 'NONE',  ( -6.692913385826772200, 0.0000000000000000000, -3.437007874015747700 ) ) ;
#151 = CC_DESIGN_SECURITY_CLASSIFICATION ( #8, ( #220 ) ) ;
#152 = CARTESIAN_POINT ( 'NONE',  ( -5.118110236220473100, 6.692913385826772200, -3.857027886054732100E-016 ) ) ;
#153 = VERTEX_POINT ( 'NONE', #212 ) ;
#154 = CARTESIAN_POINT ( 'NONE',  ( -13.56692913385827000, 6.874015748031495400, 3.437007874015746800 ) ) ;
#155 = AXIS2_PLACEMENT_3D ( 'NONE', #48, #283, #257 ) ;
#156 = DIRECTION ( 'NONE',  ( 0.0000000000000000000, 0.0000000000000000000, -1.000000000000000000 ) ) ;
#157 = ORIENTED_EDGE ( 'NONE', *, *, #138, .T. ) ;
#158 = CYLINDRICAL_SURFACE ( 'NONE', #378, 3.149606299212598600 ) ;
#159 = ADVANCED_FACE ( 'NONE', ( #365, #162 ), #32, .F. ) ;
#160 = DIRECTION ( 'NONE',  ( 0.0000000000000000000, 0.0000000000000000000, -1.000000000000000000 ) ) ;
#161 = EDGE_LOOP ( 'NONE', ( #130 ) ) ;
#162 = FACE_OUTER_BOUND ( 'NONE', #25, .T. ) ;
#163 = PLANE ( 'NONE',  #208 ) ;
#164 = CARTESIAN_POINT ( 'NONE',  ( -6.692913385826772200, 4.161417322834646300, 1.585356189614341500E-048 ) ) ;
#165 = CARTESIAN_POINT ( 'NONE',  ( -3.255905511811024100, 4.161417322834646300, -8.417963361314607900E-016 ) ) ;
#166 = CARTESIAN_POINT ( 'NONE',  ( -6.692913385826772200, 4.448818897637795400, -3.149606299212598600 ) ) ;
#167 = AXIS2_PLACEMENT_3D ( 'NONE', #152, #298, #210 ) ;
#168 = EDGE_LOOP ( 'NONE', ( #373 ) ) ;
#169 = CIRCLE ( 'NONE', #119, 3.437007874015747700 ) ;
#170 = APPLICATION_PROTOCOL_DEFINITION ( 'international standard', 'config_control_design', 1994, #199 ) ;
#171 = DATE_AND_TIME ( #239, #231 ) ;
#172 = APPROVAL_ROLE ( '' ) ;
#173 = AXIS2_PLACEMENT_3D ( 'NONE', #179, #308, #41 ) ;
#174 = APPROVAL_DATE_TIME ( #24, #329 ) ;
#175 = VERTEX_POINT ( 'NONE', #356 ) ;
#176 = VERTEX_POINT ( 'NONE', #348 ) ;
#177 = EDGE_LOOP ( 'NONE', ( #188 ) ) ;
#178 = SHAPE_DEFINITION_REPRESENTATION ( #103, #273 ) ;
#179 = CARTESIAN_POINT ( 'NONE',  ( -13.38582677165354400, 0.0000000000000000000, 0.0000000000000000000 ) ) ;
#180 = EDGE_LOOP ( 'NONE', ( #28 ) ) ;
#181 = FACE_OUTER_BOUND ( 'NONE', #64, .T. ) ;
#182 = DIRECTION ( 'NONE',  ( 0.0000000000000000000, 0.0000000000000000000, -1.000000000000000000 ) ) ;
#183 = DESIGN_CONTEXT ( 'detailed design', #263, 'design' ) ;
#184 = CARTESIAN_POINT ( 'NONE',  ( -13.38582677165354400, 1.574803149606299300, -3.857027886054732100E-016 ) ) ;
#185 = DIRECTION ( 'NONE',  ( 1.000000000000000000, 0.0000000000000000000, 0.0000000000000000000 ) ) ;
#186 = DIRECTION ( 'NONE',  ( -1.000000000000000000, 0.0000000000000000000, 0.0000000000000000000 ) ) ;
#187 = CARTESIAN_POINT ( 'NONE',  ( 0.0000000000000000000, 0.0000000000000000000, 0.0000000000000000000 ) ) ;
#188 = ORIENTED_EDGE ( 'NONE', *, *, #221, .F. ) ;
#189 = CONICAL_SURFACE ( 'NONE', #211, 3.437007874015748100, 0.7853981633974473900 ) ;
#190 = DIRECTION ( 'NONE',  ( 0.0000000000000000000, 0.0000000000000000000, -1.000000000000000000 ) ) ;
#191 = ADVANCED_FACE ( 'NONE', ( #181, #118 ), #124, .T. ) ;
#192 = ORIENTED_EDGE ( 'NONE', *, *, #375, .F. ) ;
#193 = FACE_BOUND ( 'NONE', #180, .T. ) ;
#194 = CARTESIAN_POINT ( 'NONE',  ( -2.531496062992125900, 0.0000000000000000000, 0.0000000000000000000 ) ) ;
#195 = CARTESIAN_POINT ( 'NONE',  ( -6.692913385826772200, 4.448818897637795400, 0.0000000000000000000 ) ) ;
#196 = APPROVAL ( #264, 'UNSPECIFIED' ) ;
#197 = EDGE_LOOP ( 'NONE', ( #192 ) ) ;
#198 = CARTESIAN_POINT ( 'NONE',  ( -11.14173228346456800, 0.0000000000000000000, -3.149606299212598600 ) ) ;
#199 = APPLICATION_CONTEXT ( 'configuration controlled 3d designs of mechanical parts and assemblies' ) ;
#200 = PERSON_AND_ORGANIZATION ( #326, #81 ) ;
#201 = PERSON_AND_ORGANIZATION_ROLE ( 'design_supplier' ) ;
#202 = ORIENTED_EDGE ( 'NONE', *, *, #120, .F. ) ;
#203 = CIRCLE ( 'NONE', #349, 3.149606299212598600 ) ;
#204 =( BOUNDED_CURVE ( )  B_SPLINE_CURVE ( 3, ( #215, #335, #126, #302 ),
 .UNSPECIFIED., .F., .T. ) 
 B_SPLINE_CURVE_WITH_KNOTS ( ( 4, 4 ),
 ( 1.570796326794896600, 4.712388980384689700 ),
 .UNSPECIFIED. ) 
 CURVE ( )  GEOMETRIC_REPRESENTATION_ITEM ( )  RATIONAL_B_SPLINE_CURVE ( ( 1.000000000000000000, 0.3333333333333333700, 0.3333333333333333700, 1.000000000000000000 ) ) 
 REPRESENTATION_ITEM ( '' )  );
#205 = ORIENTED_EDGE ( 'NONE', *, *, #91, .T. ) ;
#206 = FACE_OUTER_BOUND ( 'NONE', #346, .T. ) ;
#207 = CC_DESIGN_PERSON_AND_ORGANIZATION_ASSIGNMENT ( #116, #230, ( #8 ) ) ;
#208 = AXIS2_PLACEMENT_3D ( 'NONE', #9, #77, #108 ) ;
#209 = APPROVAL_DATE_TIME ( #171, #196 ) ;
#210 = DIRECTION ( 'NONE',  ( 0.0000000000000000000, -0.0000000000000000000, 1.000000000000000000 ) ) ;
#211 = AXIS2_PLACEMENT_3D ( 'NONE', #164, #136, #342 ) ;
#212 = CARTESIAN_POINT ( 'NONE',  ( -6.692913385826772200, 0.0000000000000000000, 3.437007874015747700 ) ) ;
#213 = CONICAL_SURFACE ( 'NONE', #33, 3.437007874015747700, 0.7853981633974473900 ) ;
#214 = CC_DESIGN_PERSON_AND_ORGANIZATION_ASSIGNMENT ( #361, #56, ( #268 ) ) ;
#215 = CARTESIAN_POINT ( 'NONE',  ( -6.692913385826772200, 1.576612217799939400E-016, 2.574803149606300000 ) ) ;
#216 = DIRECTION ( 'NONE',  ( 0.0000000000000000000, 1.000000000000000000, 0.0000000000000000000 ) ) ;
#217 = EDGE_LOOP ( 'NONE', ( #339 ) ) ;
#218 = VERTEX_POINT ( 'NONE', #139 ) ;
#219 = ADVANCED_FACE ( 'NONE', ( #229, #193 ), #274, .T. ) ;
#220 = PRODUCT_DEFINITION_FORMATION_WITH_SPECIFIED_SOURCE ( 'ANY', '', #268, .NOT_KNOWN. ) ;
#221 = EDGE_CURVE ( 'NONE', #89, #89, #203, .T. ) ;
#222 = DIRECTION ( 'NONE',  ( 1.000000000000000000, 0.0000000000000000000, 0.0000000000000000000 ) ) ;
#223 = CARTESIAN_POINT ( 'NONE',  ( -10.85433070866141800, 0.0000000000000000000, 0.0000000000000000000 ) ) ;
#224 = CARTESIAN_POINT ( 'NONE',  ( -6.692913385826772200, 6.692913385826772200, -2.574803149606300000 ) ) ;
#225 = CARTESIAN_POINT ( 'NONE',  ( -6.692913385826772200, 6.692913385826772200, -3.149606299212598600 ) ) ;
#226 = DATE_AND_TIME ( #293, #67 ) ;
#227 = CC_DESIGN_APPROVAL ( #329, ( #220 ) ) ;
#228 = MECHANICAL_CONTEXT ( 'NONE', #199, 'mechanical' ) ;
#229 = FACE_OUTER_BOUND ( 'NONE', #253, .T. ) ;
#230 = PERSON_AND_ORGANIZATION_ROLE ( 'classification_officer' ) ;
#231 = LOCAL_TIME ( 15, 41, 37.00000000000000000, #321 ) ;
#232 =( GEOMETRIC_REPRESENTATION_CONTEXT ( 3 ) GLOBAL_UNCERTAINTY_ASSIGNED_CONTEXT ( ( #385 ) ) GLOBAL_UNIT_ASSIGNED_CONTEXT ( ( #113, #318, #140 ) ) REPRESENTATION_CONTEXT ( 'NONE', 'WORKASPACE' ) );
#233 = PERSON_AND_ORGANIZATION ( #326, #81 ) ;
#234 = ORIENTED_EDGE ( 'NONE', *, *, #313, .T. ) ;
#235 = CIRCLE ( 'NONE', #256, 3.149606299212598600 ) ;
#236 = LENGTH_MEASURE_WITH_UNIT ( LENGTH_MEASURE( 0.02539999999999999900 ), #286 );
#237 = VERTEX_POINT ( 'NONE', #150 ) ;
#238 = FACE_BOUND ( 'NONE', #45, .T. ) ;
#239 = CALENDAR_DATE ( 2017, 27, 7 ) ;
#240 = DIRECTION ( 'NONE',  ( 1.000000000000000000, 0.0000000000000000000, 0.0000000000000000000 ) ) ;
#241 = ORIENTED_EDGE ( 'NONE', *, *, #138, .F. ) ;
#242 = CIRCLE ( 'NONE', #61, 2.574803149606300000 ) ;
#243 = EDGE_CURVE ( 'NONE', #11, #11, #73, .T. ) ;
#244 = DIRECTION ( 'NONE',  ( 0.0000000000000000000, 0.0000000000000000000, -1.000000000000000000 ) ) ;
#245 = ORIENTED_EDGE ( 'NONE', *, *, #313, .F. ) ;
#246 = DIMENSIONAL_EXPONENTS ( 1.000000000000000000, 0.0000000000000000000, 0.0000000000000000000, 0.0000000000000000000, 0.0000000000000000000, 0.0000000000000000000, 0.0000000000000000000 ) ;
#247 = FACE_OUTER_BOUND ( 'NONE', #376, .T. ) ;
#248 = CC_DESIGN_PERSON_AND_ORGANIZATION_ASSIGNMENT ( #265, #201, ( #220 ) ) ;
#249 = ADVANCED_FACE ( 'NONE', ( #324, #148 ), #158, .T. ) ;
#250 = CC_DESIGN_APPROVAL ( #196, ( #8 ) ) ;
#251 = CC_DESIGN_PERSON_AND_ORGANIZATION_ASSIGNMENT ( #200, #371, ( #220 ) ) ;
#252 = DIRECTION ( 'NONE',  ( -0.0000000000000000000, -1.000000000000000000, -0.0000000000000000000 ) ) ;
#253 = EDGE_LOOP ( 'NONE', ( #10 ) ) ;
#254 = FACE_BOUND ( 'NONE', #277, .T. ) ;
#255 = DIRECTION ( 'NONE',  ( 0.0000000000000000000, 0.0000000000000000000, -1.000000000000000000 ) ) ;
#256 = AXIS2_PLACEMENT_3D ( 'NONE', #68, #240, #190 ) ;
#257 = DIRECTION ( 'NONE',  ( 0.0000000000000000000, 0.0000000000000000000, -1.000000000000000000 ) ) ;
#258 = APPROVAL ( #290, 'UNSPECIFIED' ) ;
#259 = CARTESIAN_POINT ( 'NONE',  ( -6.692913385826772200, 6.692913385826772200, 0.0000000000000000000 ) ) ;
#260 = CARTESIAN_POINT ( 'NONE',  ( -6.692913385826772200, 6.692913385826772200, 0.0000000000000000000 ) ) ;
#261 = EDGE_LOOP ( 'NONE', ( #31 ) ) ;
#262 = FACE_OUTER_BOUND ( 'NONE', #332, .T. ) ;
#263 = APPLICATION_CONTEXT ( 'configuration controlled 3d designs of mechanical parts and assemblies' ) ;
#264 = APPROVAL_STATUS ( 'not_yet_approved' ) ;
#265 = PERSON_AND_ORGANIZATION ( #326, #81 ) ;
#266 = EDGE_LOOP ( 'NONE', ( #291 ) ) ;
#267 = FACE_OUTER_BOUND ( 'NONE', #266, .T. ) ;
#268 = PRODUCT ( '581246060', '581246060', '', ( #228 ) ) ;
#269 = ORIENTED_EDGE ( 'NONE', *, *, #30, .F. ) ;
#270 = VERTEX_POINT ( 'NONE', #224 ) ;
#271 = VERTEX_POINT ( 'NONE', #198 ) ;
#272 = AXIS2_PLACEMENT_3D ( 'NONE', #1, #252, #36 ) ;
#273 = ADVANCED_BREP_SHAPE_REPRESENTATION ( '581246060', ( #134, #22 ), #232 ) ;
#274 = PLANE ( 'NONE',  #167 ) ;
#275 = DATE_AND_TIME ( #369, #289 ) ;
#276 = PRODUCT_RELATED_PRODUCT_CATEGORY ( 'detail', '', ( #268 ) ) ;
#277 = EDGE_LOOP ( 'NONE', ( #157, #51 ) ) ;
#278 = DIRECTION ( 'NONE',  ( 1.000000000000000000, 0.0000000000000000000, -2.449212707644799900E-016 ) ) ;
#279 = ADVANCED_FACE ( 'NONE', ( #65, #377 ), #4, .T. ) ;
#280 = ORIENTED_EDGE ( 'NONE', *, *, #15, .T. ) ;
#281 = CYLINDRICAL_SURFACE ( 'NONE', #131, 3.437007874015748100 ) ;
#282 = DIRECTION ( 'NONE',  ( 0.0000000000000000000, 0.0000000000000000000, -1.000000000000000000 ) ) ;
#283 = DIRECTION ( 'NONE',  ( -1.000000000000000000, -0.0000000000000000000, -0.0000000000000000000 ) ) ;
#284 = DIRECTION ( 'NONE',  ( -1.000000000000000000, -0.0000000000000000000, -0.0000000000000000000 ) ) ;
#285 = DIRECTION ( 'NONE',  ( 0.0000000000000000000, 1.000000000000000000, -2.449212707644750100E-016 ) ) ;
#286 =( LENGTH_UNIT ( ) NAMED_UNIT ( * ) SI_UNIT ( $, .METRE. ) );
#287 = PERSON_AND_ORGANIZATION ( #326, #81 ) ;
#288 = AXIS2_PLACEMENT_3D ( 'NONE', #44, #284, #285 ) ;
#289 = LOCAL_TIME ( 15, 41, 37.00000000000000000, #141 ) ;
#290 = APPROVAL_STATUS ( 'not_yet_approved' ) ;
#291 = ORIENTED_EDGE ( 'NONE', *, *, #359, .T. ) ;
#292 = AXIS2_PLACEMENT_3D ( 'NONE', #223, #13, #49 ) ;
#293 = CALENDAR_DATE ( 2017, 27, 7 ) ;
#294 = AXIS2_PLACEMENT_3D ( 'NONE', #187, #360, #156 ) ;
#295 = FACE_OUTER_BOUND ( 'NONE', #110, .T. ) ;
#296 = EDGE_LOOP ( 'NONE', ( #370, #105 ) ) ;
#297 = CIRCLE ( 'NONE', #27, 3.437007874015748100 ) ;
#298 = DIRECTION ( 'NONE',  ( 0.0000000000000000000, 1.000000000000000000, 0.0000000000000000000 ) ) ;
#299 = CARTESIAN_POINT ( 'NONE',  ( -13.56692913385827000, 6.874015748031495400, -3.437007874015746800 ) ) ;
#300 = EDGE_LOOP ( 'NONE', ( #352 ) ) ;
#301 = FACE_OUTER_BOUND ( 'NONE', #197, .T. ) ;
#302 = CARTESIAN_POINT ( 'NONE',  ( -6.692913385826772200, 0.0000000000000000000, -2.574803149606300000 ) ) ;
#303 = CARTESIAN_POINT ( 'NONE',  ( -6.692913385826772200, 5.570866141732284200, 0.0000000000000000000 ) ) ;
#304 = DATE_AND_TIME ( #344, #368 ) ;
#305 = EDGE_LOOP ( 'NONE', ( #241, #311 ) ) ;
#306 = ADVANCED_FACE ( 'NONE', ( #238, #307 ), #19, .T. ) ;
#307 = FACE_OUTER_BOUND ( 'NONE', #161, .T. ) ;
#308 = DIRECTION ( 'NONE',  ( -1.000000000000000000, -0.0000000000000000000, -0.0000000000000000000 ) ) ;
#309 = DIRECTION ( 'NONE',  ( 1.000000000000000000, 0.0000000000000000000, 0.0000000000000000000 ) ) ;
#310 = CARTESIAN_POINT ( 'NONE',  ( -1.543307086614174900, 5.149606299212597300, 2.574803149606298200 ) ) ;
#311 = ORIENTED_EDGE ( 'NONE', *, *, #38, .F. ) ;
#312 = FACE_OUTER_BOUND ( 'NONE', #327, .T. ) ;
#313 = EDGE_CURVE ( 'NONE', #271, #271, #328, .T. ) ;
#314 = DIRECTION ( 'NONE',  ( 0.0000000000000000000, 0.0000000000000000000, -1.000000000000000000 ) ) ;
#315 = APPROVAL_PERSON_ORGANIZATION ( #287, #258, #115 ) ;
#316 = CARTESIAN_POINT ( 'NONE',  ( -10.85433070866141800, 3.437007874015749900, -8.417963361314441300E-016 ) ) ;
#317 = EDGE_LOOP ( 'NONE', ( #3 ) ) ;
#318 =( NAMED_UNIT ( * ) PLANE_ANGLE_UNIT ( ) SI_UNIT ( $, .RADIAN. ) );
#319 = FACE_BOUND ( 'NONE', #217, .T. ) ;
#320 = PERSON_AND_ORGANIZATION_ROLE ( 'creator' ) ;
#321 = COORDINATED_UNIVERSAL_TIME_OFFSET ( 5, 0, .BEHIND. ) ;
#322 = CALENDAR_DATE ( 2017, 27, 7 ) ;
#323 = FACE_OUTER_BOUND ( 'NONE', #98, .T. ) ;
#324 = FACE_OUTER_BOUND ( 'NONE', #300, .T. ) ;
#325 =( BOUNDED_CURVE ( )  B_SPLINE_CURVE ( 3, ( #386, #50, #355, #330 ),
 .UNSPECIFIED., .F., .T. ) 
 B_SPLINE_CURVE_WITH_KNOTS ( ( 4, 4 ),
 ( 1.570796326794896600, 4.712388980384689700 ),
 .UNSPECIFIED. ) 
 CURVE ( )  GEOMETRIC_REPRESENTATION_ITEM ( )  RATIONAL_B_SPLINE_CURVE ( ( 1.000000000000000000, 0.3333333333333333700, 0.3333333333333333700, 1.000000000000000000 ) ) 
 REPRESENTATION_ITEM ( '' )  );
#326 = PERSON ( 'UNSPECIFIED', 'UNSPECIFIED', 'UNSPECIFIED', ('UNSPECIFIED'), ('UNSPECIFIED'), ('UNSPECIFIED') ) ;
#327 = EDGE_LOOP ( 'NONE', ( #72 ) ) ;
#328 = CIRCLE ( 'NONE', #155, 3.149606299212598600 ) ;
#329 = APPROVAL ( #350, 'UNSPECIFIED' ) ;
#330 = CARTESIAN_POINT ( 'NONE',  ( -6.692913385826772200, 0.0000000000000000000, 3.437007874015747700 ) ) ;
#331 = CARTESIAN_POINT ( 'NONE',  ( -13.38582677165354400, 0.0000000000000000000, 0.0000000000000000000 ) ) ;
#332 = EDGE_LOOP ( 'NONE', ( #280 ) ) ;
#333 = VERTEX_POINT ( 'NONE', #18 ) ;
#334 = CARTESIAN_POINT ( 'NONE',  ( -6.692913385826772200, 0.0000000000000000000, 3.437007874015747700 ) ) ;
#335 = CARTESIAN_POINT ( 'NONE',  ( -11.84251968503936700, 5.149606299212597300, 2.574803149606300000 ) ) ;
#336 = ORIENTED_EDGE ( 'NONE', *, *, #70, .T. ) ;
#337 = VERTEX_POINT ( 'NONE', #165 ) ;
#338 = ADVANCED_FACE ( 'NONE', ( #247, #319 ), #163, .T. ) ;
#339 = ORIENTED_EDGE ( 'NONE', *, *, #243, .T. ) ;
#340 = CIRCLE ( 'NONE', #288, 3.437007874015749900 ) ;
#341 = DIRECTION ( 'NONE',  ( 0.0000000000000000000, 0.0000000000000000000, -1.000000000000000000 ) ) ;
#342 = DIRECTION ( 'NONE',  ( 0.0000000000000000000, 1.589666415557211600E-016, -1.000000000000000000 ) ) ;
#343 = CARTESIAN_POINT ( 'NONE',  ( -6.692913385826772200, 0.0000000000000000000, -2.574803149606300000 ) ) ;
#344 = CALENDAR_DATE ( 2017, 27, 7 ) ;
#345 = DIRECTION ( 'NONE',  ( 0.0000000000000000000, 1.000000000000000000, -2.449212707644750100E-016 ) ) ;
#346 = EDGE_LOOP ( 'NONE', ( #88 ) ) ;
#347 = VERTEX_POINT ( 'NONE', #52 ) ;
#348 = CARTESIAN_POINT ( 'NONE',  ( 0.0000000000000000000, 0.0000000000000000000, -3.149606299212598600 ) ) ;
#349 = AXIS2_PLACEMENT_3D ( 'NONE', #195, #133, #341 ) ;
#350 = APPROVAL_STATUS ( 'not_yet_approved' ) ;
#351 = EDGE_LOOP ( 'NONE', ( #205 ) ) ;
#352 = ORIENTED_EDGE ( 'NONE', *, *, #70, .F. ) ;
#353 = ORIENTED_EDGE ( 'NONE', *, *, #91, .F. ) ;
#354 = CIRCLE ( 'NONE', #173, 3.149606299212598600 ) ;
#355 = CARTESIAN_POINT ( 'NONE',  ( 0.1811023622047230300, 6.874015748031495400, 3.437007874015746800 ) ) ;
#356 = CARTESIAN_POINT ( 'NONE',  ( -6.692913385826772200, 0.0000000000000000000, -2.574803149606300000 ) ) ;
#357 = DIRECTION ( 'NONE',  ( 0.0000000000000000000, 0.0000000000000000000, -1.000000000000000000 ) ) ;
#358 = CARTESIAN_POINT ( 'NONE',  ( -2.531496062992125900, 0.0000000000000000000, 0.0000000000000000000 ) ) ;
#359 = EDGE_CURVE ( 'NONE', #333, #333, #169, .T. ) ;
#360 = DIRECTION ( 'NONE',  ( 1.000000000000000000, 0.0000000000000000000, 0.0000000000000000000 ) ) ;
#361 = PERSON_AND_ORGANIZATION ( #326, #81 ) ;
#362 = EDGE_LOOP ( 'NONE', ( #59 ) ) ;
#363 = ADVANCED_FACE ( 'NONE', ( #99, #262 ), #189, .T. ) ;
#364 = DIRECTION ( 'NONE',  ( 0.0000000000000000000, 0.0000000000000000000, 1.000000000000000000 ) ) ;
#365 = FACE_OUTER_BOUND ( 'NONE', #296, .T. ) ;
#366 = DIRECTION ( 'NONE',  ( 0.0000000000000000000, 0.0000000000000000000, -1.000000000000000000 ) ) ;
#367 = CARTESIAN_POINT ( 'NONE',  ( 0.0000000000000000000, 0.0000000000000000000, -2.574803149606300000 ) ) ;
#368 = LOCAL_TIME ( 15, 41, 37.00000000000000000, #97 ) ;
#369 = CALENDAR_DATE ( 2017, 27, 7 ) ;
#370 = ORIENTED_EDGE ( 'NONE', *, *, #30, .T. ) ;
#371 = PERSON_AND_ORGANIZATION_ROLE ( 'creator' ) ;
#372 = APPROVAL_PERSON_ORGANIZATION ( #233, #329, #172 ) ;
#373 = ORIENTED_EDGE ( 'NONE', *, *, #79, .F. ) ;
#374 = FACE_OUTER_BOUND ( 'NONE', #168, .T. ) ;
#375 = EDGE_CURVE ( 'NONE', #123, #123, #29, .T. ) ;
#376 = EDGE_LOOP ( 'NONE', ( #142 ) ) ;
#377 = FACE_OUTER_BOUND ( 'NONE', #317, .T. ) ;
#378 = AXIS2_PLACEMENT_3D ( 'NONE', #379, #222, #160 ) ;
#379 = CARTESIAN_POINT ( 'NONE',  ( -12.26377952755905600, 0.0000000000000000000, 0.0000000000000000000 ) ) ;
#380 = DIRECTION ( 'NONE',  ( 1.000000000000000000, 0.0000000000000000000, 0.0000000000000000000 ) ) ;
#381 = CARTESIAN_POINT ( 'NONE',  ( -6.692913385826772200, 0.0000000000000000000, 0.0000000000000000000 ) ) ;
#382 = ORIENTED_EDGE ( 'NONE', *, *, #55, .F. ) ;
#383 = CYLINDRICAL_SURFACE ( 'NONE', #272, 3.437007874015748100 ) ;
#384 = CARTESIAN_POINT ( 'NONE',  ( -1.543307086614174900, 5.149606299212597300, -2.574803149606300000 ) ) ;
#385 = UNCERTAINTY_MEASURE_WITH_UNIT (LENGTH_MEASURE( 1.000000000000000100E-005 ), #113, 'distance_accuracy_value', 'NONE');
#386 = CARTESIAN_POINT ( 'NONE',  ( -6.692913385826772200, 0.0000000000000000000, -3.437007874015747700 ) ) ;
ENDSEC;
END-ISO-10303-21;
