ISO-10303-21;
HEADER;
FILE_DESCRIPTION (( 'STEP AP203' ),
    '1' );
FILE_NAME ('581246100.STEP',
    '2017-07-27T19:48:00',
    ( '' ),
    ( '' ),
    'SwSTEP 2.0',
    'SolidWorks 2017',
    '' );
FILE_SCHEMA (( 'CONFIG_CONTROL_DESIGN' ));
ENDSEC;

DATA;
#1 = AXIS2_PLACEMENT_3D ( 'NONE', #53, #313, #315 ) ;
#2 = LOCAL_TIME ( 15, 48, 0.0000000000000000000, #295 ) ;
#3 = ORIENTED_EDGE ( 'NONE', *, *, #231, .T. ) ;
#4 = CYLINDRICAL_SURFACE ( 'NONE', #147, 5.368110236220472200 ) ;
#5 = AXIS2_PLACEMENT_3D ( 'NONE', #346, #342, #374 ) ;
#6 = ORIENTED_EDGE ( 'NONE', *, *, #231, .F. ) ;
#7 = CC_DESIGN_APPROVAL ( #84, ( #187 ) ) ;
#8 = CARTESIAN_POINT ( 'NONE',  ( -19.98818897637795200, 10.73622047244094100, 5.368110236220472200 ) ) ;
#9 = EDGE_LOOP ( 'NONE', ( #265, #22 ) ) ;
#10 = CONICAL_SURFACE ( 'NONE', #5, 5.368110236220470500, 0.7853981633974465000 ) ;
#11 = APPROVAL ( #128, 'UNSPECIFIED' ) ;
#12 = EDGE_CURVE ( 'NONE', #292, #292, #333, .T. ) ;
#13 = CARTESIAN_POINT ( 'NONE',  ( 0.0000000000000000000, 0.0000000000000000000, 0.0000000000000000000 ) ) ;
#14 = LOCAL_TIME ( 15, 48, 0.0000000000000000000, #145 ) ;
#15 = AXIS2_PLACEMENT_3D ( 'NONE', #181, #182, #183 ) ;
#16 = ADVANCED_FACE ( 'NONE', ( #48, #215 ), #30, .T. ) ;
#17 = AXIS2_PLACEMENT_3D ( 'NONE', #200, #209, #211 ) ;
#18 = CARTESIAN_POINT ( 'NONE',  ( -9.251968503937009200, 0.0000000000000000000, 0.0000000000000000000 ) ) ;
#19 = EDGE_CURVE ( 'NONE', #385, #385, #31, .T. ) ;
#20 = DIRECTION ( 'NONE',  ( 0.0000000000000000000, 0.0000000000000000000, -1.000000000000000000 ) ) ;
#21 = DATE_AND_TIME ( #54, #272 ) ;
#22 = ORIENTED_EDGE ( 'NONE', *, *, #57, .F. ) ;
#23 = AXIS2_PLACEMENT_3D ( 'NONE', #144, #98, #35 ) ;
#24 = CARTESIAN_POINT ( 'NONE',  ( -3.281496062992125900, 5.368110236220472200, -1.314764380658904000E-015 ) ) ;
#25 = CARTESIAN_POINT ( 'NONE',  ( -9.251968503937009200, 9.251968503937009200, -4.921259842519685200 ) ) ;
#26 = AXIS2_PLACEMENT_3D ( 'NONE', #371, #376, #382 ) ;
#27 = DATE_TIME_ROLE ( 'classification_date' ) ;
#28 = EDGE_LOOP ( 'NONE', ( #212 ) ) ;
#29 = ADVANCED_FACE ( 'NONE', ( #368, #109, #223 ), #260, .F. ) ;
#30 = PLANE ( 'NONE',  #334 ) ;
#31 = CIRCLE ( 'NONE', #245, 4.027559055118110200 ) ;
#32 = ADVANCED_FACE ( 'NONE', ( #166, #239 ), #10, .T. ) ;
#33 = AXIS2_PLACEMENT_3D ( 'NONE', #281, #370, #283 ) ;
#34 = VERTEX_POINT ( 'NONE', #127 ) ;
#35 = DIRECTION ( 'NONE',  ( 1.000000000000000000, 0.0000000000000000000, -2.449212707644720000E-016 ) ) ;
#36 = VERTEX_POINT ( 'NONE', #103 ) ;
#37 = EDGE_CURVE ( 'NONE', #34, #34, #153, .T. ) ;
#38 = DIRECTION ( 'NONE',  ( 0.0000000000000000000, 0.0000000000000000000, -1.000000000000000000 ) ) ;
#39 = EDGE_LOOP ( 'NONE', ( #251 ) ) ;
#40 = CIRCLE ( 'NONE', #96, 4.921259842519685200 ) ;
#41 = AXIS2_PLACEMENT_3D ( 'NONE', #188, #152, #202 ) ;
#42 = APPROVAL_ROLE ( '' ) ;
#43 = ADVANCED_FACE ( 'NONE', ( #176, #66 ), #162, .T. ) ;
#44 = CIRCLE ( 'NONE', #15, 5.368110236220472200 ) ;
#45 = CARTESIAN_POINT ( 'NONE',  ( -9.251968503937009200, 2.985236220472441200, 0.0000000000000000000 ) ) ;
#46 = AXIS2_PLACEMENT_3D ( 'NONE', #18, #73, #38 ) ;
#47 = LENGTH_MEASURE_WITH_UNIT ( LENGTH_MEASURE( 0.02539999999999999900 ), #277 );
#48 = FACE_OUTER_BOUND ( 'NONE', #330, .T. ) ;
#49 = AXIS2_PLACEMENT_3D ( 'NONE', #104, #267, #149 ) ;
#50 = ADVANCED_FACE ( 'NONE', ( #76, #284 ), #207, .T. ) ;
#51 = EDGE_CURVE ( 'NONE', #246, #246, #338, .T. ) ;
#52 = APPROVAL_STATUS ( 'not_yet_approved' ) ;
#53 = CARTESIAN_POINT ( 'NONE',  ( 0.0000000000000000000, 0.0000000000000000000, 0.0000000000000000000 ) ) ;
#54 = CALENDAR_DATE ( 2017, 27, 7 ) ;
#55 = CARTESIAN_POINT ( 'NONE',  ( 0.0000000000000000000, 0.0000000000000000000, -4.027559055118110200 ) ) ;
#56 = PERSON_AND_ORGANIZATION_ROLE ( 'creator' ) ;
#57 = EDGE_CURVE ( 'NONE', #94, #373, #214, .T. ) ;
#58 = CARTESIAN_POINT ( 'NONE',  ( -1.196850393700788800, 8.055118110236220400, 4.027559055118108400 ) ) ;
#59 = ORIENTED_EDGE ( 'NONE', *, *, #237, .F. ) ;
#60 = CC_DESIGN_DATE_AND_TIME_ASSIGNMENT ( #236, #381, ( #369 ) ) ;
#61 = EDGE_LOOP ( 'NONE', ( #323 ) ) ;
#62 = DIRECTION ( 'NONE',  ( -1.000000000000000000, -0.0000000000000000000, 0.0000000000000000000 ) ) ;
#63 = AXIS2_PLACEMENT_3D ( 'NONE', #314, #337, #115 ) ;
#64 = ORIENTED_EDGE ( 'NONE', *, *, #237, .T. ) ;
#65 = DIRECTION ( 'NONE',  ( 0.0000000000000000000, 0.0000000000000000000, -1.000000000000000000 ) ) ;
#66 = FACE_OUTER_BOUND ( 'NONE', #205, .T. ) ;
#67 = CARTESIAN_POINT ( 'NONE',  ( -9.251968503937009200, 2.466168652613666000E-016, 4.027559055118110200 ) ) ;
#68 = CYLINDRICAL_SURFACE ( 'NONE', #46, 4.027559055118110200 ) ;
#69 = CARTESIAN_POINT ( 'NONE',  ( -18.50393700787401800, 2.460629921259842600, -6.026606071960512100E-016 ) ) ;
#70 = ORIENTED_EDGE ( 'NONE', *, *, #219, .F. ) ;
#71 = PERSON_AND_ORGANIZATION ( #358, #112 ) ;
#72 = ORIENTED_EDGE ( 'NONE', *, *, #302, .T. ) ;
#73 = DIRECTION ( 'NONE',  ( 0.0000000000000000000, -1.000000000000000000, 0.0000000000000000000 ) ) ;
#74 = VERTEX_POINT ( 'NONE', #24 ) ;
#75 = CARTESIAN_POINT ( 'NONE',  ( -9.251968503937009200, 0.0000000000000000000, -4.027559055118110200 ) ) ;
#76 = FACE_OUTER_BOUND ( 'NONE', #359, .T. ) ;
#77 = CARTESIAN_POINT ( 'NONE',  ( -9.251968503937009200, 2.466168652613666000E-016, 4.027559055118110200 ) ) ;
#78 = CARTESIAN_POINT ( 'NONE',  ( -18.50393700787401800, 0.0000000000000000000, -4.027559055118110200 ) ) ;
#79 = APPROVAL_PERSON_ORGANIZATION ( #225, #84, #42 ) ;
#80 = CARTESIAN_POINT ( 'NONE',  ( -2.834645669291338900, 0.0000000000000000000, -4.921259842519685200 ) ) ;
#81 = CARTESIAN_POINT ( 'NONE',  ( -9.251968503937009200, 9.251968503937009200, -4.027559055118110200 ) ) ;
#82 = LOCAL_TIME ( 15, 48, 0.0000000000000000000, #198 ) ;
#83 = ORIENTED_EDGE ( 'NONE', *, *, #291, .T. ) ;
#84 = APPROVAL ( #165, 'UNSPECIFIED' ) ;
#85 = VERTEX_POINT ( 'NONE', #191 ) ;
#86 = ORIENTED_EDGE ( 'NONE', *, *, #291, .F. ) ;
#87 = ADVANCED_FACE ( 'NONE', ( #189, #307 ), #178, .T. ) ;
#88 = EDGE_CURVE ( 'NONE', #92, #282, #148, .T. ) ;
#89 = APPROVAL_DATE_TIME ( #233, #84 ) ;
#90 = FACE_OUTER_BOUND ( 'NONE', #9, .T. ) ;
#91 = CARTESIAN_POINT ( 'NONE',  ( -9.251968503937009200, 0.0000000000000000000, -4.027559055118110200 ) ) ;
#92 = VERTEX_POINT ( 'NONE', #75 ) ;
#93 = EDGE_LOOP ( 'NONE', ( #356 ) ) ;
#94 = VERTEX_POINT ( 'NONE', #97 ) ;
#95 = EDGE_LOOP ( 'NONE', ( #328 ) ) ;
#96 = AXIS2_PLACEMENT_3D ( 'NONE', #164, #167, #177 ) ;
#97 = CARTESIAN_POINT ( 'NONE',  ( -9.251968503937009200, 0.0000000000000000000, -5.368110236220471300 ) ) ;
#98 = DIRECTION ( 'NONE',  ( 0.0000000000000000000, 1.000000000000000000, 0.0000000000000000000 ) ) ;
#99 = EDGE_LOOP ( 'NONE', ( #59 ) ) ;
#100 = CARTESIAN_POINT ( 'NONE',  ( -3.281496062992125500, 0.0000000000000000000, 0.0000000000000000000 ) ) ;
#101 = AXIS2_PLACEMENT_3D ( 'NONE', #45, #238, #380 ) ;
#102 = COORDINATED_UNIVERSAL_TIME_OFFSET ( 5, 0, .BEHIND. ) ;
#103 = CARTESIAN_POINT ( 'NONE',  ( -18.50393700787401800, 0.0000000000000000000, -4.921259842519685200 ) ) ;
#104 = CARTESIAN_POINT ( 'NONE',  ( -17.08661417322834800, 0.0000000000000000000, 0.0000000000000000000 ) ) ;
#105 = CARTESIAN_POINT ( 'NONE',  ( -15.22244094488189100, 5.368110236220472200, -1.314764380658904000E-015 ) ) ;
#106 = APPLICATION_CONTEXT ( 'configuration controlled 3d designs of mechanical parts and assemblies' ) ;
#107 = ORIENTED_EDGE ( 'NONE', *, *, #12, .F. ) ;
#108 = DIRECTION ( 'NONE',  ( 1.000000000000000000, 0.0000000000000000000, 0.0000000000000000000 ) ) ;
#109 = FACE_OUTER_BOUND ( 'NONE', #93, .T. ) ;
#110 = FACE_OUTER_BOUND ( 'NONE', #274, .T. ) ;
#111 = DIRECTION ( 'NONE',  ( 0.0000000000000000000, 0.0000000000000000000, -1.000000000000000000 ) ) ;
#112 = ORGANIZATION ( 'UNSPECIFIED', 'UNSPECIFIED', '' ) ;
#113 = CARTESIAN_POINT ( 'NONE',  ( -9.251968503937009200, 2.466168652613666000E-016, 4.027559055118110200 ) ) ;
#114 = APPROVAL ( #52, 'UNSPECIFIED' ) ;
#115 = DIRECTION ( 'NONE',  ( 0.0000000000000000000, 0.0000000000000000000, -1.000000000000000000 ) ) ;
#116 = CYLINDRICAL_SURFACE ( 'NONE', #101, 5.368110236220472200 ) ;
#117 = FACE_BOUND ( 'NONE', #244, .T. ) ;
#118 = COORDINATED_UNIVERSAL_TIME_OFFSET ( 5, 0, .BEHIND. ) ;
#119 = CONICAL_SURFACE ( 'NONE', #41, 5.368110236220471300, 0.7853981633974465000 ) ;
#120 = AXIS2_PLACEMENT_3D ( 'NONE', #329, #327, #311 ) ;
#121 = CARTESIAN_POINT ( 'NONE',  ( -2.834645669291338900, 0.0000000000000000000, 0.0000000000000000000 ) ) ;
#122 = AXIS2_PLACEMENT_3D ( 'NONE', #285, #261, #252 ) ;
#123 = ADVANCED_FACE ( 'NONE', ( #250, #134 ), #386, .T. ) ;
#124 = CARTESIAN_POINT ( 'NONE',  ( -15.66929133858267800, 0.0000000000000000000, -4.921259842519685200 ) ) ;
#125 = DIRECTION ( 'NONE',  ( 1.000000000000000000, 0.0000000000000000000, 0.0000000000000000000 ) ) ;
#126 = EDGE_LOOP ( 'NONE', ( #360 ) ) ;
#127 = CARTESIAN_POINT ( 'NONE',  ( -9.251968503937009200, 6.417322834645669400, -4.921259842519685200 ) ) ;
#128 = APPROVAL_STATUS ( 'not_yet_approved' ) ;
#129 = AXIS2_PLACEMENT_3D ( 'NONE', #121, #125, #131 ) ;
#130 = EDGE_LOOP ( 'NONE', ( #298 ) ) ;
#131 = DIRECTION ( 'NONE',  ( 0.0000000000000000000, 0.0000000000000000000, -1.000000000000000000 ) ) ;
#132 = FACE_BOUND ( 'NONE', #253, .T. ) ;
#133 = FACE_BOUND ( 'NONE', #280, .T. ) ;
#134 = FACE_BOUND ( 'NONE', #95, .T. ) ;
#135 = CALENDAR_DATE ( 2017, 27, 7 ) ;
#136 = CARTESIAN_POINT ( 'NONE',  ( -9.251968503937009200, 0.0000000000000000000, 0.0000000000000000000 ) ) ;
#137 = CC_DESIGN_PERSON_AND_ORGANIZATION_ASSIGNMENT ( #293, #196, ( #179 ) ) ;
#138 = CARTESIAN_POINT ( 'NONE',  ( -17.30708661417323000, 8.055118110236220400, -4.027559055118108400 ) ) ;
#139 = CC_DESIGN_PERSON_AND_ORGANIZATION_ASSIGNMENT ( #324, #345, ( #353 ) ) ;
#140 = DIRECTION ( 'NONE',  ( 0.0000000000000000000, 0.0000000000000000000, 1.000000000000000000 ) ) ;
#141 = EDGE_CURVE ( 'NONE', #305, #305, #262, .T. ) ;
#142 = DESIGN_CONTEXT ( 'detailed design', #106, 'design' ) ;
#143 = FACE_OUTER_BOUND ( 'NONE', #99, .T. ) ;
#144 = CARTESIAN_POINT ( 'NONE',  ( -9.251968503937009200, 5.970472440944882400, 0.0000000000000000000 ) ) ;
#145 = COORDINATED_UNIVERSAL_TIME_OFFSET ( 5, 0, .BEHIND. ) ;
#146 = EDGE_LOOP ( 'NONE', ( #72 ) ) ;
#147 = AXIS2_PLACEMENT_3D ( 'NONE', #136, #108, #111 ) ;
#148 =( BOUNDED_CURVE ( )  B_SPLINE_CURVE ( 3, ( #91, #221, #58, #67 ),
 .UNSPECIFIED., .F., .F. ) 
 B_SPLINE_CURVE_WITH_KNOTS ( ( 4, 4 ),
 ( 1.570796326794896600, 4.712388980384689700 ),
 .UNSPECIFIED. ) 
 CURVE ( )  GEOMETRIC_REPRESENTATION_ITEM ( )  RATIONAL_B_SPLINE_CURVE ( ( 1.000000000000000000, 0.3333333333333333700, 0.3333333333333333700, 1.000000000000000000 ) ) 
 REPRESENTATION_ITEM ( '' )  );
#149 = DIRECTION ( 'NONE',  ( 0.0000000000000000000, 0.0000000000000000000, -1.000000000000000000 ) ) ;
#150 = CARTESIAN_POINT ( 'NONE',  ( -15.66929133858267800, 0.0000000000000000000, 0.0000000000000000000 ) ) ;
#151 = DIRECTION ( 'NONE',  ( -1.000000000000000000, -0.0000000000000000000, -0.0000000000000000000 ) ) ;
#152 = DIRECTION ( 'NONE',  ( 1.000000000000000000, -1.243115401427028200E-031, -2.035612439723426600E-016 ) ) ;
#153 = CIRCLE ( 'NONE', #120, 4.921259842519685200 ) ;
#154 = DATE_AND_TIME ( #270, #171 ) ;
#155 = FACE_OUTER_BOUND ( 'NONE', #146, .T. ) ;
#156 = EDGE_CURVE ( 'NONE', #340, #340, #216, .T. ) ;
#157 = CARTESIAN_POINT ( 'NONE',  ( -6.791338582677165700, 9.251968503937009200, -6.026606071960512100E-016 ) ) ;
#158 = VERTEX_POINT ( 'NONE', #379 ) ;
#159 = APPROVAL_ROLE ( '' ) ;
#160 = MANIFOLD_SOLID_BREP ( '1', #234 ) ;
#161 = ORIENTED_EDGE ( 'NONE', *, *, #168, .T. ) ;
#162 = CYLINDRICAL_SURFACE ( 'NONE', #204, 4.921259842519685200 ) ;
#163 = FACE_OUTER_BOUND ( 'NONE', #383, .T. ) ;
#164 = CARTESIAN_POINT ( 'NONE',  ( -18.50393700787401800, 0.0000000000000000000, 0.0000000000000000000 ) ) ;
#165 = APPROVAL_STATUS ( 'not_yet_approved' ) ;
#166 = FACE_BOUND ( 'NONE', #28, .T. ) ;
#167 = DIRECTION ( 'NONE',  ( -1.000000000000000000, -0.0000000000000000000, -0.0000000000000000000 ) ) ;
#168 = EDGE_CURVE ( 'NONE', #332, #332, #169, .T. ) ;
#169 = CIRCLE ( 'NONE', #289, 4.921259842519685200 ) ;
#170 = EDGE_LOOP ( 'NONE', ( #86 ) ) ;
#171 = LOCAL_TIME ( 15, 48, 0.0000000000000000000, #102 ) ;
#172 = ORIENTED_EDGE ( 'NONE', *, *, #219, .T. ) ;
#173 = DIRECTION ( 'NONE',  ( -1.000000000000000000, -0.0000000000000000000, -0.0000000000000000000 ) ) ;
#174 = APPROVAL_PERSON_ORGANIZATION ( #249, #114, #159 ) ;
#175 = CARTESIAN_POINT ( 'NONE',  ( -9.251968503937009200, 0.0000000000000000000, 5.368110236220471300 ) ) ;
#176 = FACE_OUTER_BOUND ( 'NONE', #126, .T. ) ;
#177 = DIRECTION ( 'NONE',  ( 0.0000000000000000000, 0.0000000000000000000, -1.000000000000000000 ) ) ;
#178 = CYLINDRICAL_SURFACE ( 'NONE', #49, 4.921259842519685200 ) ;
#179 = PRODUCT ( '581246100', '581246100', '', ( #255 ) ) ;
#180 = ADVANCED_FACE ( 'NONE', ( #117, #143, #110 ), #4, .T. ) ;
#181 = CARTESIAN_POINT ( 'NONE',  ( -3.281496062992125500, 0.0000000000000000000, 0.0000000000000000000 ) ) ;
#182 = DIRECTION ( 'NONE',  ( 1.000000000000000000, -0.0000000000000000000, -0.0000000000000000000 ) ) ;
#183 = DIRECTION ( 'NONE',  ( -1.017806219861713100E-016, 1.000000000000000000, -2.449212707644750100E-016 ) ) ;
#184 = ORIENTED_EDGE ( 'NONE', *, *, #343, .F. ) ;
#185 = CC_DESIGN_SECURITY_CLASSIFICATION ( #187, ( #353 ) ) ;
#186 = CARTESIAN_POINT ( 'NONE',  ( -19.98818897637795200, 10.73622047244094100, -5.368110236220469600 ) ) ;
#187 = SECURITY_CLASSIFICATION ( '', '', #224 ) ;
#188 = CARTESIAN_POINT ( 'NONE',  ( -15.22244094488189100, 4.968520659668623600E-062, 8.135996424977117300E-047 ) ) ;
#189 = FACE_OUTER_BOUND ( 'NONE', #322, .T. ) ;
#190 = APPLICATION_CONTEXT ( 'configuration controlled 3d designs of mechanical parts and assemblies' ) ;
#191 = CARTESIAN_POINT ( 'NONE',  ( 0.0000000000000000000, 0.0000000000000000000, -4.921259842519685200 ) ) ;
#192 = ORIENTED_EDGE ( 'NONE', *, *, #88, .F. ) ;
#193 = PLANE ( 'NONE',  #199 ) ;
#194 = EDGE_LOOP ( 'NONE', ( #3 ) ) ;
#195 = FACE_OUTER_BOUND ( 'NONE', #130, .T. ) ;
#196 = PERSON_AND_ORGANIZATION_ROLE ( 'design_owner' ) ;
#197 = ADVANCED_FACE ( 'NONE', ( #132, #278 ), #119, .T. ) ;
#198 = COORDINATED_UNIVERSAL_TIME_OFFSET ( 5, 0, .BEHIND. ) ;
#199 = AXIS2_PLACEMENT_3D ( 'NONE', #157, #217, #218 ) ;
#200 = CARTESIAN_POINT ( 'NONE',  ( -15.22244094488189100, 0.0000000000000000000, 0.0000000000000000000 ) ) ;
#201 = ORIENTED_EDGE ( 'NONE', *, *, #19, .F. ) ;
#202 = DIRECTION ( 'NONE',  ( -4.071224879446852700E-016, 0.0000000000000000000, -1.000000000000000000 ) ) ;
#203 = SHAPE_DEFINITION_REPRESENTATION ( #222, #275 ) ;
#204 = AXIS2_PLACEMENT_3D ( 'NONE', #304, #263, #366 ) ;
#205 = EDGE_LOOP ( 'NONE', ( #335 ) ) ;
#206 = UNCERTAINTY_MEASURE_WITH_UNIT (LENGTH_MEASURE( 1.000000000000000100E-005 ), #348, 'distance_accuracy_value', 'NONE');
#207 = CYLINDRICAL_SURFACE ( 'NONE', #228, 4.921259842519685200 ) ;
#208 = CC_DESIGN_PERSON_AND_ORGANIZATION_ASSIGNMENT ( #243, #279, ( #353 ) ) ;
#209 = DIRECTION ( 'NONE',  ( -1.000000000000000000, -0.0000000000000000000, -0.0000000000000000000 ) ) ;
#210 = AXIS2_PLACEMENT_3D ( 'NONE', #357, #266, #20 ) ;
#211 = DIRECTION ( 'NONE',  ( 0.0000000000000000000, 1.000000000000000000, -2.449212707644750100E-016 ) ) ;
#212 = ORIENTED_EDGE ( 'NONE', *, *, #37, .F. ) ;
#213 = CARTESIAN_POINT ( 'NONE',  ( 1.484251968503932800, 10.73622047244094100, 5.368110236220469600 ) ) ;
#214 =( BOUNDED_CURVE ( )  B_SPLINE_CURVE ( 3, ( #297, #290, #213, #268 ),
 .UNSPECIFIED., .F., .F. ) 
 B_SPLINE_CURVE_WITH_KNOTS ( ( 4, 4 ),
 ( 1.570796326794896600, 4.712388980384689700 ),
 .UNSPECIFIED. ) 
 CURVE ( )  GEOMETRIC_REPRESENTATION_ITEM ( )  RATIONAL_B_SPLINE_CURVE ( ( 1.000000000000000000, 0.3333333333333333700, 0.3333333333333333700, 1.000000000000000000 ) ) 
 REPRESENTATION_ITEM ( '' )  );
#215 = FACE_BOUND ( 'NONE', #61, .T. ) ;
#216 = CIRCLE ( 'NONE', #129, 4.921259842519685200 ) ;
#217 = DIRECTION ( 'NONE',  ( 0.0000000000000000000, 1.000000000000000000, 0.0000000000000000000 ) ) ;
#218 = DIRECTION ( 'NONE',  ( 0.0000000000000000000, -0.0000000000000000000, 1.000000000000000000 ) ) ;
#219 = EDGE_CURVE ( 'NONE', #36, #36, #40, .T. ) ;
#220 = CIRCLE ( 'NONE', #17, 5.368110236220472200 ) ;
#221 = CARTESIAN_POINT ( 'NONE',  ( -1.196850393700790200, 8.055118110236220400, -4.027559055118110200 ) ) ;
#222 = PRODUCT_DEFINITION_SHAPE ( 'NONE', 'NONE',  #369 ) ;
#223 = FACE_OUTER_BOUND ( 'NONE', #336, .T. ) ;
#224 = SECURITY_CLASSIFICATION_LEVEL ( 'unclassified' ) ;
#225 = PERSON_AND_ORGANIZATION ( #358, #112 ) ;
#226 = ORIENTED_EDGE ( 'NONE', *, *, #168, .F. ) ;
#227 = PERSON_AND_ORGANIZATION_ROLE ( 'classification_officer' ) ;
#228 = AXIS2_PLACEMENT_3D ( 'NONE', #310, #303, #341 ) ;
#229 = CC_DESIGN_APPROVAL ( #11, ( #369 ) ) ;
#230 = CIRCLE ( 'NONE', #210, 4.921259842519685200 ) ;
#231 = EDGE_CURVE ( 'NONE', #74, #74, #44, .T. ) ;
#232 = ORIENTED_EDGE ( 'NONE', *, *, #57, .T. ) ;
#233 = DATE_AND_TIME ( #312, #14 ) ;
#234 = CLOSED_SHELL ( 'NONE', ( #29, #16, #375, #325, #87, #43, #258, #197, #123, #50, #180, #32, #339 ) ) ;
#235 = CALENDAR_DATE ( 2017, 27, 7 ) ;
#236 = DATE_AND_TIME ( #235, #82 ) ;
#237 = EDGE_CURVE ( 'NONE', #287, #287, #220, .T. ) ;
#238 = DIRECTION ( 'NONE',  ( -0.0000000000000000000, -1.000000000000000000, -0.0000000000000000000 ) ) ;
#239 = FACE_OUTER_BOUND ( 'NONE', #350, .T. ) ;
#240 =( BOUNDED_CURVE ( )  B_SPLINE_CURVE ( 3, ( #175, #8, #186, #367 ),
 .UNSPECIFIED., .F., .T. ) 
 B_SPLINE_CURVE_WITH_KNOTS ( ( 4, 4 ),
 ( 1.570796326794896600, 4.712388980384689700 ),
 .UNSPECIFIED. ) 
 CURVE ( )  GEOMETRIC_REPRESENTATION_ITEM ( )  RATIONAL_B_SPLINE_CURVE ( ( 1.000000000000000000, 0.3333333333333333700, 0.3333333333333333700, 1.000000000000000000 ) ) 
 REPRESENTATION_ITEM ( '' )  );
#241 = APPROVAL_DATE_TIME ( #154, #11 ) ;
#242 = CC_DESIGN_PERSON_AND_ORGANIZATION_ASSIGNMENT ( #363, #56, ( #369 ) ) ;
#243 = PERSON_AND_ORGANIZATION ( #358, #112 ) ;
#244 = EDGE_LOOP ( 'NONE', ( #309, #232 ) ) ;
#245 = AXIS2_PLACEMENT_3D ( 'NONE', #362, #355, #354 ) ;
#246 = VERTEX_POINT ( 'NONE', #78 ) ;
#247 = APPROVAL_DATE_TIME ( #21, #114 ) ;
#248 = EDGE_LOOP ( 'NONE', ( #184, #192 ) ) ;
#249 = PERSON_AND_ORGANIZATION ( #358, #112 ) ;
#250 = FACE_OUTER_BOUND ( 'NONE', #194, .T. ) ;
#251 = ORIENTED_EDGE ( 'NONE', *, *, #37, .T. ) ;
#252 = DIRECTION ( 'NONE',  ( 0.0000000000000000000, 0.0000000000000000000, -1.000000000000000000 ) ) ;
#253 = EDGE_LOOP ( 'NONE', ( #226 ) ) ;
#254 = APPLICATION_PROTOCOL_DEFINITION ( 'international standard', 'config_control_design', 1994, #106 ) ;
#255 = MECHANICAL_CONTEXT ( 'NONE', #190, 'mechanical' ) ;
#256 =( GEOMETRIC_REPRESENTATION_CONTEXT ( 3 ) GLOBAL_UNCERTAINTY_ASSIGNED_CONTEXT ( ( #206 ) ) GLOBAL_UNIT_ASSIGNED_CONTEXT ( ( #348, #351, #259 ) ) REPRESENTATION_CONTEXT ( 'NONE', 'WORKASPACE' ) );
#257 = FACE_OUTER_BOUND ( 'NONE', #170, .T. ) ;
#258 = ADVANCED_FACE ( 'NONE', ( #195, #273 ), #193, .T. ) ;
#259 =( NAMED_UNIT ( * ) SI_UNIT ( $, .STERADIAN. ) SOLID_ANGLE_UNIT ( ) );
#260 = CYLINDRICAL_SURFACE ( 'NONE', #26, 4.027559055118110200 ) ;
#261 = DIRECTION ( 'NONE',  ( 1.000000000000000000, 0.0000000000000000000, 0.0000000000000000000 ) ) ;
#262 = CIRCLE ( 'NONE', #63, 4.921259842519685200 ) ;
#263 = DIRECTION ( 'NONE',  ( 1.000000000000000000, 0.0000000000000000000, 0.0000000000000000000 ) ) ;
#264 = EDGE_LOOP ( 'NONE', ( #276, #271 ) ) ;
#265 = ORIENTED_EDGE ( 'NONE', *, *, #347, .F. ) ;
#266 = DIRECTION ( 'NONE',  ( 1.000000000000000000, 0.0000000000000000000, 0.0000000000000000000 ) ) ;
#267 = DIRECTION ( 'NONE',  ( 1.000000000000000000, 0.0000000000000000000, 0.0000000000000000000 ) ) ;
#268 = CARTESIAN_POINT ( 'NONE',  ( -9.251968503937009200, 0.0000000000000000000, 5.368110236220471300 ) ) ;
#269 = DIRECTION ( 'NONE',  ( 0.0000000000000000000, 0.0000000000000000000, 1.000000000000000000 ) ) ;
#270 = CALENDAR_DATE ( 2017, 27, 7 ) ;
#271 = ORIENTED_EDGE ( 'NONE', *, *, #343, .T. ) ;
#272 = LOCAL_TIME ( 15, 48, 0.0000000000000000000, #118 ) ;
#273 = FACE_BOUND ( 'NONE', #294, .T. ) ;
#274 = EDGE_LOOP ( 'NONE', ( #6 ) ) ;
#275 = ADVANCED_BREP_SHAPE_REPRESENTATION ( '581246100', ( #160, #1 ), #256 ) ;
#276 = ORIENTED_EDGE ( 'NONE', *, *, #88, .T. ) ;
#277 =( LENGTH_UNIT ( ) NAMED_UNIT ( * ) SI_UNIT ( $, .METRE. ) );
#278 = FACE_OUTER_BOUND ( 'NONE', #321, .T. ) ;
#279 = PERSON_AND_ORGANIZATION_ROLE ( 'creator' ) ;
#280 = EDGE_LOOP ( 'NONE', ( #326 ) ) ;
#281 = CARTESIAN_POINT ( 'NONE',  ( 0.0000000000000000000, 2.460629921259842600, -6.026606071960512100E-016 ) ) ;
#282 = VERTEX_POINT ( 'NONE', #113 ) ;
#283 = DIRECTION ( 'NONE',  ( 0.0000000000000000000, 0.0000000000000000000, -1.000000000000000000 ) ) ;
#284 = FACE_OUTER_BOUND ( 'NONE', #39, .T. ) ;
#285 = CARTESIAN_POINT ( 'NONE',  ( -18.50393700787401800, 0.0000000000000000000, 0.0000000000000000000 ) ) ;
#286 = AXIS2_PLACEMENT_3D ( 'NONE', #13, #173, #352 ) ;
#287 = VERTEX_POINT ( 'NONE', #105 ) ;
#288 = APPROVAL_PERSON_ORGANIZATION ( #319, #11, #318 ) ;
#289 = AXIS2_PLACEMENT_3D ( 'NONE', #150, #151, #65 ) ;
#290 = CARTESIAN_POINT ( 'NONE',  ( 1.484251968503931900, 10.73622047244094100, -5.368110236220472200 ) ) ;
#291 = EDGE_CURVE ( 'NONE', #158, #158, #320, .T. ) ;
#292 = VERTEX_POINT ( 'NONE', #55 ) ;
#293 = PERSON_AND_ORGANIZATION ( #358, #112 ) ;
#294 = EDGE_LOOP ( 'NONE', ( #301 ) ) ;
#295 = COORDINATED_UNIVERSAL_TIME_OFFSET ( 5, 0, .BEHIND. ) ;
#296 = PRODUCT_RELATED_PRODUCT_CATEGORY ( 'detail', '', ( #179 ) ) ;
#297 = CARTESIAN_POINT ( 'NONE',  ( -9.251968503937009200, 0.0000000000000000000, -5.368110236220471300 ) ) ;
#298 = ORIENTED_EDGE ( 'NONE', *, *, #141, .T. ) ;
#299 = DIRECTION ( 'NONE',  ( -1.000000000000000000, 0.0000000000000000000, 0.0000000000000000000 ) ) ;
#300 = DATE_AND_TIME ( #135, #2 ) ;
#301 = ORIENTED_EDGE ( 'NONE', *, *, #19, .T. ) ;
#302 = EDGE_CURVE ( 'NONE', #85, #85, #230, .T. ) ;
#303 = DIRECTION ( 'NONE',  ( -0.0000000000000000000, -1.000000000000000000, -0.0000000000000000000 ) ) ;
#304 = CARTESIAN_POINT ( 'NONE',  ( -1.417322834645669400, 0.0000000000000000000, 0.0000000000000000000 ) ) ;
#305 = VERTEX_POINT ( 'NONE', #25 ) ;
#306 = CARTESIAN_POINT ( 'NONE',  ( -9.251968503937009200, 0.0000000000000000000, -4.027559055118110200 ) ) ;
#307 = FACE_OUTER_BOUND ( 'NONE', #378, .T. ) ;
#308 = CC_DESIGN_DATE_AND_TIME_ASSIGNMENT ( #300, #27, ( #187 ) ) ;
#309 = ORIENTED_EDGE ( 'NONE', *, *, #347, .T. ) ;
#310 = CARTESIAN_POINT ( 'NONE',  ( -9.251968503937009200, 7.834645669291338900, 0.0000000000000000000 ) ) ;
#311 = DIRECTION ( 'NONE',  ( 0.0000000000000000000, 0.0000000000000000000, -1.000000000000000000 ) ) ;
#312 = CALENDAR_DATE ( 2017, 27, 7 ) ;
#313 = DIRECTION ( 'NONE',  ( 0.0000000000000000000, 0.0000000000000000000, 1.000000000000000000 ) ) ;
#314 = CARTESIAN_POINT ( 'NONE',  ( -9.251968503937009200, 9.251968503937009200, 0.0000000000000000000 ) ) ;
#315 = DIRECTION ( 'NONE',  ( 1.000000000000000000, 0.0000000000000000000, 0.0000000000000000000 ) ) ;
#316 = CC_DESIGN_PERSON_AND_ORGANIZATION_ASSIGNMENT ( #71, #227, ( #187 ) ) ;
#317 =( BOUNDED_CURVE ( )  B_SPLINE_CURVE ( 3, ( #77, #364, #138, #306 ),
 .UNSPECIFIED., .F., .T. ) 
 B_SPLINE_CURVE_WITH_KNOTS ( ( 4, 4 ),
 ( 1.570796326794896600, 4.712388980384689700 ),
 .UNSPECIFIED. ) 
 CURVE ( )  GEOMETRIC_REPRESENTATION_ITEM ( )  RATIONAL_B_SPLINE_CURVE ( ( 1.000000000000000000, 0.3333333333333333700, 0.3333333333333333700, 1.000000000000000000 ) ) 
 REPRESENTATION_ITEM ( '' )  );
#318 = APPROVAL_ROLE ( '' ) ;
#319 = PERSON_AND_ORGANIZATION ( #358, #112 ) ;
#320 = CIRCLE ( 'NONE', #23, 5.368110236220472200 ) ;
#321 = EDGE_LOOP ( 'NONE', ( #64 ) ) ;
#322 = EDGE_LOOP ( 'NONE', ( #70 ) ) ;
#323 = ORIENTED_EDGE ( 'NONE', *, *, #51, .T. ) ;
#324 = PERSON_AND_ORGANIZATION ( #358, #112 ) ;
#325 = ADVANCED_FACE ( 'NONE', ( #361, #163 ), #68, .F. ) ;
#326 = ORIENTED_EDGE ( 'NONE', *, *, #12, .T. ) ;
#327 = DIRECTION ( 'NONE',  ( 0.0000000000000000000, 1.000000000000000000, 0.0000000000000000000 ) ) ;
#328 = ORIENTED_EDGE ( 'NONE', *, *, #156, .F. ) ;
#329 = CARTESIAN_POINT ( 'NONE',  ( -9.251968503937009200, 6.417322834645669400, 0.0000000000000000000 ) ) ;
#330 = EDGE_LOOP ( 'NONE', ( #172 ) ) ;
#331 = DIMENSIONAL_EXPONENTS ( 1.000000000000000000, 0.0000000000000000000, 0.0000000000000000000, 0.0000000000000000000, 0.0000000000000000000, 0.0000000000000000000, 0.0000000000000000000 ) ;
#332 = VERTEX_POINT ( 'NONE', #124 ) ;
#333 = CIRCLE ( 'NONE', #286, 4.027559055118110200 ) ;
#334 = AXIS2_PLACEMENT_3D ( 'NONE', #69, #299, #269 ) ;
#335 = ORIENTED_EDGE ( 'NONE', *, *, #302, .F. ) ;
#336 = EDGE_LOOP ( 'NONE', ( #107 ) ) ;
#337 = DIRECTION ( 'NONE',  ( 0.0000000000000000000, 1.000000000000000000, 0.0000000000000000000 ) ) ;
#338 = CIRCLE ( 'NONE', #122, 4.027559055118110200 ) ;
#339 = ADVANCED_FACE ( 'NONE', ( #257, #90 ), #116, .T. ) ;
#340 = VERTEX_POINT ( 'NONE', #80 ) ;
#341 = DIRECTION ( 'NONE',  ( 0.0000000000000000000, 0.0000000000000000000, -1.000000000000000000 ) ) ;
#342 = DIRECTION ( 'NONE',  ( 0.0000000000000000000, -1.000000000000000000, 0.0000000000000000000 ) ) ;
#343 = EDGE_CURVE ( 'NONE', #282, #92, #317, .T. ) ;
#344 = CC_DESIGN_APPROVAL ( #114, ( #353 ) ) ;
#345 = PERSON_AND_ORGANIZATION_ROLE ( 'design_supplier' ) ;
#346 = CARTESIAN_POINT ( 'NONE',  ( -9.251968503937007400, 5.970472440944882400, 0.0000000000000000000 ) ) ;
#347 = EDGE_CURVE ( 'NONE', #373, #94, #240, .T. ) ;
#348 =( CONVERSION_BASED_UNIT ( 'INCH', #47 ) LENGTH_UNIT ( ) NAMED_UNIT ( #331 ) );
#349 = AXIS2_PLACEMENT_3D ( 'NONE', #100, #62, #140 ) ;
#350 = EDGE_LOOP ( 'NONE', ( #83 ) ) ;
#351 =( NAMED_UNIT ( * ) PLANE_ANGLE_UNIT ( ) SI_UNIT ( $, .RADIAN. ) );
#352 = DIRECTION ( 'NONE',  ( 0.0000000000000000000, 0.0000000000000000000, -1.000000000000000000 ) ) ;
#353 = PRODUCT_DEFINITION_FORMATION_WITH_SPECIFIED_SOURCE ( 'ANY', '', #179, .NOT_KNOWN. ) ;
#354 = DIRECTION ( 'NONE',  ( 0.0000000000000000000, 0.0000000000000000000, -1.000000000000000000 ) ) ;
#355 = DIRECTION ( 'NONE',  ( 0.0000000000000000000, -1.000000000000000000, 0.0000000000000000000 ) ) ;
#356 = ORIENTED_EDGE ( 'NONE', *, *, #51, .F. ) ;
#357 = CARTESIAN_POINT ( 'NONE',  ( 0.0000000000000000000, 0.0000000000000000000, 0.0000000000000000000 ) ) ;
#358 = PERSON ( 'UNSPECIFIED', 'UNSPECIFIED', 'UNSPECIFIED', ('UNSPECIFIED'), ('UNSPECIFIED'), ('UNSPECIFIED') ) ;
#359 = EDGE_LOOP ( 'NONE', ( #365 ) ) ;
#360 = ORIENTED_EDGE ( 'NONE', *, *, #156, .T. ) ;
#361 = FACE_OUTER_BOUND ( 'NONE', #264, .T. ) ;
#362 = CARTESIAN_POINT ( 'NONE',  ( -9.251968503937009200, 9.251968503937009200, 0.0000000000000000000 ) ) ;
#363 = PERSON_AND_ORGANIZATION ( #358, #112 ) ;
#364 = CARTESIAN_POINT ( 'NONE',  ( -17.30708661417323000, 8.055118110236220400, 4.027559055118110200 ) ) ;
#365 = ORIENTED_EDGE ( 'NONE', *, *, #141, .F. ) ;
#366 = DIRECTION ( 'NONE',  ( 0.0000000000000000000, 0.0000000000000000000, -1.000000000000000000 ) ) ;
#367 = CARTESIAN_POINT ( 'NONE',  ( -9.251968503937009200, 0.0000000000000000000, -5.368110236220471300 ) ) ;
#368 = FACE_BOUND ( 'NONE', #248, .T. ) ;
#369 = PRODUCT_DEFINITION ( 'UNKNOWN', '', #353, #142 ) ;
#370 = DIRECTION ( 'NONE',  ( 1.000000000000000000, 0.0000000000000000000, 0.0000000000000000000 ) ) ;
#371 = CARTESIAN_POINT ( 'NONE',  ( 0.03937007874015748000, 0.0000000000000000000, 0.0000000000000000000 ) ) ;
#372 = PLANE ( 'NONE',  #33 ) ;
#373 = VERTEX_POINT ( 'NONE', #384 ) ;
#374 = DIRECTION ( 'NONE',  ( 0.0000000000000000000, 0.0000000000000000000, -1.000000000000000000 ) ) ;
#375 = ADVANCED_FACE ( 'NONE', ( #155, #133 ), #372, .T. ) ;
#376 = DIRECTION ( 'NONE',  ( 1.000000000000000000, 0.0000000000000000000, 0.0000000000000000000 ) ) ;
#377 = APPLICATION_PROTOCOL_DEFINITION ( 'international standard', 'config_control_design', 1994, #190 ) ;
#378 = EDGE_LOOP ( 'NONE', ( #161 ) ) ;
#379 = CARTESIAN_POINT ( 'NONE',  ( -3.883858267716536100, 5.970472440944882400, -1.314764380658888100E-015 ) ) ;
#380 = DIRECTION ( 'NONE',  ( 0.0000000000000000000, 0.0000000000000000000, -1.000000000000000000 ) ) ;
#381 = DATE_TIME_ROLE ( 'creation_date' ) ;
#382 = DIRECTION ( 'NONE',  ( 0.0000000000000000000, 0.0000000000000000000, -1.000000000000000000 ) ) ;
#383 = EDGE_LOOP ( 'NONE', ( #201 ) ) ;
#384 = CARTESIAN_POINT ( 'NONE',  ( -9.251968503937009200, 0.0000000000000000000, 5.368110236220471300 ) ) ;
#385 = VERTEX_POINT ( 'NONE', #81 ) ;
#386 = CONICAL_SURFACE ( 'NONE', #349, 5.368110236220471300, 0.7853981633974458400 ) ;
ENDSEC;
END-ISO-10303-21;
