ISO-10303-21;
HEADER;
FILE_DESCRIPTION (( 'STEP AP203' ),
    '1' );
FILE_NAME ('581246120.STEP',
    '2017-07-27T19:52:32',
    ( '' ),
    ( '' ),
    'SwSTEP 2.0',
    'SolidWorks 2017',
    '' );
FILE_SCHEMA (( 'CONFIG_CONTROL_DESIGN' ));
ENDSEC;

DATA;
#1 = CARTESIAN_POINT ( 'NONE',  ( 0.03937007874015314300, -4.117076516807468900E-023, -3.665522703014067300E-023 ) ) ;
#2 = ORIENTED_EDGE ( 'NONE', *, *, #245, .T. ) ;
#3 = ADVANCED_FACE ( 'NONE', ( #52, #80 ), #4, .T. ) ;
#4 = PLANE ( 'NONE',  #176 ) ;
#5 = PLANE ( 'NONE',  #125 ) ;
#6 = EDGE_CURVE ( 'NONE', #87, #87, #7, .T. ) ;
#7 = CIRCLE ( 'NONE', #74, 6.200787401574844500 ) ;
#8 = EDGE_LOOP ( 'NONE', ( #2 ) ) ;
#9 = APPROVAL_PERSON_ORGANIZATION ( #93, #299, #297 ) ;
#10 = CARTESIAN_POINT ( 'NONE',  ( 0.0000000000000000000, 0.0000000000000000000, 0.0000000000000000000 ) ) ;
#11 = DATE_TIME_ROLE ( 'classification_date' ) ;
#12 = DIRECTION ( 'NONE',  ( 0.0000000000000000000, -9.860728747959045700E-032, -1.000000000000000000 ) ) ;
#13 = CARTESIAN_POINT ( 'NONE',  ( -17.86220472440944800, 1.867918047180910800E-020, 1.663048332065104700E-020 ) ) ;
#14 = VERTEX_POINT ( 'NONE', #289 ) ;
#15 = EDGE_LOOP ( 'NONE', ( #374 ) ) ;
#16 = APPROVAL_STATUS ( 'not_yet_approved' ) ;
#17 = EDGE_CURVE ( 'NONE', #33, #381, #76, .T. ) ;
#18 = DIRECTION ( 'NONE',  ( -1.045737677745210800E-021, 1.000000000000000000, -1.972152263052516400E-031 ) ) ;
#19 = APPROVAL_ROLE ( '' ) ;
#20 = CARTESIAN_POINT ( 'NONE',  ( 4.724860699832562500E-021, -5.004142258021084500E-031, -5.074803149606333700 ) ) ;
#21 = CYLINDRICAL_SURFACE ( 'NONE', #362, 6.200787401574844500 ) ;
#22 = EDGE_LOOP ( 'NONE', ( #231 ) ) ;
#23 = ADVANCED_FACE ( 'NONE', ( #144, #157 ), #68, .T. ) ;
#24 = ORGANIZATION ( 'UNSPECIFIED', 'UNSPECIFIED', '' ) ;
#25 = PERSON_AND_ORGANIZATION ( #37, #24 ) ;
#26 = AXIS2_PLACEMENT_3D ( 'NONE', #219, #200, #226 ) ;
#27 = VERTEX_POINT ( 'NONE', #344 ) ;
#28 = AXIS2_PLACEMENT_3D ( 'NONE', #215, #221, #376 ) ;
#29 = ORIENTED_EDGE ( 'NONE', *, *, #245, .F. ) ;
#30 = SHAPE_DEFINITION_REPRESENTATION ( #83, #210 ) ;
#31 = CYLINDRICAL_SURFACE ( 'NONE', #235, 6.200787401574844500 ) ;
#32 = DIRECTION ( 'NONE',  ( -1.000000000000000000, 1.045737677745217700E-021, 9.310431480873352400E-022 ) ) ;
#33 = VERTEX_POINT ( 'NONE', #304 ) ;
#34 = ADVANCED_FACE ( 'NONE', ( #188, #330 ), #81, .F. ) ;
#35 = CARTESIAN_POINT ( 'NONE',  ( -10.82677165354331300, 1.132196303102242600E-020, 6.763779527559069700 ) ) ;
#36 = CONICAL_SURFACE ( 'NONE', #130, 6.763779527559101700, 0.7853981633974463900 ) ;
#37 = PERSON ( 'UNSPECIFIED', 'UNSPECIFIED', 'UNSPECIFIED', ('UNSPECIFIED'), ('UNSPECIFIED'), ('UNSPECIFIED') ) ;
#38 = DIRECTION ( 'NONE',  ( -1.000000000000000000, 1.045737677745217700E-021, -9.310431479887219800E-022 ) ) ;
#39 = APPROVAL_DATE_TIME ( #285, #277 ) ;
#40 = CARTESIAN_POINT ( 'NONE',  ( -10.82677165354329100, 7.035433070866183400, 1.008019157376509900E-020 ) ) ;
#41 = FACE_BOUND ( 'NONE', #84, .T. ) ;
#42 = CC_DESIGN_PERSON_AND_ORGANIZATION_ASSIGNMENT ( #25, #65, ( #253 ) ) ;
#43 = DIRECTION ( 'NONE',  ( 0.0000000000000000000, 0.0000000000000000000, -1.000000000000000000 ) ) ;
#44 = EDGE_LOOP ( 'NONE', ( #306 ) ) ;
#45 = APPROVAL_ROLE ( '' ) ;
#46 = CARTESIAN_POINT ( 'NONE',  ( -10.82677165354329100, 7.035433070866183400, 1.008019157376509900E-020 ) ) ;
#47 = DESIGN_CONTEXT ( 'detailed design', #99, 'design' ) ;
#48 = CYLINDRICAL_SURFACE ( 'NONE', #271, 6.200787401574844500 ) ;
#49 = COORDINATED_UNIVERSAL_TIME_OFFSET ( 5, 0, .BEHIND. ) ;
#50 = AXIS2_PLACEMENT_3D ( 'NONE', #196, #166, #168 ) ;
#51 = APPROVAL_STATUS ( 'not_yet_approved' ) ;
#52 = FACE_OUTER_BOUND ( 'NONE', #239, .T. ) ;
#53 =( LENGTH_UNIT ( ) NAMED_UNIT ( * ) SI_UNIT ( $, .METRE. ) );
#54 = COORDINATED_UNIVERSAL_TIME_OFFSET ( 5, 0, .BEHIND. ) ;
#55 = AXIS2_PLACEMENT_3D ( 'NONE', #284, #18, #123 ) ;
#56 = PERSON_AND_ORGANIZATION_ROLE ( 'creator' ) ;
#57 = SECURITY_CLASSIFICATION ( '', '', #114 ) ;
#58 = ORIENTED_EDGE ( 'NONE', *, *, #17, .T. ) ;
#59 = CIRCLE ( 'NONE', #63, 5.074803149606333700 ) ;
#60 = CIRCLE ( 'NONE', #77, 6.200787401574844500 ) ;
#61 = DIMENSIONAL_EXPONENTS ( 1.000000000000000000, 0.0000000000000000000, 0.0000000000000000000, 0.0000000000000000000, 0.0000000000000000000, 0.0000000000000000000, 0.0000000000000000000 ) ;
#62 = ORIENTED_EDGE ( 'NONE', *, *, #172, .F. ) ;
#63 = AXIS2_PLACEMENT_3D ( 'NONE', #173, #105, #12 ) ;
#64 = CARTESIAN_POINT ( 'NONE',  ( -10.82677165354331300, 1.132196303538989000E-020, -6.763779527559104400 ) ) ;
#65 = PERSON_AND_ORGANIZATION_ROLE ( 'design_owner' ) ;
#66 = APPLICATION_PROTOCOL_DEFINITION ( 'international standard', 'config_control_design', 1994, #342 ) ;
#67 = EDGE_LOOP ( 'NONE', ( #121 ) ) ;
#68 = CYLINDRICAL_SURFACE ( 'NONE', #202, 6.763779527559100800 ) ;
#69 = ADVANCED_FACE ( 'NONE', ( #107, #254 ), #31, .T. ) ;
#70 = CARTESIAN_POINT ( 'NONE',  ( -4.062992125984235000, 7.035433070866183400, -1.656589694239768100E-015 ) ) ;
#71 = PERSON_AND_ORGANIZATION ( #37, #24 ) ;
#72 = CARTESIAN_POINT ( 'NONE',  ( -20.97637795275590700, 10.14960629921264400, -5.074803149606320400 ) ) ;
#73 = CARTESIAN_POINT ( 'NONE',  ( 2.700787401574796600, 13.52755905511817500, 6.763779527559083100 ) ) ;
#74 = AXIS2_PLACEMENT_3D ( 'NONE', #182, #250, #280 ) ;
#75 = EDGE_LOOP ( 'NONE', ( #293 ) ) ;
#76 =( BOUNDED_CURVE ( )  B_SPLINE_CURVE ( 3, ( #369, #129, #286, #155 ),
 .UNSPECIFIED., .F., .T. ) 
 B_SPLINE_CURVE_WITH_KNOTS ( ( 4, 4 ),
 ( 1.570796326794896600, 4.712388980384689700 ),
 .UNSPECIFIED. ) 
 CURVE ( )  GEOMETRIC_REPRESENTATION_ITEM ( )  RATIONAL_B_SPLINE_CURVE ( ( 1.000000000000000000, 0.3333333333333333700, 0.3333333333333333700, 1.000000000000000000 ) ) 
 REPRESENTATION_ITEM ( '' )  );
#77 = AXIS2_PLACEMENT_3D ( 'NONE', #204, #216, #131 ) ;
#78 = ADVANCED_FACE ( 'NONE', ( #303, #190 ), #5, .T. ) ;
#79 = CARTESIAN_POINT ( 'NONE',  ( -10.82677165354331300, 3.107533936364601900E-016, 5.074803149606315100 ) ) ;
#80 = FACE_BOUND ( 'NONE', #312, .T. ) ;
#81 = CYLINDRICAL_SURFACE ( 'NONE', #230, 5.074803149606333700 ) ;
#82 = DIRECTION ( 'NONE',  ( -1.000000000000000000, 1.045737677745217700E-021, 9.310431480873352400E-022 ) ) ;
#83 = PRODUCT_DEFINITION_SHAPE ( 'NONE', 'NONE',  #264 ) ;
#84 = EDGE_LOOP ( 'NONE', ( #171 ) ) ;
#85 = EDGE_CURVE ( 'NONE', #267, #267, #339, .T. ) ;
#86 = FACE_OUTER_BOUND ( 'NONE', #382, .T. ) ;
#87 = VERTEX_POINT ( 'NONE', #259 ) ;
#88 = DIRECTION ( 'NONE',  ( -1.045737677745210800E-021, 1.000000000000000000, -9.860761315359943700E-032 ) ) ;
#89 = VERTEX_POINT ( 'NONE', #223 ) ;
#90 = DIRECTION ( 'NONE',  ( 1.000000000000000000, 0.0000000000000000000, -2.449222018076605100E-016 ) ) ;
#91 = ORIENTED_EDGE ( 'NONE', *, *, #94, .T. ) ;
#92 =( GEOMETRIC_REPRESENTATION_CONTEXT ( 3 ) GLOBAL_UNCERTAINTY_ASSIGNED_CONTEXT ( ( #295 ) ) GLOBAL_UNIT_ASSIGNED_CONTEXT ( ( #371, #355, #315 ) ) REPRESENTATION_CONTEXT ( 'NONE', 'WORKASPACE' ) );
#93 = PERSON_AND_ORGANIZATION ( #37, #24 ) ;
#94 = EDGE_CURVE ( 'NONE', #184, #184, #120, .T. ) ;
#95 = DIRECTION ( 'NONE',  ( -1.045737677745210800E-021, 1.000000000000000000, -1.972152263052516400E-031 ) ) ;
#96 = CYLINDRICAL_SURFACE ( 'NONE', #28, 6.763779527559100800 ) ;
#97 = CONICAL_SURFACE ( 'NONE', #183, 6.763779527559100800, 0.7853981633974463900 ) ;
#98 = CARTESIAN_POINT ( 'NONE',  ( -3.791338582677167500, 6.763779527559102600, -1.656589947160703600E-015 ) ) ;
#99 = APPLICATION_CONTEXT ( 'configuration controlled 3d designs of mechanical parts and assemblies' ) ;
#100 = VERTEX_POINT ( 'NONE', #20 ) ;
#101 = ORIENTED_EDGE ( 'NONE', *, *, #206, .F. ) ;
#102 = AXIS2_PLACEMENT_3D ( 'NONE', #314, #372, #189 ) ;
#103 = DATE_AND_TIME ( #308, #220 ) ;
#104 = DIRECTION ( 'NONE',  ( 1.045737677745210800E-021, -1.000000000000000000, 1.972152263052516400E-031 ) ) ;
#105 = DIRECTION ( 'NONE',  ( 1.000000000000000000, -1.045737677745217700E-021, -9.310431480873352400E-022 ) ) ;
#106 = EDGE_LOOP ( 'NONE', ( #153 ) ) ;
#107 = FACE_OUTER_BOUND ( 'NONE', #8, .T. ) ;
#108 = AXIS2_PLACEMENT_3D ( 'NONE', #292, #317, #233 ) ;
#109 = PERSON_AND_ORGANIZATION ( #37, #24 ) ;
#110 = MECHANICAL_CONTEXT ( 'NONE', #342, 'mechanical' ) ;
#111 = DIRECTION ( 'NONE',  ( 1.000000000000000000, -1.045737677745217700E-021, -9.310431480873352400E-022 ) ) ;
#112 = CIRCLE ( 'NONE', #161, 6.763779527559100800 ) ;
#113 = EDGE_LOOP ( 'NONE', ( #91 ) ) ;
#114 = SECURITY_CLASSIFICATION_LEVEL ( 'unclassified' ) ;
#115 = AXIS2_PLACEMENT_3D ( 'NONE', #147, #325, #351 ) ;
#116 = FACE_OUTER_BOUND ( 'NONE', #247, .T. ) ;
#117 = COORDINATED_UNIVERSAL_TIME_OFFSET ( 5, 0, .BEHIND. ) ;
#118 = DIRECTION ( 'NONE',  ( 1.000000000000000000, -1.045737677745217700E-021, 9.310431479887219800E-022 ) ) ;
#119 = EDGE_CURVE ( 'NONE', #175, #347, #181, .T. ) ;
#120 = CIRCLE ( 'NONE', #270, 6.763779527559055500 ) ;
#121 = ORIENTED_EDGE ( 'NONE', *, *, #379, .T. ) ;
#122 = CARTESIAN_POINT ( 'NONE',  ( -24.35433070866141500, 13.52755905511817000, 6.763779527559083100 ) ) ;
#123 = DIRECTION ( 'NONE',  ( 0.0000000000000000000, 0.0000000000000000000, -1.000000000000000000 ) ) ;
#124 = ORIENTED_EDGE ( 'NONE', *, *, #119, .F. ) ;
#125 = AXIS2_PLACEMENT_3D ( 'NONE', #309, #38, #261 ) ;
#126 = PLANE ( 'NONE',  #150 ) ;
#127 = CC_DESIGN_APPROVAL ( #277, ( #191 ) ) ;
#128 = DATE_AND_TIME ( #363, #248 ) ;
#129 = CARTESIAN_POINT ( 'NONE',  ( -0.6771653543307171200, 10.14960629921264400, -5.074803149606323900 ) ) ;
#130 = AXIS2_PLACEMENT_3D ( 'NONE', #13, #343, #258 ) ;
#131 = DIRECTION ( 'NONE',  ( 9.310431479887218000E-022, -9.860761315262583000E-032, -1.000000000000000000 ) ) ;
#132 = ORIENTED_EDGE ( 'NONE', *, *, #240, .T. ) ;
#133 = DIRECTION ( 'NONE',  ( 1.000000000000000000, -1.045737677745217700E-021, -9.310431480873352400E-022 ) ) ;
#134 = EDGE_LOOP ( 'NONE', ( #143 ) ) ;
#135 = PERSON_AND_ORGANIZATION_ROLE ( 'design_supplier' ) ;
#136 = ADVANCED_FACE ( 'NONE', ( #208, #353 ), #36, .T. ) ;
#137 = DIRECTION ( 'NONE',  ( 9.310431479887219800E-022, -9.860761315262581900E-032, -1.000000000000000000 ) ) ;
#138 = CARTESIAN_POINT ( 'NONE',  ( 2.700787401574794400, 13.52755905511817000, -6.763779527559087500 ) ) ;
#139 = ADVANCED_FACE ( 'NONE', ( #323, #294 ), #48, .T. ) ;
#140 = EDGE_LOOP ( 'NONE', ( #58, #132 ) ) ;
#141 = AXIS2_PLACEMENT_3D ( 'NONE', #237, #82, #357 ) ;
#142 = CARTESIAN_POINT ( 'NONE',  ( -10.82677165354331300, 1.132196303538989000E-020, -6.763779527559104400 ) ) ;
#143 = ORIENTED_EDGE ( 'NONE', *, *, #85, .T. ) ;
#144 = FACE_OUTER_BOUND ( 'NONE', #367, .T. ) ;
#145 = CALENDAR_DATE ( 2017, 27, 7 ) ;
#146 = PRODUCT_RELATED_PRODUCT_CATEGORY ( 'detail', '', ( #253 ) ) ;
#147 = CARTESIAN_POINT ( 'NONE',  ( 0.0000000000000000000, 0.0000000000000000000, 0.0000000000000000000 ) ) ;
#148 = ORIENTED_EDGE ( 'NONE', *, *, #240, .F. ) ;
#149 = CC_DESIGN_PERSON_AND_ORGANIZATION_ASSIGNMENT ( #71, #135, ( #191 ) ) ;
#150 = AXIS2_PLACEMENT_3D ( 'NONE', #332, #88, #192 ) ;
#151 = ORIENTED_EDGE ( 'NONE', *, *, #94, .F. ) ;
#152 = DIRECTION ( 'NONE',  ( 0.0000000000000000000, -9.860761378414623900E-032, -1.000000000000000000 ) ) ;
#153 = ORIENTED_EDGE ( 'NONE', *, *, #206, .T. ) ;
#154 = ADVANCED_FACE ( 'NONE', ( #207, #365 ), #97, .T. ) ;
#155 = CARTESIAN_POINT ( 'NONE',  ( -10.82677165354331300, 3.107533936364601900E-016, 5.074803149606315100 ) ) ;
#156 = COORDINATED_UNIVERSAL_TIME_OFFSET ( 5, 0, .BEHIND. ) ;
#157 = FACE_OUTER_BOUND ( 'NONE', #213, .T. ) ;
#158 = ORIENTED_EDGE ( 'NONE', *, *, #85, .F. ) ;
#159 = DATE_AND_TIME ( #203, #244 ) ;
#160 = CARTESIAN_POINT ( 'NONE',  ( -3.228346456692916500, 3.376003528828778300E-021, -6.200787401574844500 ) ) ;
#161 = AXIS2_PLACEMENT_3D ( 'NONE', #169, #287, #214 ) ;
#162 = CARTESIAN_POINT ( 'NONE',  ( -10.82677165354331300, 1.132196303102242600E-020, 6.763779527559069700 ) ) ;
#163 = DIRECTION ( 'NONE',  ( 1.000000000000000000, -1.045737677745217700E-021, -9.310431480873352400E-022 ) ) ;
#164 = ORIENTED_EDGE ( 'NONE', *, *, #241, .F. ) ;
#165 = DIRECTION ( 'NONE',  ( 9.310431479887219800E-022, -9.860761315262581900E-032, -1.000000000000000000 ) ) ;
#166 = DIRECTION ( 'NONE',  ( 1.000000000000000000, -1.045737677745217700E-021, -9.310431480873352400E-022 ) ) ;
#167 =( BOUNDED_CURVE ( )  B_SPLINE_CURVE ( 3, ( #225, #364, #72, #222 ),
 .UNSPECIFIED., .F., .T. ) 
 B_SPLINE_CURVE_WITH_KNOTS ( ( 4, 4 ),
 ( 1.570796326794896600, 4.712388980384689700 ),
 .UNSPECIFIED. ) 
 CURVE ( )  GEOMETRIC_REPRESENTATION_ITEM ( )  RATIONAL_B_SPLINE_CURVE ( ( 1.000000000000000000, 0.3333333333333333700, 0.3333333333333333700, 1.000000000000000000 ) ) 
 REPRESENTATION_ITEM ( '' )  );
#168 = DIRECTION ( 'NONE',  ( 0.0000000000000000000, 1.000000000000000000, -2.449212707644750100E-016 ) ) ;
#169 = CARTESIAN_POINT ( 'NONE',  ( -17.86220472440944800, 1.867918047180910800E-020, 1.663048332065104700E-020 ) ) ;
#170 = CIRCLE ( 'NONE', #50, 6.763779527559102600 ) ;
#171 = ORIENTED_EDGE ( 'NONE', *, *, #249, .T. ) ;
#172 = EDGE_CURVE ( 'NONE', #100, #100, #205, .T. ) ;
#173 = CARTESIAN_POINT ( 'NONE',  ( -21.65354330708661500, 2.264392609455819000E-020, 2.016038313467044600E-020 ) ) ;
#174 = VERTEX_POINT ( 'NONE', #251 ) ;
#175 = VERTEX_POINT ( 'NONE', #35 ) ;
#176 = AXIS2_PLACEMENT_3D ( 'NONE', #279, #118, #165 ) ;
#177 = PERSON_AND_ORGANIZATION_ROLE ( 'creator' ) ;
#178 = AXIS2_PLACEMENT_3D ( 'NONE', #1, #163, #152 ) ;
#179 = FACE_OUTER_BOUND ( 'NONE', #378, .T. ) ;
#180 = ORIENTED_EDGE ( 'NONE', *, *, #336, .F. ) ;
#181 =( BOUNDED_CURVE ( )  B_SPLINE_CURVE ( 3, ( #162, #122, #187, #64 ),
 .UNSPECIFIED., .F., .T. ) 
 B_SPLINE_CURVE_WITH_KNOTS ( ( 4, 4 ),
 ( 1.570796326794896800, 4.712388980384689700 ),
 .UNSPECIFIED. ) 
 CURVE ( )  GEOMETRIC_REPRESENTATION_ITEM ( )  RATIONAL_B_SPLINE_CURVE ( ( 1.000000000000000000, 0.3333333333333333700, 0.3333333333333333700, 1.000000000000000000 ) ) 
 REPRESENTATION_ITEM ( '' )  );
#182 = CARTESIAN_POINT ( 'NONE',  ( -18.42519685039370000, 1.926792255929468100E-020, 1.715465328851538700E-020 ) ) ;
#183 = AXIS2_PLACEMENT_3D ( 'NONE', #40, #104, #186 ) ;
#184 = VERTEX_POINT ( 'NONE', #70 ) ;
#185 = CLOSED_SHELL ( 'NONE', ( #198, #78, #3, #34, #229, #69, #212, #136, #350, #139, #227, #154, #23 ) ) ;
#186 = DIRECTION ( 'NONE',  ( 0.0000000000000000000, 0.0000000000000000000, -1.000000000000000000 ) ) ;
#187 = CARTESIAN_POINT ( 'NONE',  ( -24.35433070866141500, 13.52755905511817500, -6.763779527559083100 ) ) ;
#188 = FACE_OUTER_BOUND ( 'NONE', #140, .T. ) ;
#189 = DIRECTION ( 'NONE',  ( 0.0000000000000000000, -9.860778033404460000E-032, -1.000000000000000000 ) ) ;
#190 = FACE_BOUND ( 'NONE', #358, .T. ) ;
#191 = PRODUCT_DEFINITION_FORMATION_WITH_SPECIFIED_SOURCE ( 'ANY', '', #253, .NOT_KNOWN. ) ;
#192 = DIRECTION ( 'NONE',  ( -9.310431479887219800E-022, 9.860761315262581900E-032, 1.000000000000000000 ) ) ;
#193 = APPLICATION_PROTOCOL_DEFINITION ( 'international standard', 'config_control_design', 1994, #99 ) ;
#194 = ORIENTED_EDGE ( 'NONE', *, *, #313, .T. ) ;
#195 = DATE_TIME_ROLE ( 'creation_date' ) ;
#196 = CARTESIAN_POINT ( 'NONE',  ( -3.791338582677167500, 3.964745603338134100E-021, 3.529899812199621600E-021 ) ) ;
#197 = CC_DESIGN_PERSON_AND_ORGANIZATION_ASSIGNMENT ( #291, #56, ( #264 ) ) ;
#198 = ADVANCED_FACE ( 'NONE', ( #361, #116, #199 ), #338, .F. ) ;
#199 = FACE_OUTER_BOUND ( 'NONE', #334, .T. ) ;
#200 = DIRECTION ( 'NONE',  ( -1.045737677745210800E-021, 1.000000000000000000, -1.972152263052516400E-031 ) ) ;
#201 = CIRCLE ( 'NONE', #26, 6.200787401574844500 ) ;
#202 = AXIS2_PLACEMENT_3D ( 'NONE', #273, #255, #337 ) ;
#203 = CALENDAR_DATE ( 2017, 27, 7 ) ;
#204 = CARTESIAN_POINT ( 'NONE',  ( 0.0000000000000000000, 0.0000000000000000000, 0.0000000000000000000 ) ) ;
#205 = CIRCLE ( 'NONE', #380, 5.074803149606333700 ) ;
#206 = EDGE_CURVE ( 'NONE', #27, #27, #265, .T. ) ;
#207 = FACE_BOUND ( 'NONE', #288, .T. ) ;
#208 = FACE_BOUND ( 'NONE', #15, .T. ) ;
#209 = APPROVAL_PERSON_ORGANIZATION ( #300, #360, #19 ) ;
#210 = ADVANCED_BREP_SHAPE_REPRESENTATION ( '581246120', ( #307, #115 ), #92 ) ;
#211 = CC_DESIGN_APPROVAL ( #299, ( #264 ) ) ;
#212 = ADVANCED_FACE ( 'NONE', ( #278, #41 ), #126, .T. ) ;
#213 = EDGE_LOOP ( 'NONE', ( #124, #262 ) ) ;
#214 = DIRECTION ( 'NONE',  ( 0.0000000000000000000, 1.000000000000000000, -2.449212707644750100E-016 ) ) ;
#215 = CARTESIAN_POINT ( 'NONE',  ( -10.82677165354331300, 1.132196303199297400E-020, 1.008019156927631800E-020 ) ) ;
#216 = DIRECTION ( 'NONE',  ( 1.000000000000000000, -1.045737677745217700E-021, -9.310431480873352400E-022 ) ) ;
#217 = EDGE_LOOP ( 'NONE', ( #352 ) ) ;
#218 = CARTESIAN_POINT ( 'NONE',  ( -20.03937007874016300, 2.095592431697832400E-020, 1.865751819739866200E-020 ) ) ;
#219 = CARTESIAN_POINT ( 'NONE',  ( -10.82677165354323800, 10.82677165354337700, 1.008019156551544600E-020 ) ) ;
#220 = LOCAL_TIME ( 15, 52, 32.00000000000000000, #368 ) ;
#221 = DIRECTION ( 'NONE',  ( 1.000000000000000000, -1.045737677745217700E-021, -9.310431480873352400E-022 ) ) ;
#222 = CARTESIAN_POINT ( 'NONE',  ( -10.82677165354331300, 1.132196304072790000E-020, -5.074803149606350600 ) ) ;
#223 = CARTESIAN_POINT ( 'NONE',  ( 5.773200622371050200E-021, -6.114448453361681600E-031, -6.200787401574844500 ) ) ;
#224 = ORIENTED_EDGE ( 'NONE', *, *, #119, .T. ) ;
#225 = CARTESIAN_POINT ( 'NONE',  ( -10.82677165354331300, 3.107533936364601900E-016, 5.074803149606315100 ) ) ;
#226 = DIRECTION ( 'NONE',  ( 0.0000000000000000000, 0.0000000000000000000, -1.000000000000000000 ) ) ;
#227 = ADVANCED_FACE ( 'NONE', ( #275, #179, #252 ), #96, .T. ) ;
#228 = CARTESIAN_POINT ( 'NONE',  ( -17.86220472440944800, 6.763779527559100800, -1.656576846577194600E-015 ) ) ;
#229 = ADVANCED_FACE ( 'NONE', ( #329, #86 ), #21, .T. ) ;
#230 = AXIS2_PLACEMENT_3D ( 'NONE', #331, #316, #341 ) ;
#231 = ORIENTED_EDGE ( 'NONE', *, *, #241, .T. ) ;
#232 = ORIENTED_EDGE ( 'NONE', *, *, #172, .T. ) ;
#233 = DIRECTION ( 'NONE',  ( 0.0000000000000000000, 0.0000000000000000000, -1.000000000000000000 ) ) ;
#234 = DATE_AND_TIME ( #145, #385 ) ;
#235 = AXIS2_PLACEMENT_3D ( 'NONE', #305, #377, #263 ) ;
#236 = APPROVAL_STATUS ( 'not_yet_approved' ) ;
#237 = CARTESIAN_POINT ( 'NONE',  ( -3.791338582677167500, 3.964745603338134100E-021, 3.529899812199621600E-021 ) ) ;
#238 = LENGTH_MEASURE_WITH_UNIT ( LENGTH_MEASURE( 0.02539999999999999900 ), #53 );
#239 = EDGE_LOOP ( 'NONE', ( #328 ) ) ;
#240 = EDGE_CURVE ( 'NONE', #381, #33, #167, .T. ) ;
#241 = EDGE_CURVE ( 'NONE', #333, #333, #170, .T. ) ;
#242 = EDGE_LOOP ( 'NONE', ( #386 ) ) ;
#243 = EDGE_LOOP ( 'NONE', ( #164 ) ) ;
#244 = LOCAL_TIME ( 15, 52, 32.00000000000000000, #117 ) ;
#245 = EDGE_CURVE ( 'NONE', #260, #260, #375, .T. ) ;
#246 = VERTEX_POINT ( 'NONE', #228 ) ;
#247 = EDGE_LOOP ( 'NONE', ( #180 ) ) ;
#248 = LOCAL_TIME ( 15, 52, 32.00000000000000000, #156 ) ;
#249 = EDGE_CURVE ( 'NONE', #174, #174, #356, .T. ) ;
#250 = DIRECTION ( 'NONE',  ( -1.000000000000000000, 1.045737677745217700E-021, 9.310431480873352400E-022 ) ) ;
#251 = CARTESIAN_POINT ( 'NONE',  ( -10.82677165354323800, 10.82677165354337700, -5.074803149606333700 ) ) ;
#252 = FACE_OUTER_BOUND ( 'NONE', #243, .T. ) ;
#253 = PRODUCT ( '581246120', '581246120', '', ( #110 ) ) ;
#254 = FACE_OUTER_BOUND ( 'NONE', #75, .T. ) ;
#255 = DIRECTION ( 'NONE',  ( 1.045737677745210800E-021, -1.000000000000000000, 1.972152263052516400E-031 ) ) ;
#256 = PERSON_AND_ORGANIZATION ( #37, #24 ) ;
#257 = CARTESIAN_POINT ( 'NONE',  ( -21.65354330708661500, 2.264392609394674300E-020, -6.200787401574844500 ) ) ;
#258 = DIRECTION ( 'NONE',  ( 0.0000000000000000000, -9.860741784813948200E-032, -1.000000000000000000 ) ) ;
#259 = CARTESIAN_POINT ( 'NONE',  ( -18.42519685039370000, 1.926792255868323500E-020, -6.200787401574844500 ) ) ;
#260 = VERTEX_POINT ( 'NONE', #160 ) ;
#261 = DIRECTION ( 'NONE',  ( -9.310431479887219800E-022, 9.860761315262581900E-032, 1.000000000000000000 ) ) ;
#262 = ORIENTED_EDGE ( 'NONE', *, *, #313, .F. ) ;
#263 = DIRECTION ( 'NONE',  ( 0.0000000000000000000, -9.860763106492069400E-032, -1.000000000000000000 ) ) ;
#264 = PRODUCT_DEFINITION ( 'UNKNOWN', '', #191, #47 ) ;
#265 = CIRCLE ( 'NONE', #55, 6.200787401574844500 ) ;
#266 = PERSON_AND_ORGANIZATION ( #37, #24 ) ;
#267 = VERTEX_POINT ( 'NONE', #257 ) ;
#268 = EDGE_LOOP ( 'NONE', ( #29 ) ) ;
#269 = ORIENTED_EDGE ( 'NONE', *, *, #336, .T. ) ;
#270 = AXIS2_PLACEMENT_3D ( 'NONE', #46, #95, #90 ) ;
#271 = AXIS2_PLACEMENT_3D ( 'NONE', #370, #340, #43 ) ;
#272 = FACE_BOUND ( 'NONE', #268, .T. ) ;
#273 = CARTESIAN_POINT ( 'NONE',  ( -10.82677165354331300, 3.517716535433081900, 1.008019156745654100E-020 ) ) ;
#274 = AXIS2_PLACEMENT_3D ( 'NONE', #373, #111, #359 ) ;
#275 = FACE_BOUND ( 'NONE', #298, .T. ) ;
#276 = CC_DESIGN_DATE_AND_TIME_ASSIGNMENT ( #234, #195, ( #264 ) ) ;
#277 = APPROVAL ( #236, 'UNSPECIFIED' ) ;
#278 = FACE_OUTER_BOUND ( 'NONE', #242, .T. ) ;
#279 = CARTESIAN_POINT ( 'NONE',  ( 0.0000000000000000000, 3.100393700787418300, -7.593523650670086800E-016 ) ) ;
#280 = DIRECTION ( 'NONE',  ( 0.0000000000000000000, -9.860778033404460000E-032, -1.000000000000000000 ) ) ;
#281 = CARTESIAN_POINT ( 'NONE',  ( -10.82677165354331300, 1.132196303102242600E-020, 6.763779527559069700 ) ) ;
#282 = FACE_OUTER_BOUND ( 'NONE', #22, .T. ) ;
#283 = EDGE_LOOP ( 'NONE', ( #148, #319 ) ) ;
#284 = CARTESIAN_POINT ( 'NONE',  ( -10.82677165354329100, 7.598425196850469900, 1.008019157425037400E-020 ) ) ;
#285 = DATE_AND_TIME ( #354, #321 ) ;
#286 = CARTESIAN_POINT ( 'NONE',  ( -0.6771653543307171200, 10.14960629921264400, 5.074803149606320400 ) ) ;
#287 = DIRECTION ( 'NONE',  ( -1.000000000000000000, 1.045737677745217700E-021, 9.310431480873352400E-022 ) ) ;
#288 = EDGE_LOOP ( 'NONE', ( #101 ) ) ;
#289 = CARTESIAN_POINT ( 'NONE',  ( -10.82677165354323800, 10.82677165354337700, -6.200787401574844500 ) ) ;
#290 = EDGE_CURVE ( 'NONE', #89, #89, #60, .T. ) ;
#291 = PERSON_AND_ORGANIZATION ( #37, #24 ) ;
#292 = CARTESIAN_POINT ( 'NONE',  ( -10.82677165354323800, 10.82677165354337700, 1.008019156551544600E-020 ) ) ;
#293 = ORIENTED_EDGE ( 'NONE', *, *, #290, .F. ) ;
#294 = FACE_OUTER_BOUND ( 'NONE', #106, .T. ) ;
#295 = UNCERTAINTY_MEASURE_WITH_UNIT (LENGTH_MEASURE( 1.000000000000000100E-005 ), #371, 'distance_accuracy_value', 'NONE');
#296 = APPROVAL_DATE_TIME ( #159, #360 ) ;
#297 = APPROVAL_ROLE ( '' ) ;
#298 = EDGE_LOOP ( 'NONE', ( #224, #194 ) ) ;
#299 = APPROVAL ( #51, 'UNSPECIFIED' ) ;
#300 = PERSON_AND_ORGANIZATION ( #37, #24 ) ;
#301 = APPROVAL_PERSON_ORGANIZATION ( #266, #277, #45 ) ;
#302 = ORIENTED_EDGE ( 'NONE', *, *, #6, .T. ) ;
#303 = FACE_OUTER_BOUND ( 'NONE', #134, .T. ) ;
#304 = CARTESIAN_POINT ( 'NONE',  ( -10.82677165354331300, 1.132196304072790000E-020, -5.074803149606350600 ) ) ;
#305 = CARTESIAN_POINT ( 'NONE',  ( -1.614173228346453800, 1.688001756227822000E-021, 1.502864904879765600E-021 ) ) ;
#306 = ORIENTED_EDGE ( 'NONE', *, *, #320, .F. ) ;
#307 = MANIFOLD_SOLID_BREP ( '1', #185 ) ;
#308 = CALENDAR_DATE ( 2017, 27, 7 ) ;
#309 = CARTESIAN_POINT ( 'NONE',  ( -21.65354330708661500, 3.100393700787412500, -7.593322046838915600E-016 ) ) ;
#310 = PERSON_AND_ORGANIZATION_ROLE ( 'classification_officer' ) ;
#311 = EDGE_LOOP ( 'NONE', ( #158 ) ) ;
#312 = EDGE_LOOP ( 'NONE', ( #232 ) ) ;
#313 = EDGE_CURVE ( 'NONE', #347, #175, #324, .T. ) ;
#314 = CARTESIAN_POINT ( 'NONE',  ( -21.65354330708661500, 2.264392609455819000E-020, 2.016038313467044600E-020 ) ) ;
#315 =( NAMED_UNIT ( * ) SI_UNIT ( $, .STERADIAN. ) SOLID_ANGLE_UNIT ( ) );
#316 = DIRECTION ( 'NONE',  ( 1.045737677745210800E-021, -1.000000000000000000, 1.972152263052516400E-031 ) ) ;
#317 = DIRECTION ( 'NONE',  ( 1.045737677745210800E-021, -1.000000000000000000, 1.972152263052516400E-031 ) ) ;
#318 = CC_DESIGN_PERSON_AND_ORGANIZATION_ASSIGNMENT ( #109, #310, ( #57 ) ) ;
#319 = ORIENTED_EDGE ( 'NONE', *, *, #17, .F. ) ;
#320 = EDGE_CURVE ( 'NONE', #14, #14, #201, .T. ) ;
#321 = LOCAL_TIME ( 15, 52, 32.00000000000000000, #49 ) ;
#322 = CARTESIAN_POINT ( 'NONE',  ( -21.65354330708661500, 2.264392609405777600E-020, -5.074803149606333700 ) ) ;
#323 = FACE_OUTER_BOUND ( 'NONE', #44, .T. ) ;
#324 =( BOUNDED_CURVE ( )  B_SPLINE_CURVE ( 3, ( #349, #138, #73, #281 ),
 .UNSPECIFIED., .F., .T. ) 
 B_SPLINE_CURVE_WITH_KNOTS ( ( 4, 4 ),
 ( 1.570796326794896600, 4.712388980384689700 ),
 .UNSPECIFIED. ) 
 CURVE ( )  GEOMETRIC_REPRESENTATION_ITEM ( )  RATIONAL_B_SPLINE_CURVE ( ( 1.000000000000000000, 0.3333333333333333700, 0.3333333333333333700, 1.000000000000000000 ) ) 
 REPRESENTATION_ITEM ( '' )  );
#325 = DIRECTION ( 'NONE',  ( 0.0000000000000000000, 0.0000000000000000000, 1.000000000000000000 ) ) ;
#326 = VERTEX_POINT ( 'NONE', #322 ) ;
#327 = CC_DESIGN_APPROVAL ( #360, ( #57 ) ) ;
#328 = ORIENTED_EDGE ( 'NONE', *, *, #290, .T. ) ;
#329 = FACE_OUTER_BOUND ( 'NONE', #311, .T. ) ;
#330 = FACE_OUTER_BOUND ( 'NONE', #217, .T. ) ;
#331 = CARTESIAN_POINT ( 'NONE',  ( -10.82677165354331300, 1.132196303199297400E-020, 1.008019156927631800E-020 ) ) ;
#332 = CARTESIAN_POINT ( 'NONE',  ( -7.726377952755841600, 10.82677165354337700, -7.593451714757700000E-016 ) ) ;
#333 = VERTEX_POINT ( 'NONE', #98 ) ;
#334 = EDGE_LOOP ( 'NONE', ( #62 ) ) ;
#335 = CC_DESIGN_DATE_AND_TIME_ASSIGNMENT ( #103, #11, ( #57 ) ) ;
#336 = EDGE_CURVE ( 'NONE', #326, #326, #59, .T. ) ;
#337 = DIRECTION ( 'NONE',  ( 0.0000000000000000000, 0.0000000000000000000, -1.000000000000000000 ) ) ;
#338 = CYLINDRICAL_SURFACE ( 'NONE', #178, 5.074803149606333700 ) ;
#339 = CIRCLE ( 'NONE', #102, 6.200787401574844500 ) ;
#340 = DIRECTION ( 'NONE',  ( 1.045737677745210800E-021, -1.000000000000000000, 1.972152263052516400E-031 ) ) ;
#341 = DIRECTION ( 'NONE',  ( 0.0000000000000000000, -9.860765225673578100E-032, -1.000000000000000000 ) ) ;
#342 = APPLICATION_CONTEXT ( 'configuration controlled 3d designs of mechanical parts and assemblies' ) ;
#343 = DIRECTION ( 'NONE',  ( 1.000000000000000000, -1.045737677745217700E-021, -9.310431480873352400E-022 ) ) ;
#344 = CARTESIAN_POINT ( 'NONE',  ( -10.82677165354329100, 7.598425196850469900, -6.200787401574844500 ) ) ;
#345 = CONICAL_SURFACE ( 'NONE', #141, 6.763779527559102600, 0.7853981633974463900 ) ;
#346 = DIRECTION ( 'NONE',  ( 0.0000000000000000000, -9.860778033404460000E-032, -1.000000000000000000 ) ) ;
#347 = VERTEX_POINT ( 'NONE', #142 ) ;
#348 = CC_DESIGN_SECURITY_CLASSIFICATION ( #57, ( #191 ) ) ;
#349 = CARTESIAN_POINT ( 'NONE',  ( -10.82677165354331300, 1.132196303538989000E-020, -6.763779527559104400 ) ) ;
#350 = ADVANCED_FACE ( 'NONE', ( #282, #272 ), #345, .T. ) ;
#351 = DIRECTION ( 'NONE',  ( 1.000000000000000000, 0.0000000000000000000, 0.0000000000000000000 ) ) ;
#352 = ORIENTED_EDGE ( 'NONE', *, *, #249, .F. ) ;
#353 = FACE_OUTER_BOUND ( 'NONE', #67, .T. ) ;
#354 = CALENDAR_DATE ( 2017, 27, 7 ) ;
#355 =( NAMED_UNIT ( * ) PLANE_ANGLE_UNIT ( ) SI_UNIT ( $, .RADIAN. ) );
#356 = CIRCLE ( 'NONE', #108, 5.074803149606333700 ) ;
#357 = DIRECTION ( 'NONE',  ( 0.0000000000000000000, 9.860762311490620000E-032, 1.000000000000000000 ) ) ;
#358 = EDGE_LOOP ( 'NONE', ( #269 ) ) ;
#359 = DIRECTION ( 'NONE',  ( 0.0000000000000000000, -9.860763106492069400E-032, -1.000000000000000000 ) ) ;
#360 = APPROVAL ( #16, 'UNSPECIFIED' ) ;
#361 = FACE_BOUND ( 'NONE', #283, .T. ) ;
#362 = AXIS2_PLACEMENT_3D ( 'NONE', #218, #133, #346 ) ;
#363 = CALENDAR_DATE ( 2017, 27, 7 ) ;
#364 = CARTESIAN_POINT ( 'NONE',  ( -20.97637795275590700, 10.14960629921264400, 5.074803149606323900 ) ) ;
#365 = FACE_OUTER_BOUND ( 'NONE', #113, .T. ) ;
#366 = CC_DESIGN_PERSON_AND_ORGANIZATION_ASSIGNMENT ( #256, #177, ( #191 ) ) ;
#367 = EDGE_LOOP ( 'NONE', ( #151 ) ) ;
#368 = COORDINATED_UNIVERSAL_TIME_OFFSET ( 5, 0, .BEHIND. ) ;
#369 = CARTESIAN_POINT ( 'NONE',  ( -10.82677165354331300, 1.132196304072790000E-020, -5.074803149606350600 ) ) ;
#370 = CARTESIAN_POINT ( 'NONE',  ( -10.82677165354329100, 9.212598425196926400, 1.008019157764728800E-020 ) ) ;
#371 =( CONVERSION_BASED_UNIT ( 'INCH', #238 ) LENGTH_UNIT ( ) NAMED_UNIT ( #61 ) );
#372 = DIRECTION ( 'NONE',  ( -1.000000000000000000, 1.045737677745217700E-021, 9.310431480873352400E-022 ) ) ;
#373 = CARTESIAN_POINT ( 'NONE',  ( -3.228346456692916500, 3.376003529440223100E-021, 3.005729861805134100E-021 ) ) ;
#374 = ORIENTED_EDGE ( 'NONE', *, *, #6, .F. ) ;
#375 = CIRCLE ( 'NONE', #274, 6.200787401574844500 ) ;
#376 = DIRECTION ( 'NONE',  ( 0.0000000000000000000, -9.860769153716180100E-032, -1.000000000000000000 ) ) ;
#377 = DIRECTION ( 'NONE',  ( 1.000000000000000000, -1.045737677745217700E-021, -9.310431480873352400E-022 ) ) ;
#378 = EDGE_LOOP ( 'NONE', ( #384 ) ) ;
#379 = EDGE_CURVE ( 'NONE', #246, #246, #112, .T. ) ;
#380 = AXIS2_PLACEMENT_3D ( 'NONE', #10, #32, #137 ) ;
#381 = VERTEX_POINT ( 'NONE', #79 ) ;
#382 = EDGE_LOOP ( 'NONE', ( #302 ) ) ;
#383 = APPROVAL_DATE_TIME ( #128, #299 ) ;
#384 = ORIENTED_EDGE ( 'NONE', *, *, #379, .F. ) ;
#385 = LOCAL_TIME ( 15, 52, 32.00000000000000000, #54 ) ;
#386 = ORIENTED_EDGE ( 'NONE', *, *, #320, .T. ) ;
ENDSEC;
END-ISO-10303-21;
