ISO-10303-21;
HEADER;
FILE_DESCRIPTION (( 'STEP AP203' ),
    '1' );
FILE_NAME ('581207530.STEP',
    '2017-07-31T18:45:28',
    ( '' ),
    ( '' ),
    'SwSTEP 2.0',
    'SolidWorks 2017',
    '' );
FILE_SCHEMA (( 'CONFIG_CONTROL_DESIGN' ));
ENDSEC;

DATA;
#1 = DESIGN_CONTEXT ( 'detailed design', #309, 'design' ) ;
#2 = CIRCLE ( 'NONE', #23, 2.478646475863328200 ) ;
#3 = EDGE_CURVE ( 'NONE', #176, #176, #322, .T. ) ;
#4 = PERSON_AND_ORGANIZATION_ROLE ( 'design_owner' ) ;
#5 = EDGE_LOOP ( 'NONE', ( #68 ) ) ;
#6 =( NAMED_UNIT ( * ) PLANE_ANGLE_UNIT ( ) SI_UNIT ( $, .RADIAN. ) );
#7 = CARTESIAN_POINT ( 'NONE',  ( 0.0000000000000000000, 0.0000000000000000000, -1.751690395355625100 ) ) ;
#8 = DIRECTION ( 'NONE',  ( 1.000000000000000000, 0.0000000000000000000, 0.0000000000000000000 ) ) ;
#9 = DIRECTION ( 'NONE',  ( 1.000000000000000000, 0.0000000000000000000, 0.0000000000000000000 ) ) ;
#10 = CC_DESIGN_DATE_AND_TIME_ASSIGNMENT ( #204, #149, ( #30 ) ) ;
#11 = TOROIDAL_SURFACE ( 'NONE', #45, 1.141999999999999900, 0.1299999999999999500 ) ;
#12 = DATE_TIME_ROLE ( 'creation_date' ) ;
#13 = ORIENTED_EDGE ( 'NONE', *, *, #72, .F. ) ;
#14 = ADVANCED_FACE ( 'NONE', ( #32, #106 ), #237, .T. ) ;
#15 = CONICAL_SURFACE ( 'NONE', #244, 1.108353524136672200, 1.308996938995747000 ) ;
#16 = DIRECTION ( 'NONE',  ( -0.0000000000000000000, -0.0000000000000000000, 1.000000000000000000 ) ) ;
#17 = SECURITY_CLASSIFICATION_LEVEL ( 'unclassified' ) ;
#18 = DIRECTION ( 'NONE',  ( 1.000000000000000000, 0.0000000000000000000, 0.0000000000000000000 ) ) ;
#19 = CARTESIAN_POINT ( 'NONE',  ( 0.0000000000000000000, 1.369999999999999900, -1.250000000000000000 ) ) ;
#20 = ORIENTED_EDGE ( 'NONE', *, *, #60, .F. ) ;
#21 = DIRECTION ( 'NONE',  ( -0.0000000000000000000, -0.0000000000000000000, 1.000000000000000000 ) ) ;
#22 = CARTESIAN_POINT ( 'NONE',  ( 1.369999999999999900, 0.0000000000000000000, -1.250000000000000000 ) ) ;
#23 = AXIS2_PLACEMENT_3D ( 'NONE', #195, #173, #31 ) ;
#24 = CC_DESIGN_PERSON_AND_ORGANIZATION_ASSIGNMENT ( #313, #63, ( #25 ) ) ;
#25 = PRODUCT_DEFINITION_FORMATION_WITH_SPECIFIED_SOURCE ( 'ANY', '', #174, .NOT_KNOWN. ) ;
#26 = EDGE_LOOP ( 'NONE', ( #48 ) ) ;
#27 = COORDINATED_UNIVERSAL_TIME_OFFSET ( 5, 0, .BEHIND. ) ;
#28 = MANIFOLD_SOLID_BREP ( 'Revolve1', #178 ) ;
#29 = EDGE_LOOP ( 'NONE', ( #242 ) ) ;
#30 = SECURITY_CLASSIFICATION ( '', '', #17 ) ;
#31 = DIRECTION ( 'NONE',  ( 1.000000000000000000, 0.0000000000000000000, 0.0000000000000000000 ) ) ;
#32 = FACE_OUTER_BOUND ( 'NONE', #26, .T. ) ;
#33 = APPROVAL_ROLE ( '' ) ;
#34 = AXIS2_PLACEMENT_3D ( 'NONE', #254, #305, #327 ) ;
#35 = FACE_OUTER_BOUND ( 'NONE', #150, .T. ) ;
#36 = EDGE_LOOP ( 'NONE', ( #90 ) ) ;
#37 = DIRECTION ( 'NONE',  ( 0.0000000000000000000, 0.0000000000000000000, 1.000000000000000000 ) ) ;
#38 = CIRCLE ( 'NONE', #140, 2.575000000000000200 ) ;
#39 = ADVANCED_FACE ( 'NONE', ( #273, #194 ), #183, .F. ) ;
#40 = PERSON_AND_ORGANIZATION ( #141, #119 ) ;
#41 = DIRECTION ( 'NONE',  ( 0.0000000000000000000, 0.0000000000000000000, -1.000000000000000000 ) ) ;
#42 = FACE_BOUND ( 'NONE', #331, .T. ) ;
#43 = EDGE_CURVE ( 'NONE', #289, #289, #2, .T. ) ;
#44 = DIRECTION ( 'NONE',  ( 1.000000000000000000, 0.0000000000000000000, 0.0000000000000000000 ) ) ;
#45 = AXIS2_PLACEMENT_3D ( 'NONE', #316, #198, #297 ) ;
#46 = ADVANCED_BREP_SHAPE_REPRESENTATION ( '581207530', ( #28, #209 ), #185 ) ;
#47 = APPROVAL_PERSON_ORGANIZATION ( #211, #240, #33 ) ;
#48 = ORIENTED_EDGE ( 'NONE', *, *, #179, .F. ) ;
#49 = CYLINDRICAL_SURFACE ( 'NONE', #172, 2.575000000000000600 ) ;
#50 = APPROVAL_STATUS ( 'not_yet_approved' ) ;
#51 = ORIENTED_EDGE ( 'NONE', *, *, #153, .T. ) ;
#52 = CC_DESIGN_SECURITY_CLASSIFICATION ( #30, ( #25 ) ) ;
#53 = DIRECTION ( 'NONE',  ( -0.0000000000000000000, -0.0000000000000000000, 1.000000000000000000 ) ) ;
#54 = LOCAL_TIME ( 14, 45, 28.00000000000000000, #177 ) ;
#55 =( LENGTH_UNIT ( ) NAMED_UNIT ( * ) SI_UNIT ( $, .METRE. ) );
#56 = CARTESIAN_POINT ( 'NONE',  ( 1.012000000000000000, 0.0000000000000000000, -1.751690395355625100 ) ) ;
#57 = PERSON_AND_ORGANIZATION ( #141, #119 ) ;
#58 = CYLINDRICAL_SURFACE ( 'NONE', #190, 1.240000000000000000 ) ;
#59 = CARTESIAN_POINT ( 'NONE',  ( 2.478646475863328200, 0.0000000000000000000, -2.244429642582420800 ) ) ;
#60 = EDGE_CURVE ( 'NONE', #167, #167, #38, .T. ) ;
#61 = ADVANCED_FACE ( 'NONE', ( #73, #304 ), #11, .T. ) ;
#62 = ORIENTED_EDGE ( 'NONE', *, *, #3, .T. ) ;
#63 = PERSON_AND_ORGANIZATION_ROLE ( 'creator' ) ;
#64 = FACE_OUTER_BOUND ( 'NONE', #219, .T. ) ;
#65 = CARTESIAN_POINT ( 'NONE',  ( 0.0000000000000000000, 0.0000000000000000000, 0.0000000000000000000 ) ) ;
#66 = DIRECTION ( 'NONE',  ( 1.000000000000000000, 0.0000000000000000000, 0.0000000000000000000 ) ) ;
#67 = FACE_OUTER_BOUND ( 'NONE', #29, .T. ) ;
#68 = ORIENTED_EDGE ( 'NONE', *, *, #207, .F. ) ;
#69 = VERTEX_POINT ( 'NONE', #125 ) ;
#70 = FACE_BOUND ( 'NONE', #271, .T. ) ;
#71 = COORDINATED_UNIVERSAL_TIME_OFFSET ( 5, 0, .BEHIND. ) ;
#72 = EDGE_CURVE ( 'NONE', #285, #285, #95, .T. ) ;
#73 = FACE_OUTER_BOUND ( 'NONE', #36, .T. ) ;
#74 = DIRECTION ( 'NONE',  ( -0.0000000000000000000, -0.0000000000000000000, 1.000000000000000000 ) ) ;
#75 = APPROVAL_DATE_TIME ( #293, #233 ) ;
#76 = FACE_OUTER_BOUND ( 'NONE', #5, .T. ) ;
#77 = CARTESIAN_POINT ( 'NONE',  ( 0.0000000000000000000, 0.0000000000000000000, -1.120000000000000100 ) ) ;
#78 = CARTESIAN_POINT ( 'NONE',  ( 3.049999999999999800, 0.0000000000000000000, -1.250000000000000000 ) ) ;
#79 = ORIENTED_EDGE ( 'NONE', *, *, #217, .F. ) ;
#80 = CIRCLE ( 'NONE', #314, 3.149999999999999900 ) ;
#81 = CARTESIAN_POINT ( 'NONE',  ( 0.0000000000000000000, 0.0000000000000000000, 0.0000000000000000000 ) ) ;
#82 = ADVANCED_FACE ( 'NONE', ( #70, #35 ), #159, .F. ) ;
#83 = EDGE_LOOP ( 'NONE', ( #175 ) ) ;
#84 = DIRECTION ( 'NONE',  ( -1.000000000000000000, 0.0000000000000000000, -0.0000000000000000000 ) ) ;
#85 = VERTEX_POINT ( 'NONE', #127 ) ;
#86 = DIRECTION ( 'NONE',  ( 1.000000000000000000, 0.0000000000000000000, 0.0000000000000000000 ) ) ;
#87 = APPLICATION_CONTEXT ( 'configuration controlled 3d designs of mechanical parts and assemblies' ) ;
#88 = CARTESIAN_POINT ( 'NONE',  ( 0.0000000000000000000, 0.0000000000000000000, 0.0000000000000000000 ) ) ;
#89 = PLANE ( 'NONE',  #145 ) ;
#90 = ORIENTED_EDGE ( 'NONE', *, *, #282, .F. ) ;
#91 = AXIS2_PLACEMENT_3D ( 'NONE', #92, #220, #117 ) ;
#92 = CARTESIAN_POINT ( 'NONE',  ( 0.0000000000000000000, 0.0000000000000000000, -1.250000000000000000 ) ) ;
#93 = DIRECTION ( 'NONE',  ( 1.000000000000000000, 0.0000000000000000000, 0.0000000000000000000 ) ) ;
#94 = CC_DESIGN_PERSON_AND_ORGANIZATION_ASSIGNMENT ( #260, #4, ( #174 ) ) ;
#95 = CIRCLE ( 'NONE', #164, 1.369999999999999900 ) ;
#96 = CALENDAR_DATE ( 2017, 31, 7 ) ;
#97 = ORIENTED_EDGE ( 'NONE', *, *, #201, .F. ) ;
#98 = VERTEX_POINT ( 'NONE', #103 ) ;
#99 = CARTESIAN_POINT ( 'NONE',  ( 0.0000000000000000000, 0.0000000000000000000, -3.000000000000000400 ) ) ;
#100 = DIRECTION ( 'NONE',  ( 1.000000000000000000, 0.0000000000000000000, 0.0000000000000000000 ) ) ;
#101 = DIRECTION ( 'NONE',  ( -1.000000000000000000, 0.0000000000000000000, 0.0000000000000000000 ) ) ;
#102 = CALENDAR_DATE ( 2017, 31, 7 ) ;
#103 = CARTESIAN_POINT ( 'NONE',  ( 3.149999999999999900, 0.0000000000000000000, -1.350000000000000100 ) ) ;
#104 = EDGE_LOOP ( 'NONE', ( #319 ) ) ;
#105 = DIRECTION ( 'NONE',  ( -0.0000000000000000000, -0.0000000000000000000, 1.000000000000000000 ) ) ;
#106 = FACE_OUTER_BOUND ( 'NONE', #112, .T. ) ;
#107 = PRODUCT_DEFINITION ( 'UNKNOWN', '', #25, #1 ) ;
#108 = DIRECTION ( 'NONE',  ( -1.000000000000000000, 0.0000000000000000000, -0.0000000000000000000 ) ) ;
#109 = DATE_AND_TIME ( #148, #258 ) ;
#110 = DIRECTION ( 'NONE',  ( -0.0000000000000000000, -0.0000000000000000000, 1.000000000000000000 ) ) ;
#111 = DIRECTION ( 'NONE',  ( 1.000000000000000000, 0.0000000000000000000, 0.0000000000000000000 ) ) ;
#112 = EDGE_LOOP ( 'NONE', ( #301 ) ) ;
#113 = MECHANICAL_CONTEXT ( 'NONE', #87, 'mechanical' ) ;
#114 = CIRCLE ( 'NONE', #321, 3.149999999999999900 ) ;
#115 = CARTESIAN_POINT ( 'NONE',  ( 0.0000000000000000000, 1.011999999999999800, 0.0000000000000000000 ) ) ;
#116 = DIRECTION ( 'NONE',  ( -0.0000000000000000000, -0.0000000000000000000, 1.000000000000000000 ) ) ;
#117 = DIRECTION ( 'NONE',  ( 1.000000000000000000, 0.0000000000000000000, 0.0000000000000000000 ) ) ;
#118 = EDGE_LOOP ( 'NONE', ( #171 ) ) ;
#119 = ORGANIZATION ( 'UNSPECIFIED', 'UNSPECIFIED', '' ) ;
#120 = FACE_OUTER_BOUND ( 'NONE', #230, .T. ) ;
#121 = AXIS2_PLACEMENT_3D ( 'NONE', #228, #136, #86 ) ;
#122 = EDGE_LOOP ( 'NONE', ( #79 ) ) ;
#123 = CC_DESIGN_APPROVAL ( #233, ( #107 ) ) ;
#124 = CARTESIAN_POINT ( 'NONE',  ( 1.240000000000000000, 0.0000000000000000000, 0.0000000000000000000 ) ) ;
#125 = CARTESIAN_POINT ( 'NONE',  ( 3.149999999999999900, 0.0000000000000000000, -3.000000000000000400 ) ) ;
#126 = EDGE_LOOP ( 'NONE', ( #134 ) ) ;
#127 = CARTESIAN_POINT ( 'NONE',  ( 1.240000000000000000, 0.0000000000000000000, -1.120000000000000100 ) ) ;
#128 = VERTEX_POINT ( 'NONE', #124 ) ;
#129 = DIRECTION ( 'NONE',  ( 1.000000000000000000, 0.0000000000000000000, 0.0000000000000000000 ) ) ;
#130 = CARTESIAN_POINT ( 'NONE',  ( 0.0000000000000000000, 0.0000000000000000000, 0.0000000000000000000 ) ) ;
#131 = FACE_OUTER_BOUND ( 'NONE', #208, .T. ) ;
#132 = CARTESIAN_POINT ( 'NONE',  ( 0.0000000000000000000, 0.0000000000000000000, -2.370000000000000100 ) ) ;
#133 = ADVANCED_FACE ( 'NONE', ( #137, #67 ), #89, .F. ) ;
#134 = ORIENTED_EDGE ( 'NONE', *, *, #282, .T. ) ;
#135 = CARTESIAN_POINT ( 'NONE',  ( 0.0000000000000000000, 0.0000000000000000000, 0.0000000000000000000 ) ) ;
#136 = DIRECTION ( 'NONE',  ( -0.0000000000000000000, -0.0000000000000000000, 1.000000000000000000 ) ) ;
#137 = FACE_BOUND ( 'NONE', #144, .T. ) ;
#138 = APPLICATION_PROTOCOL_DEFINITION ( 'international standard', 'config_control_design', 1994, #309 ) ;
#139 = VERTEX_POINT ( 'NONE', #264 ) ;
#140 = AXIS2_PLACEMENT_3D ( 'NONE', #99, #74, #44 ) ;
#141 = PERSON ( 'UNSPECIFIED', 'UNSPECIFIED', 'UNSPECIFIED', ('UNSPECIFIED'), ('UNSPECIFIED'), ('UNSPECIFIED') ) ;
#142 = CC_DESIGN_PERSON_AND_ORGANIZATION_ASSIGNMENT ( #146, #291, ( #107 ) ) ;
#143 = DIRECTION ( 'NONE',  ( -0.0000000000000000000, -0.0000000000000000000, 1.000000000000000000 ) ) ;
#144 = EDGE_LOOP ( 'NONE', ( #315 ) ) ;
#145 = AXIS2_PLACEMENT_3D ( 'NONE', #115, #160, #84 ) ;
#146 = PERSON_AND_ORGANIZATION ( #141, #119 ) ;
#147 = CYLINDRICAL_SURFACE ( 'NONE', #205, 1.011999999999999800 ) ;
#148 = CALENDAR_DATE ( 2017, 31, 7 ) ;
#149 = DATE_TIME_ROLE ( 'classification_date' ) ;
#150 = EDGE_LOOP ( 'NONE', ( #62 ) ) ;
#151 = CIRCLE ( 'NONE', #216, 1.011999999999999800 ) ;
#152 = APPROVAL_ROLE ( '' ) ;
#153 = EDGE_CURVE ( 'NONE', #320, #320, #151, .T. ) ;
#154 = ORIENTED_EDGE ( 'NONE', *, *, #43, .F. ) ;
#155 = APPROVAL_STATUS ( 'not_yet_approved' ) ;
#156 = LOCAL_TIME ( 14, 45, 28.00000000000000000, #27 ) ;
#157 = FACE_OUTER_BOUND ( 'NONE', #182, .T. ) ;
#158 = AXIS2_PLACEMENT_3D ( 'NONE', #169, #274, #111 ) ;
#159 = PLANE ( 'NONE',  #262 ) ;
#160 = DIRECTION ( 'NONE',  ( 0.0000000000000000000, 0.0000000000000000000, -1.000000000000000000 ) ) ;
#161 = COORDINATED_UNIVERSAL_TIME_OFFSET ( 5, 0, .BEHIND. ) ;
#162 = DIRECTION ( 'NONE',  ( -0.0000000000000000000, -0.0000000000000000000, 1.000000000000000000 ) ) ;
#163 = FACE_OUTER_BOUND ( 'NONE', #104, .T. ) ;
#164 = AXIS2_PLACEMENT_3D ( 'NONE', #214, #329, #188 ) ;
#165 = EDGE_CURVE ( 'NONE', #139, #139, #212, .T. ) ;
#166 = DATE_AND_TIME ( #231, #303 ) ;
#167 = VERTEX_POINT ( 'NONE', #267 ) ;
#168 = ADVANCED_FACE ( 'NONE', ( #42, #232 ), #243, .T. ) ;
#169 = CARTESIAN_POINT ( 'NONE',  ( 0.0000000000000000000, 0.0000000000000000000, 0.0000000000000000000 ) ) ;
#170 = DIRECTION ( 'NONE',  ( 1.000000000000000000, 0.0000000000000000000, 0.0000000000000000000 ) ) ;
#171 = ORIENTED_EDGE ( 'NONE', *, *, #207, .T. ) ;
#172 = AXIS2_PLACEMENT_3D ( 'NONE', #81, #53, #192 ) ;
#173 = DIRECTION ( 'NONE',  ( -0.0000000000000000000, -0.0000000000000000000, 1.000000000000000000 ) ) ;
#174 = PRODUCT ( '581207530', '581207530', '', ( #113 ) ) ;
#175 = ORIENTED_EDGE ( 'NONE', *, *, #165, .F. ) ;
#176 = VERTEX_POINT ( 'NONE', #78 ) ;
#177 = COORDINATED_UNIVERSAL_TIME_OFFSET ( 5, 0, .BEHIND. ) ;
#178 = CLOSED_SHELL ( 'NONE', ( #133, #323, #302, #82, #168, #14, #39, #189, #269, #218, #61, #247 ) ) ;
#179 = EDGE_CURVE ( 'NONE', #98, #98, #80, .T. ) ;
#180 = APPROVAL_STATUS ( 'not_yet_approved' ) ;
#181 =( NAMED_UNIT ( * ) SI_UNIT ( $, .STERADIAN. ) SOLID_ANGLE_UNIT ( ) );
#182 = EDGE_LOOP ( 'NONE', ( #20 ) ) ;
#183 = PLANE ( 'NONE',  #34 ) ;
#184 = FACE_OUTER_BOUND ( 'NONE', #234, .T. ) ;
#185 =( GEOMETRIC_REPRESENTATION_CONTEXT ( 3 ) GLOBAL_UNCERTAINTY_ASSIGNED_CONTEXT ( ( #252 ) ) GLOBAL_UNIT_ASSIGNED_CONTEXT ( ( #238, #6, #181 ) ) REPRESENTATION_CONTEXT ( 'NONE', 'WORKASPACE' ) );
#186 = CARTESIAN_POINT ( 'NONE',  ( 0.0000000000000000000, 0.0000000000000000000, -1.877260752773203700 ) ) ;
#187 = CC_DESIGN_APPROVAL ( #279, ( #30 ) ) ;
#188 = DIRECTION ( 'NONE',  ( 1.000000000000000000, 0.0000000000000000000, 0.0000000000000000000 ) ) ;
#189 = ADVANCED_FACE ( 'NONE', ( #157, #184 ), #49, .F. ) ;
#190 = AXIS2_PLACEMENT_3D ( 'NONE', #135, #299, #9 ) ;
#191 = DIMENSIONAL_EXPONENTS ( 1.000000000000000000, 0.0000000000000000000, 0.0000000000000000000, 0.0000000000000000000, 0.0000000000000000000, 0.0000000000000000000, 0.0000000000000000000 ) ;
#192 = DIRECTION ( 'NONE',  ( 1.000000000000000000, 0.0000000000000000000, 0.0000000000000000000 ) ) ;
#193 = APPROVAL_PERSON_ORGANIZATION ( #57, #233, #317 ) ;
#194 = FACE_BOUND ( 'NONE', #245, .T. ) ;
#195 = CARTESIAN_POINT ( 'NONE',  ( 0.0000000000000000000, 0.0000000000000000000, -2.244429642582420800 ) ) ;
#196 = CARTESIAN_POINT ( 'NONE',  ( 0.0000000000000000000, 0.0000000000000000000, -1.350000000000000100 ) ) ;
#197 = CARTESIAN_POINT ( 'NONE',  ( 0.0000000000000000000, 0.0000000000000000000, -1.120000000000000100 ) ) ;
#198 = DIRECTION ( 'NONE',  ( -0.0000000000000000000, -0.0000000000000000000, 1.000000000000000000 ) ) ;
#199 = DIRECTION ( 'NONE',  ( 0.0000000000000000000, 0.0000000000000000000, -1.000000000000000000 ) ) ;
#200 = EDGE_LOOP ( 'NONE', ( #298 ) ) ;
#201 = EDGE_CURVE ( 'NONE', #85, #85, #215, .T. ) ;
#202 = ORIENTED_EDGE ( 'NONE', *, *, #3, .F. ) ;
#203 = LENGTH_MEASURE_WITH_UNIT ( LENGTH_MEASURE( 0.02539999999999999900 ), #55 );
#204 = DATE_AND_TIME ( #102, #54 ) ;
#205 = AXIS2_PLACEMENT_3D ( 'NONE', #65, #16, #223 ) ;
#206 = FACE_OUTER_BOUND ( 'NONE', #200, .T. ) ;
#207 = EDGE_CURVE ( 'NONE', #221, #221, #280, .T. ) ;
#208 = EDGE_LOOP ( 'NONE', ( #154 ) ) ;
#209 = AXIS2_PLACEMENT_3D ( 'NONE', #130, #37, #275 ) ;
#210 = APPLICATION_PROTOCOL_DEFINITION ( 'international standard', 'config_control_design', 1994, #87 ) ;
#211 = PERSON_AND_ORGANIZATION ( #141, #119 ) ;
#212 = CIRCLE ( 'NONE', #306, 2.575000000000000600 ) ;
#213 = CARTESIAN_POINT ( 'NONE',  ( 1.108353524136672200, 0.0000000000000000000, -1.877260752773203700 ) ) ;
#214 = CARTESIAN_POINT ( 'NONE',  ( 0.0000000000000000000, 0.0000000000000000000, -1.250000000000000000 ) ) ;
#215 = CIRCLE ( 'NONE', #300, 1.240000000000000000 ) ;
#216 = AXIS2_PLACEMENT_3D ( 'NONE', #88, #116, #170 ) ;
#217 = EDGE_CURVE ( 'NONE', #69, #69, #114, .T. ) ;
#218 = ADVANCED_FACE ( 'NONE', ( #131, #311 ), #15, .F. ) ;
#219 = EDGE_LOOP ( 'NONE', ( #51 ) ) ;
#220 = DIRECTION ( 'NONE',  ( -0.0000000000000000000, -0.0000000000000000000, 1.000000000000000000 ) ) ;
#221 = VERTEX_POINT ( 'NONE', #56 ) ;
#222 = TOROIDAL_SURFACE ( 'NONE', #277, 2.445000000000000300, 0.1300000000000002300 ) ;
#223 = DIRECTION ( 'NONE',  ( 1.000000000000000000, 0.0000000000000000000, 0.0000000000000000000 ) ) ;
#224 = DIRECTION ( 'NONE',  ( -0.0000000000000000000, -0.0000000000000000000, 1.000000000000000000 ) ) ;
#225 = AXIS2_PLACEMENT_3D ( 'NONE', #186, #110, #8 ) ;
#226 = ORIENTED_EDGE ( 'NONE', *, *, #268, .F. ) ;
#227 = CARTESIAN_POINT ( 'NONE',  ( 0.0000000000000000000, 0.0000000000000000000, -2.370000000000000100 ) ) ;
#228 = CARTESIAN_POINT ( 'NONE',  ( 0.0000000000000000000, 0.0000000000000000000, 0.0000000000000000000 ) ) ;
#229 = DIRECTION ( 'NONE',  ( 0.0000000000000000000, 0.0000000000000000000, -1.000000000000000000 ) ) ;
#230 = EDGE_LOOP ( 'NONE', ( #250 ) ) ;
#231 = CALENDAR_DATE ( 2017, 31, 7 ) ;
#232 = FACE_OUTER_BOUND ( 'NONE', #283, .T. ) ;
#233 = APPROVAL ( #155, 'UNSPECIFIED' ) ;
#234 = EDGE_LOOP ( 'NONE', ( #325 ) ) ;
#235 = AXIS2_PLACEMENT_3D ( 'NONE', #197, #162, #129 ) ;
#236 = CC_DESIGN_APPROVAL ( #240, ( #25 ) ) ;
#237 = CYLINDRICAL_SURFACE ( 'NONE', #121, 3.149999999999999900 ) ;
#238 =( CONVERSION_BASED_UNIT ( 'INCH', #203 ) LENGTH_UNIT ( ) NAMED_UNIT ( #191 ) );
#239 = APPROVAL_DATE_TIME ( #296, #279 ) ;
#240 = APPROVAL ( #180, 'UNSPECIFIED' ) ;
#241 = CARTESIAN_POINT ( 'NONE',  ( 1.011999999999999800, 0.0000000000000000000, 0.0000000000000000000 ) ) ;
#242 = ORIENTED_EDGE ( 'NONE', *, *, #268, .T. ) ;
#243 = CONICAL_SURFACE ( 'NONE', #255, 3.149999999999999900, 0.7853981633974482800 ) ;
#244 = AXIS2_PLACEMENT_3D ( 'NONE', #295, #229, #278 ) ;
#245 = EDGE_LOOP ( 'NONE', ( #263 ) ) ;
#246 = CIRCLE ( 'NONE', #225, 1.108353524136672200 ) ;
#247 = ADVANCED_FACE ( 'NONE', ( #76, #64 ), #147, .F. ) ;
#248 = CC_DESIGN_DATE_AND_TIME_ASSIGNMENT ( #166, #12, ( #107 ) ) ;
#249 = PERSON_AND_ORGANIZATION_ROLE ( 'design_supplier' ) ;
#250 = ORIENTED_EDGE ( 'NONE', *, *, #201, .T. ) ;
#251 = PRODUCT_DEFINITION_SHAPE ( 'NONE', 'NONE',  #107 ) ;
#252 = UNCERTAINTY_MEASURE_WITH_UNIT (LENGTH_MEASURE( 1.000000000000000100E-005 ), #238, 'distance_accuracy_value', 'NONE');
#253 = CIRCLE ( 'NONE', #158, 1.240000000000000000 ) ;
#254 = CARTESIAN_POINT ( 'NONE',  ( 0.0000000000000000000, 3.149999999999999900, -3.000000000000000400 ) ) ;
#255 = AXIS2_PLACEMENT_3D ( 'NONE', #196, #41, #101 ) ;
#256 = DIRECTION ( 'NONE',  ( -0.0000000000000000000, -0.0000000000000000000, 1.000000000000000000 ) ) ;
#257 = EDGE_LOOP ( 'NONE', ( #226 ) ) ;
#258 = LOCAL_TIME ( 14, 45, 28.00000000000000000, #161 ) ;
#259 = EDGE_LOOP ( 'NONE', ( #97 ) ) ;
#260 = PERSON_AND_ORGANIZATION ( #141, #119 ) ;
#261 = CC_DESIGN_PERSON_AND_ORGANIZATION_ASSIGNMENT ( #40, #249, ( #25 ) ) ;
#262 = AXIS2_PLACEMENT_3D ( 'NONE', #19, #199, #108 ) ;
#263 = ORIENTED_EDGE ( 'NONE', *, *, #60, .T. ) ;
#264 = CARTESIAN_POINT ( 'NONE',  ( 2.575000000000000600, 0.0000000000000000000, -2.370000000000000100 ) ) ;
#265 = VERTEX_POINT ( 'NONE', #213 ) ;
#266 = FACE_OUTER_BOUND ( 'NONE', #259, .T. ) ;
#267 = CARTESIAN_POINT ( 'NONE',  ( 2.575000000000000200, 0.0000000000000000000, -3.000000000000000400 ) ) ;
#268 = EDGE_CURVE ( 'NONE', #128, #128, #253, .T. ) ;
#269 = ADVANCED_FACE ( 'NONE', ( #294, #206 ), #222, .F. ) ;
#270 = DIRECTION ( 'NONE',  ( 1.000000000000000000, 0.0000000000000000000, 0.0000000000000000000 ) ) ;
#271 = EDGE_LOOP ( 'NONE', ( #13 ) ) ;
#272 = COORDINATED_UNIVERSAL_TIME_OFFSET ( 5, 0, .BEHIND. ) ;
#273 = FACE_OUTER_BOUND ( 'NONE', #122, .T. ) ;
#274 = DIRECTION ( 'NONE',  ( -0.0000000000000000000, -0.0000000000000000000, 1.000000000000000000 ) ) ;
#275 = DIRECTION ( 'NONE',  ( 1.000000000000000000, 0.0000000000000000000, 0.0000000000000000000 ) ) ;
#276 = APPROVAL_DATE_TIME ( #109, #240 ) ;
#277 = AXIS2_PLACEMENT_3D ( 'NONE', #227, #224, #308 ) ;
#278 = DIRECTION ( 'NONE',  ( -1.000000000000000000, 0.0000000000000000000, 0.0000000000000000000 ) ) ;
#279 = APPROVAL ( #50, 'UNSPECIFIED' ) ;
#280 = CIRCLE ( 'NONE', #286, 1.012000000000000000 ) ;
#281 = DIRECTION ( 'NONE',  ( -0.0000000000000000000, -0.0000000000000000000, 1.000000000000000000 ) ) ;
#282 = EDGE_CURVE ( 'NONE', #265, #265, #246, .T. ) ;
#283 = EDGE_LOOP ( 'NONE', ( #292 ) ) ;
#284 = CALENDAR_DATE ( 2017, 31, 7 ) ;
#285 = VERTEX_POINT ( 'NONE', #22 ) ;
#286 = AXIS2_PLACEMENT_3D ( 'NONE', #7, #256, #93 ) ;
#287 = APPROVAL_PERSON_ORGANIZATION ( #318, #279, #152 ) ;
#288 = PERSON_AND_ORGANIZATION_ROLE ( 'classification_officer' ) ;
#289 = VERTEX_POINT ( 'NONE', #59 ) ;
#290 = PRODUCT_RELATED_PRODUCT_CATEGORY ( 'detail', '', ( #174 ) ) ;
#291 = PERSON_AND_ORGANIZATION_ROLE ( 'creator' ) ;
#292 = ORIENTED_EDGE ( 'NONE', *, *, #179, .T. ) ;
#293 = DATE_AND_TIME ( #284, #156 ) ;
#294 = FACE_OUTER_BOUND ( 'NONE', #83, .T. ) ;
#295 = CARTESIAN_POINT ( 'NONE',  ( 0.0000000000000000000, 0.0000000000000000000, -1.877260752773203700 ) ) ;
#296 = DATE_AND_TIME ( #96, #307 ) ;
#297 = DIRECTION ( 'NONE',  ( 1.000000000000000000, 0.0000000000000000000, 0.0000000000000000000 ) ) ;
#298 = ORIENTED_EDGE ( 'NONE', *, *, #43, .T. ) ;
#299 = DIRECTION ( 'NONE',  ( -0.0000000000000000000, -0.0000000000000000000, 1.000000000000000000 ) ) ;
#300 = AXIS2_PLACEMENT_3D ( 'NONE', #77, #105, #270 ) ;
#301 = ORIENTED_EDGE ( 'NONE', *, *, #217, .T. ) ;
#302 = ADVANCED_FACE ( 'NONE', ( #266, #163 ), #332, .F. ) ;
#303 = LOCAL_TIME ( 14, 45, 28.00000000000000000, #272 ) ;
#304 = FACE_OUTER_BOUND ( 'NONE', #118, .T. ) ;
#305 = DIRECTION ( 'NONE',  ( 0.0000000000000000000, -0.0000000000000000000, 1.000000000000000000 ) ) ;
#306 = AXIS2_PLACEMENT_3D ( 'NONE', #132, #143, #100 ) ;
#307 = LOCAL_TIME ( 14, 45, 28.00000000000000000, #71 ) ;
#308 = DIRECTION ( 'NONE',  ( 1.000000000000000000, 0.0000000000000000000, 0.0000000000000000000 ) ) ;
#309 = APPLICATION_CONTEXT ( 'configuration controlled 3d designs of mechanical parts and assemblies' ) ;
#310 = CARTESIAN_POINT ( 'NONE',  ( 0.0000000000000000000, 0.0000000000000000000, -1.350000000000000100 ) ) ;
#311 = FACE_BOUND ( 'NONE', #126, .T. ) ;
#312 = FACE_OUTER_BOUND ( 'NONE', #257, .T. ) ;
#313 = PERSON_AND_ORGANIZATION ( #141, #119 ) ;
#314 = AXIS2_PLACEMENT_3D ( 'NONE', #310, #281, #66 ) ;
#315 = ORIENTED_EDGE ( 'NONE', *, *, #153, .F. ) ;
#316 = CARTESIAN_POINT ( 'NONE',  ( 0.0000000000000000000, 0.0000000000000000000, -1.751690395355625100 ) ) ;
#317 = APPROVAL_ROLE ( '' ) ;
#318 = PERSON_AND_ORGANIZATION ( #141, #119 ) ;
#319 = ORIENTED_EDGE ( 'NONE', *, *, #72, .T. ) ;
#320 = VERTEX_POINT ( 'NONE', #241 ) ;
#321 = AXIS2_PLACEMENT_3D ( 'NONE', #328, #21, #18 ) ;
#322 = CIRCLE ( 'NONE', #91, 3.049999999999999800 ) ;
#323 = ADVANCED_FACE ( 'NONE', ( #312, #120 ), #58, .T. ) ;
#324 = PERSON_AND_ORGANIZATION ( #141, #119 ) ;
#325 = ORIENTED_EDGE ( 'NONE', *, *, #165, .T. ) ;
#326 = SHAPE_DEFINITION_REPRESENTATION ( #251, #46 ) ;
#327 = DIRECTION ( 'NONE',  ( 1.000000000000000000, 0.0000000000000000000, 0.0000000000000000000 ) ) ;
#328 = CARTESIAN_POINT ( 'NONE',  ( 0.0000000000000000000, 0.0000000000000000000, -3.000000000000000400 ) ) ;
#329 = DIRECTION ( 'NONE',  ( -0.0000000000000000000, -0.0000000000000000000, 1.000000000000000000 ) ) ;
#330 = CC_DESIGN_PERSON_AND_ORGANIZATION_ASSIGNMENT ( #324, #288, ( #30 ) ) ;
#331 = EDGE_LOOP ( 'NONE', ( #202 ) ) ;
#332 = TOROIDAL_SURFACE ( 'NONE', #235, 1.369999999999999900, 0.1299999999999999800 ) ;
ENDSEC;
END-ISO-10303-21;
