ISO-10303-21;
HEADER;
FILE_DESCRIPTION (( 'STEP AP203' ),
    '1' );
FILE_NAME ('581207581.STEP',
    '2017-07-31T19:01:19',
    ( '' ),
    ( '' ),
    'SwSTEP 2.0',
    'SolidWorks 2017',
    '' );
FILE_SCHEMA (( 'CONFIG_CONTROL_DESIGN' ));
ENDSEC;

DATA;
#1 = CARTESIAN_POINT ( 'NONE',  ( 0.0000000000000000000, 0.0000000000000000000, 0.0000000000000000000 ) ) ;
#2 = PERSON_AND_ORGANIZATION ( #111, #277 ) ;
#3 = EDGE_CURVE ( 'NONE', #247, #247, #45, .T. ) ;
#4 = EDGE_LOOP ( 'NONE', ( #29 ) ) ;
#5 = DIRECTION ( 'NONE',  ( -0.0000000000000000000, -0.0000000000000000000, 1.000000000000000000 ) ) ;
#6 = CARTESIAN_POINT ( 'NONE',  ( 0.0000000000000000000, 0.0000000000000000000, -1.350000000000000100 ) ) ;
#7 = CARTESIAN_POINT ( 'NONE',  ( -1.240000000000000000, 0.0000000000000000000, -1.120000000000000100 ) ) ;
#8 = CARTESIAN_POINT ( 'NONE',  ( 1.108353524136672000, 0.0000000000000000000, -1.834969422039991700 ) ) ;
#9 = FACE_BOUND ( 'NONE', #114, .T. ) ;
#10 = EDGE_LOOP ( 'NONE', ( #252 ) ) ;
#11 = APPROVAL_ROLE ( '' ) ;
#12 = CARTESIAN_POINT ( 'NONE',  ( 0.0000000000000000000, 0.0000000000000000000, -1.709399064622412200 ) ) ;
#13 = VERTEX_POINT ( 'NONE', #266 ) ;
#14 = APPROVAL_PERSON_ORGANIZATION ( #272, #327, #11 ) ;
#15 = CARTESIAN_POINT ( 'NONE',  ( 0.0000000000000000000, 0.0000000000000000000, 0.0000000000000000000 ) ) ;
#16 = AXIS2_PLACEMENT_3D ( 'NONE', #38, #159, #293 ) ;
#17 = ORIENTED_EDGE ( 'NONE', *, *, #73, .F. ) ;
#18 = CALENDAR_DATE ( 2017, 31, 7 ) ;
#19 = CIRCLE ( 'NONE', #271, 3.935000000000000100 ) ;
#20 =( GEOMETRIC_REPRESENTATION_CONTEXT ( 3 ) GLOBAL_UNCERTAINTY_ASSIGNED_CONTEXT ( ( #226 ) ) GLOBAL_UNIT_ASSIGNED_CONTEXT ( ( #165, #240, #89 ) ) REPRESENTATION_CONTEXT ( 'NONE', 'WORKASPACE' ) );
#21 = VERTEX_POINT ( 'NONE', #141 ) ;
#22 = FACE_OUTER_BOUND ( 'NONE', #197, .T. ) ;
#23 = ORIENTED_EDGE ( 'NONE', *, *, #149, .F. ) ;
#24 = CC_DESIGN_PERSON_AND_ORGANIZATION_ASSIGNMENT ( #117, #321, ( #310 ) ) ;
#25 = DIRECTION ( 'NONE',  ( 0.0000000000000000000, 0.0000000000000000000, -1.000000000000000000 ) ) ;
#26 = CARTESIAN_POINT ( 'NONE',  ( 0.0000000000000000000, 0.0000000000000000000, -1.250000000000000000 ) ) ;
#27 = CC_DESIGN_APPROVAL ( #279, ( #224 ) ) ;
#28 = CIRCLE ( 'NONE', #102, 1.240000000000000000 ) ;
#29 = ORIENTED_EDGE ( 'NONE', *, *, #44, .T. ) ;
#30 = DIRECTION ( 'NONE',  ( 1.000000000000000000, 0.0000000000000000000, 0.0000000000000000000 ) ) ;
#31 = DIRECTION ( 'NONE',  ( 1.000000000000000000, 0.0000000000000000000, 0.0000000000000000000 ) ) ;
#32 = FACE_OUTER_BOUND ( 'NONE', #248, .T. ) ;
#33 = ORIENTED_EDGE ( 'NONE', *, *, #73, .T. ) ;
#34 = CARTESIAN_POINT ( 'NONE',  ( 3.935000000000000100, 0.0000000000000000000, -3.000000000000000400 ) ) ;
#35 = DIRECTION ( 'NONE',  ( -1.000000000000000000, 0.0000000000000000000, -0.0000000000000000000 ) ) ;
#36 = PERSON_AND_ORGANIZATION_ROLE ( 'design_supplier' ) ;
#37 = VERTEX_POINT ( 'NONE', #191 ) ;
#38 = CARTESIAN_POINT ( 'NONE',  ( 0.0000000000000000000, 0.0000000000000000000, -1.834969422039991700 ) ) ;
#39 = AXIS2_PLACEMENT_3D ( 'NONE', #83, #25, #35 ) ;
#40 = PERSON_AND_ORGANIZATION ( #111, #277 ) ;
#41 = FACE_BOUND ( 'NONE', #231, .T. ) ;
#42 = EDGE_LOOP ( 'NONE', ( #101 ) ) ;
#43 = PRODUCT_DEFINITION_FORMATION_WITH_SPECIFIED_SOURCE ( 'ANY', '', #108, .NOT_KNOWN. ) ;
#44 = EDGE_CURVE ( 'NONE', #303, #303, #322, .T. ) ;
#45 = CIRCLE ( 'NONE', #119, 3.935000000000000100 ) ;
#46 = LENGTH_MEASURE_WITH_UNIT ( LENGTH_MEASURE( 0.02539999999999999900 ), #61 );
#47 = ADVANCED_FACE ( 'NONE', ( #301, #65 ), #249, .T. ) ;
#48 = CYLINDRICAL_SURFACE ( 'NONE', #98, 3.935000000000000100 ) ;
#49 = EDGE_LOOP ( 'NONE', ( #33 ) ) ;
#50 = ADVANCED_FACE ( 'NONE', ( #32, #225 ), #256, .F. ) ;
#51 = DIRECTION ( 'NONE',  ( -0.0000000000000000000, -0.0000000000000000000, 1.000000000000000000 ) ) ;
#52 = ORIENTED_EDGE ( 'NONE', *, *, #282, .F. ) ;
#53 = DIRECTION ( 'NONE',  ( 1.000000000000000000, 0.0000000000000000000, 0.0000000000000000000 ) ) ;
#54 = CALENDAR_DATE ( 2017, 31, 7 ) ;
#55 = DIRECTION ( 'NONE',  ( 1.000000000000000000, 0.0000000000000000000, 0.0000000000000000000 ) ) ;
#56 = AXIS2_PLACEMENT_3D ( 'NONE', #120, #265, #294 ) ;
#57 = COORDINATED_UNIVERSAL_TIME_OFFSET ( 5, 0, .BEHIND. ) ;
#58 = CARTESIAN_POINT ( 'NONE',  ( 0.0000000000000000000, 0.0000000000000000000, -3.000000000000000400 ) ) ;
#59 = DIRECTION ( 'NONE',  ( 0.0000000000000000000, 0.0000000000000000000, -1.000000000000000000 ) ) ;
#60 = APPROVAL ( #217, 'UNSPECIFIED' ) ;
#61 =( LENGTH_UNIT ( ) NAMED_UNIT ( * ) SI_UNIT ( $, .METRE. ) );
#62 = APPLICATION_PROTOCOL_DEFINITION ( 'international standard', 'config_control_design', 1994, #242 ) ;
#63 = DIRECTION ( 'NONE',  ( 0.0000000000000000000, 0.0000000000000000000, -1.000000000000000000 ) ) ;
#64 = CC_DESIGN_APPROVAL ( #327, ( #43 ) ) ;
#65 = FACE_OUTER_BOUND ( 'NONE', #4, .T. ) ;
#66 = AXIS2_PLACEMENT_3D ( 'NONE', #187, #59, #290 ) ;
#67 = ORIENTED_EDGE ( 'NONE', *, *, #179, .T. ) ;
#68 = PERSON_AND_ORGANIZATION_ROLE ( 'classification_officer' ) ;
#69 = DIRECTION ( 'NONE',  ( -1.000000000000000000, 0.0000000000000000000, 0.0000000000000000000 ) ) ;
#70 = DIRECTION ( 'NONE',  ( -0.0000000000000000000, -0.0000000000000000000, 1.000000000000000000 ) ) ;
#71 = COORDINATED_UNIVERSAL_TIME_OFFSET ( 5, 0, .BEHIND. ) ;
#72 = FACE_BOUND ( 'NONE', #268, .T. ) ;
#73 = EDGE_CURVE ( 'NONE', #112, #112, #28, .T. ) ;
#74 = ADVANCED_BREP_SHAPE_REPRESENTATION ( '581207581', ( #146, #237 ), #20 ) ;
#75 = FACE_OUTER_BOUND ( 'NONE', #184, .T. ) ;
#76 = PRODUCT_DEFINITION_SHAPE ( 'NONE', 'NONE',  #310 ) ;
#77 = LOCAL_TIME ( 15, 1, 19.00000000000000000, #71 ) ;
#78 = AXIS2_PLACEMENT_3D ( 'NONE', #132, #257, #312 ) ;
#79 = ADVANCED_FACE ( 'NONE', ( #190, #91 ), #81, .F. ) ;
#80 = CC_DESIGN_PERSON_AND_ORGANIZATION_ASSIGNMENT ( #286, #196, ( #43 ) ) ;
#81 = CONICAL_SURFACE ( 'NONE', #288, 1.108353524136672000, 1.308996938995747000 ) ;
#82 = ORIENTED_EDGE ( 'NONE', *, *, #130, .T. ) ;
#83 = CARTESIAN_POINT ( 'NONE',  ( 0.0000000000000000000, 1.240000000000000000, -1.250000000000000000 ) ) ;
#84 = DATE_AND_TIME ( #324, #213 ) ;
#85 = CARTESIAN_POINT ( 'NONE',  ( 0.0000000000000000000, 0.0000000000000000000, -3.000000000000000400 ) ) ;
#86 = PLANE ( 'NONE',  #323 ) ;
#87 = DIRECTION ( 'NONE',  ( 0.0000000000000000000, 0.0000000000000000000, -1.000000000000000000 ) ) ;
#88 = DIRECTION ( 'NONE',  ( -0.0000000000000000000, -0.0000000000000000000, 1.000000000000000000 ) ) ;
#89 =( NAMED_UNIT ( * ) SI_UNIT ( $, .STERADIAN. ) SOLID_ANGLE_UNIT ( ) );
#90 = DIRECTION ( 'NONE',  ( 0.0000000000000000000, 0.0000000000000000000, -1.000000000000000000 ) ) ;
#91 = FACE_BOUND ( 'NONE', #284, .T. ) ;
#92 = EDGE_CURVE ( 'NONE', #37, #37, #154, .T. ) ;
#93 = MECHANICAL_CONTEXT ( 'NONE', #244, 'mechanical' ) ;
#94 = CARTESIAN_POINT ( 'NONE',  ( 0.0000000000000000000, 0.0000000000000000000, -1.120000000000000100 ) ) ;
#95 = EDGE_LOOP ( 'NONE', ( #52 ) ) ;
#96 = DIRECTION ( 'NONE',  ( 1.000000000000000000, 0.0000000000000000000, 0.0000000000000000000 ) ) ;
#97 = APPROVAL_STATUS ( 'not_yet_approved' ) ;
#98 = AXIS2_PLACEMENT_3D ( 'NONE', #1, #311, #181 ) ;
#99 = PERSON_AND_ORGANIZATION ( #111, #277 ) ;
#100 = FACE_OUTER_BOUND ( 'NONE', #200, .T. ) ;
#101 = ORIENTED_EDGE ( 'NONE', *, *, #160, .T. ) ;
#102 = AXIS2_PLACEMENT_3D ( 'NONE', #94, #88, #69 ) ;
#103 = ORIENTED_EDGE ( 'NONE', *, *, #109, .F. ) ;
#104 = ADVANCED_FACE ( 'NONE', ( #129, #199 ), #150, .F. ) ;
#105 = COORDINATED_UNIVERSAL_TIME_OFFSET ( 5, 0, .BEHIND. ) ;
#106 = DATE_AND_TIME ( #18, #173 ) ;
#107 = CONICAL_SURFACE ( 'NONE', #304, 3.835000000000000400, 0.7853981633974456100 ) ;
#108 = PRODUCT ( '581207581', '581207581', '', ( #93 ) ) ;
#109 = EDGE_CURVE ( 'NONE', #128, #128, #260, .T. ) ;
#110 = PLANE ( 'NONE',  #39 ) ;
#111 = PERSON ( 'UNSPECIFIED', 'UNSPECIFIED', 'UNSPECIFIED', ('UNSPECIFIED'), ('UNSPECIFIED'), ('UNSPECIFIED') ) ;
#112 = VERTEX_POINT ( 'NONE', #7 ) ;
#113 = DIRECTION ( 'NONE',  ( -0.0000000000000000000, -0.0000000000000000000, 1.000000000000000000 ) ) ;
#114 = EDGE_LOOP ( 'NONE', ( #82 ) ) ;
#115 = CARTESIAN_POINT ( 'NONE',  ( 0.0000000000000000000, 3.935000000000000100, -3.000000000000000400 ) ) ;
#116 = AXIS2_PLACEMENT_3D ( 'NONE', #12, #192, #142 ) ;
#117 = PERSON_AND_ORGANIZATION ( #111, #277 ) ;
#118 = APPROVAL_PERSON_ORGANIZATION ( #330, #279, #269 ) ;
#119 = AXIS2_PLACEMENT_3D ( 'NONE', #6, #90, #263 ) ;
#120 = CARTESIAN_POINT ( 'NONE',  ( 0.0000000000000000000, 0.0000000000000000000, -1.709399064622412200 ) ) ;
#121 = FACE_BOUND ( 'NONE', #313, .T. ) ;
#122 = DIRECTION ( 'NONE',  ( 0.0000000000000000000, 0.0000000000000000000, 1.000000000000000000 ) ) ;
#123 = CARTESIAN_POINT ( 'NONE',  ( -1.369999999999999900, 0.0000000000000000000, -1.250000000000000000 ) ) ;
#124 = DESIGN_CONTEXT ( 'detailed design', #242, 'design' ) ;
#125 = ORIENTED_EDGE ( 'NONE', *, *, #92, .F. ) ;
#126 = PERSON_AND_ORGANIZATION ( #111, #277 ) ;
#127 = ORIENTED_EDGE ( 'NONE', *, *, #149, .T. ) ;
#128 = VERTEX_POINT ( 'NONE', #8 ) ;
#129 = FACE_OUTER_BOUND ( 'NONE', #10, .T. ) ;
#130 = EDGE_CURVE ( 'NONE', #307, #307, #156, .T. ) ;
#131 = ORIENTED_EDGE ( 'NONE', *, *, #3, .F. ) ;
#132 = CARTESIAN_POINT ( 'NONE',  ( 0.0000000000000000000, 0.0000000000000000000, 0.0000000000000000000 ) ) ;
#133 = AXIS2_PLACEMENT_3D ( 'NONE', #232, #51, #209 ) ;
#134 = VERTEX_POINT ( 'NONE', #194 ) ;
#135 = DIRECTION ( 'NONE',  ( -0.0000000000000000000, -0.0000000000000000000, 1.000000000000000000 ) ) ;
#136 = CC_DESIGN_SECURITY_CLASSIFICATION ( #224, ( #43 ) ) ;
#137 = DIRECTION ( 'NONE',  ( 0.0000000000000000000, -0.0000000000000000000, 1.000000000000000000 ) ) ;
#138 = CARTESIAN_POINT ( 'NONE',  ( 0.0000000000000000000, 0.0000000000000000000, -2.500000000000000000 ) ) ;
#139 = EDGE_LOOP ( 'NONE', ( #261 ) ) ;
#140 = DIRECTION ( 'NONE',  ( 0.0000000000000000000, 0.0000000000000000000, -1.000000000000000000 ) ) ;
#141 = CARTESIAN_POINT ( 'NONE',  ( 3.121646475863327600, 0.0000000000000000000, -2.374429642582421200 ) ) ;
#142 = DIRECTION ( 'NONE',  ( 1.000000000000000000, 0.0000000000000000000, 0.0000000000000000000 ) ) ;
#143 = CARTESIAN_POINT ( 'NONE',  ( -3.835000000000000400, 0.0000000000000000000, -1.250000000000000000 ) ) ;
#144 = DIRECTION ( 'NONE',  ( -0.0000000000000000000, -0.0000000000000000000, 1.000000000000000000 ) ) ;
#145 = APPROVAL_ROLE ( '' ) ;
#146 = MANIFOLD_SOLID_BREP ( 'Fillet1', #302 ) ;
#147 = CALENDAR_DATE ( 2017, 31, 7 ) ;
#148 = AXIS2_PLACEMENT_3D ( 'NONE', #314, #135, #287 ) ;
#149 = EDGE_CURVE ( 'NONE', #292, #292, #309, .T. ) ;
#150 = CYLINDRICAL_SURFACE ( 'NONE', #216, 1.011999999999999800 ) ;
#151 = EDGE_LOOP ( 'NONE', ( #17 ) ) ;
#152 = AXIS2_PLACEMENT_3D ( 'NONE', #157, #113, #212 ) ;
#153 = DATE_AND_TIME ( #186, #300 ) ;
#154 = CIRCLE ( 'NONE', #183, 1.011999999999999800 ) ;
#155 = ORIENTED_EDGE ( 'NONE', *, *, #130, .F. ) ;
#156 = CIRCLE ( 'NONE', #332, 1.369999999999999900 ) ;
#157 = CARTESIAN_POINT ( 'NONE',  ( 0.0000000000000000000, 0.0000000000000000000, -2.500000000000000000 ) ) ;
#158 = DIRECTION ( 'NONE',  ( -1.000000000000000000, 0.0000000000000000000, 0.0000000000000000000 ) ) ;
#159 = DIRECTION ( 'NONE',  ( -0.0000000000000000000, -0.0000000000000000000, 1.000000000000000000 ) ) ;
#160 = EDGE_CURVE ( 'NONE', #172, #172, #174, .T. ) ;
#161 = CARTESIAN_POINT ( 'NONE',  ( -3.935000000000000100, 0.0000000000000000000, -1.350000000000000100 ) ) ;
#162 = FACE_OUTER_BOUND ( 'NONE', #175, .T. ) ;
#163 = CARTESIAN_POINT ( 'NONE',  ( 0.0000000000000000000, 0.0000000000000000000, -1.120000000000000100 ) ) ;
#164 = EDGE_LOOP ( 'NONE', ( #127 ) ) ;
#165 =( CONVERSION_BASED_UNIT ( 'INCH', #46 ) LENGTH_UNIT ( ) NAMED_UNIT ( #207 ) );
#166 = CARTESIAN_POINT ( 'NONE',  ( 0.0000000000000000000, 0.0000000000000000000, 0.0000000000000000000 ) ) ;
#167 = APPROVAL_STATUS ( 'not_yet_approved' ) ;
#168 = AXIS2_PLACEMENT_3D ( 'NONE', #163, #140, #193 ) ;
#169 = DIRECTION ( 'NONE',  ( -1.000000000000000000, 0.0000000000000000000, 0.0000000000000000000 ) ) ;
#170 = CYLINDRICAL_SURFACE ( 'NONE', #78, 1.240000000000000000 ) ;
#171 = EDGE_LOOP ( 'NONE', ( #251 ) ) ;
#172 = VERTEX_POINT ( 'NONE', #320 ) ;
#173 = LOCAL_TIME ( 15, 1, 19.00000000000000000, #57 ) ;
#174 = CIRCLE ( 'NONE', #223, 3.218000000000000000 ) ;
#175 = EDGE_LOOP ( 'NONE', ( #305 ) ) ;
#176 = VERTEX_POINT ( 'NONE', #34 ) ;
#177 = APPROVAL_DATE_TIME ( #106, #279 ) ;
#178 = CYLINDRICAL_SURFACE ( 'NONE', #264, 3.218000000000000000 ) ;
#179 = EDGE_CURVE ( 'NONE', #13, #13, #218, .T. ) ;
#180 = ORIENTED_EDGE ( 'NONE', *, *, #160, .F. ) ;
#181 = DIRECTION ( 'NONE',  ( 1.000000000000000000, 0.0000000000000000000, 0.0000000000000000000 ) ) ;
#182 = DIRECTION ( 'NONE',  ( 0.0000000000000000000, 0.0000000000000000000, -1.000000000000000000 ) ) ;
#183 = AXIS2_PLACEMENT_3D ( 'NONE', #166, #144, #243 ) ;
#184 = EDGE_LOOP ( 'NONE', ( #234 ) ) ;
#185 = APPROVAL_DATE_TIME ( #203, #60 ) ;
#186 = CALENDAR_DATE ( 2017, 31, 7 ) ;
#187 = CARTESIAN_POINT ( 'NONE',  ( 0.0000000000000000000, 1.011999999999999800, 0.0000000000000000000 ) ) ;
#188 = CC_DESIGN_PERSON_AND_ORGANIZATION_ASSIGNMENT ( #40, #298, ( #108 ) ) ;
#189 = CARTESIAN_POINT ( 'NONE',  ( 0.0000000000000000000, 0.0000000000000000000, -1.250000000000000000 ) ) ;
#190 = FACE_OUTER_BOUND ( 'NONE', #95, .T. ) ;
#191 = CARTESIAN_POINT ( 'NONE',  ( 1.011999999999999800, 0.0000000000000000000, 0.0000000000000000000 ) ) ;
#192 = DIRECTION ( 'NONE',  ( -0.0000000000000000000, -0.0000000000000000000, 1.000000000000000000 ) ) ;
#193 = DIRECTION ( 'NONE',  ( -1.000000000000000000, 0.0000000000000000000, 0.0000000000000000000 ) ) ;
#194 = CARTESIAN_POINT ( 'NONE',  ( 1.240000000000000000, 0.0000000000000000000, 0.0000000000000000000 ) ) ;
#195 = CIRCLE ( 'NONE', #148, 1.240000000000000000 ) ;
#196 = PERSON_AND_ORGANIZATION_ROLE ( 'creator' ) ;
#197 = EDGE_LOOP ( 'NONE', ( #326 ) ) ;
#198 = DATE_AND_TIME ( #147, #77 ) ;
#199 = FACE_OUTER_BOUND ( 'NONE', #139, .T. ) ;
#200 = EDGE_LOOP ( 'NONE', ( #219 ) ) ;
#201 = AXIS2_PLACEMENT_3D ( 'NONE', #58, #215, #30 ) ;
#202 = SHAPE_DEFINITION_REPRESENTATION ( #76, #74 ) ;
#203 = DATE_AND_TIME ( #54, #253 ) ;
#204 = CC_DESIGN_PERSON_AND_ORGANIZATION_ASSIGNMENT ( #126, #36, ( #43 ) ) ;
#205 = ADVANCED_FACE ( 'NONE', ( #295, #239 ), #178, .F. ) ;
#206 = ORIENTED_EDGE ( 'NONE', *, *, #109, .T. ) ;
#207 = DIMENSIONAL_EXPONENTS ( 1.000000000000000000, 0.0000000000000000000, 0.0000000000000000000, 0.0000000000000000000, 0.0000000000000000000, 0.0000000000000000000, 0.0000000000000000000 ) ;
#208 = EDGE_LOOP ( 'NONE', ( #297 ) ) ;
#209 = DIRECTION ( 'NONE',  ( 1.000000000000000000, 0.0000000000000000000, 0.0000000000000000000 ) ) ;
#210 = ADVANCED_FACE ( 'NONE', ( #72, #100 ), #315, .F. ) ;
#211 = COORDINATED_UNIVERSAL_TIME_OFFSET ( 5, 0, .BEHIND. ) ;
#212 = DIRECTION ( 'NONE',  ( 1.000000000000000000, 0.0000000000000000000, 0.0000000000000000000 ) ) ;
#213 = LOCAL_TIME ( 15, 1, 19.00000000000000000, #278 ) ;
#214 = DIRECTION ( 'NONE',  ( -1.000000000000000000, 0.0000000000000000000, 0.0000000000000000000 ) ) ;
#215 = DIRECTION ( 'NONE',  ( -0.0000000000000000000, -0.0000000000000000000, 1.000000000000000000 ) ) ;
#216 = AXIS2_PLACEMENT_3D ( 'NONE', #15, #70, #273 ) ;
#217 = APPROVAL_STATUS ( 'not_yet_approved' ) ;
#218 = CIRCLE ( 'NONE', #201, 3.218000000000000000 ) ;
#219 = ORIENTED_EDGE ( 'NONE', *, *, #229, .T. ) ;
#220 = APPLICATION_PROTOCOL_DEFINITION ( 'international standard', 'config_control_design', 1994, #244 ) ;
#221 = CARTESIAN_POINT ( 'NONE',  ( 0.0000000000000000000, 0.0000000000000000000, -1.834969422039991700 ) ) ;
#222 = SECURITY_CLASSIFICATION_LEVEL ( 'unclassified' ) ;
#223 = AXIS2_PLACEMENT_3D ( 'NONE', #138, #291, #259 ) ;
#224 = SECURITY_CLASSIFICATION ( '', '', #222 ) ;
#225 = FACE_OUTER_BOUND ( 'NONE', #151, .T. ) ;
#226 = UNCERTAINTY_MEASURE_WITH_UNIT (LENGTH_MEASURE( 1.000000000000000100E-005 ), #165, 'distance_accuracy_value', 'NONE');
#227 = AXIS2_PLACEMENT_3D ( 'NONE', #189, #5, #158 ) ;
#228 = ADVANCED_FACE ( 'NONE', ( #22, #41 ), #86, .F. ) ;
#229 = EDGE_CURVE ( 'NONE', #134, #134, #195, .T. ) ;
#230 = FACE_OUTER_BOUND ( 'NONE', #319, .T. ) ;
#231 = EDGE_LOOP ( 'NONE', ( #67 ) ) ;
#232 = CARTESIAN_POINT ( 'NONE',  ( 0.0000000000000000000, 0.0000000000000000000, -2.374429642582421200 ) ) ;
#233 = DIRECTION ( 'NONE',  ( -0.0000000000000000000, -0.0000000000000000000, 1.000000000000000000 ) ) ;
#234 = ORIENTED_EDGE ( 'NONE', *, *, #250, .T. ) ;
#235 = CC_DESIGN_PERSON_AND_ORGANIZATION_ASSIGNMENT ( #2, #68, ( #224 ) ) ;
#236 = DIRECTION ( 'NONE',  ( -0.0000000000000000000, -0.0000000000000000000, 1.000000000000000000 ) ) ;
#237 = AXIS2_PLACEMENT_3D ( 'NONE', #267, #122, #96 ) ;
#238 = DIRECTION ( 'NONE',  ( -1.000000000000000000, 0.0000000000000000000, 0.0000000000000000000 ) ) ;
#239 = FACE_OUTER_BOUND ( 'NONE', #42, .T. ) ;
#240 =( NAMED_UNIT ( * ) PLANE_ANGLE_UNIT ( ) SI_UNIT ( $, .RADIAN. ) );
#241 = ORIENTED_EDGE ( 'NONE', *, *, #179, .F. ) ;
#242 = APPLICATION_CONTEXT ( 'configuration controlled 3d designs of mechanical parts and assemblies' ) ;
#243 = DIRECTION ( 'NONE',  ( 1.000000000000000000, 0.0000000000000000000, 0.0000000000000000000 ) ) ;
#244 = APPLICATION_CONTEXT ( 'configuration controlled 3d designs of mechanical parts and assemblies' ) ;
#245 = PRODUCT_RELATED_PRODUCT_CATEGORY ( 'detail', '', ( #108 ) ) ;
#246 = DATE_TIME_ROLE ( 'classification_date' ) ;
#247 = VERTEX_POINT ( 'NONE', #161 ) ;
#248 = EDGE_LOOP ( 'NONE', ( #155 ) ) ;
#249 = TOROIDAL_SURFACE ( 'NONE', #116, 1.141999999999999900, 0.1300000000000003700 ) ;
#250 = EDGE_CURVE ( 'NONE', #176, #176, #19, .T. ) ;
#251 = ORIENTED_EDGE ( 'NONE', *, *, #282, .T. ) ;
#252 = ORIENTED_EDGE ( 'NONE', *, *, #44, .F. ) ;
#253 = LOCAL_TIME ( 15, 1, 19.00000000000000000, #211 ) ;
#254 = CC_DESIGN_DATE_AND_TIME_ASSIGNMENT ( #198, #246, ( #224 ) ) ;
#255 = CIRCLE ( 'NONE', #133, 3.121646475863327600 ) ;
#256 = TOROIDAL_SURFACE ( 'NONE', #168, 1.369999999999999900, 0.1300000000000000000 ) ;
#257 = DIRECTION ( 'NONE',  ( -0.0000000000000000000, -0.0000000000000000000, 1.000000000000000000 ) ) ;
#258 = EDGE_LOOP ( 'NONE', ( #241 ) ) ;
#259 = DIRECTION ( 'NONE',  ( 1.000000000000000000, 0.0000000000000000000, 0.0000000000000000000 ) ) ;
#260 = CIRCLE ( 'NONE', #16, 1.108353524136672000 ) ;
#261 = ORIENTED_EDGE ( 'NONE', *, *, #92, .T. ) ;
#262 = CARTESIAN_POINT ( 'NONE',  ( 0.0000000000000000000, 0.0000000000000000000, -1.250000000000000000 ) ) ;
#263 = DIRECTION ( 'NONE',  ( -1.000000000000000000, 0.0000000000000000000, 0.0000000000000000000 ) ) ;
#264 = AXIS2_PLACEMENT_3D ( 'NONE', #316, #236, #31 ) ;
#265 = DIRECTION ( 'NONE',  ( -0.0000000000000000000, -0.0000000000000000000, 1.000000000000000000 ) ) ;
#266 = CARTESIAN_POINT ( 'NONE',  ( 3.218000000000000000, 0.0000000000000000000, -3.000000000000000400 ) ) ;
#267 = CARTESIAN_POINT ( 'NONE',  ( 0.0000000000000000000, 0.0000000000000000000, 0.0000000000000000000 ) ) ;
#268 = EDGE_LOOP ( 'NONE', ( #125 ) ) ;
#269 = APPROVAL_ROLE ( '' ) ;
#270 = APPROVAL_PERSON_ORGANIZATION ( #99, #60, #145 ) ;
#271 = AXIS2_PLACEMENT_3D ( 'NONE', #85, #233, #53 ) ;
#272 = PERSON_AND_ORGANIZATION ( #111, #277 ) ;
#273 = DIRECTION ( 'NONE',  ( 1.000000000000000000, 0.0000000000000000000, 0.0000000000000000000 ) ) ;
#274 = EDGE_LOOP ( 'NONE', ( #131 ) ) ;
#275 = CC_DESIGN_APPROVAL ( #60, ( #310 ) ) ;
#276 = EDGE_LOOP ( 'NONE', ( #103 ) ) ;
#277 = ORGANIZATION ( 'UNSPECIFIED', 'UNSPECIFIED', '' ) ;
#278 = COORDINATED_UNIVERSAL_TIME_OFFSET ( 5, 0, .BEHIND. ) ;
#279 = APPROVAL ( #97, 'UNSPECIFIED' ) ;
#280 = ADVANCED_FACE ( 'NONE', ( #230, #283 ), #328, .F. ) ;
#281 = ADVANCED_FACE ( 'NONE', ( #331, #121 ), #107, .T. ) ;
#282 = EDGE_CURVE ( 'NONE', #21, #21, #255, .T. ) ;
#283 = FACE_OUTER_BOUND ( 'NONE', #171, .T. ) ;
#284 = EDGE_LOOP ( 'NONE', ( #206 ) ) ;
#285 = ADVANCED_FACE ( 'NONE', ( #325, #317 ), #170, .T. ) ;
#286 = PERSON_AND_ORGANIZATION ( #111, #277 ) ;
#287 = DIRECTION ( 'NONE',  ( 1.000000000000000000, 0.0000000000000000000, 0.0000000000000000000 ) ) ;
#288 = AXIS2_PLACEMENT_3D ( 'NONE', #221, #63, #169 ) ;
#289 = FACE_OUTER_BOUND ( 'NONE', #164, .T. ) ;
#290 = DIRECTION ( 'NONE',  ( -1.000000000000000000, 0.0000000000000000000, -0.0000000000000000000 ) ) ;
#291 = DIRECTION ( 'NONE',  ( -0.0000000000000000000, -0.0000000000000000000, 1.000000000000000000 ) ) ;
#292 = VERTEX_POINT ( 'NONE', #143 ) ;
#293 = DIRECTION ( 'NONE',  ( 1.000000000000000000, 0.0000000000000000000, 0.0000000000000000000 ) ) ;
#294 = DIRECTION ( 'NONE',  ( 1.000000000000000000, 0.0000000000000000000, 0.0000000000000000000 ) ) ;
#295 = FACE_OUTER_BOUND ( 'NONE', #258, .T. ) ;
#296 = CC_DESIGN_DATE_AND_TIME_ASSIGNMENT ( #153, #299, ( #310 ) ) ;
#297 = ORIENTED_EDGE ( 'NONE', *, *, #229, .F. ) ;
#298 = PERSON_AND_ORGANIZATION_ROLE ( 'design_owner' ) ;
#299 = DATE_TIME_ROLE ( 'creation_date' ) ;
#300 = LOCAL_TIME ( 15, 1, 19.00000000000000000, #105 ) ;
#301 = FACE_OUTER_BOUND ( 'NONE', #276, .T. ) ;
#302 = CLOSED_SHELL ( 'NONE', ( #47, #79, #280, #205, #228, #306, #329, #285, #210, #104, #281, #50 ) ) ;
#303 = VERTEX_POINT ( 'NONE', #318 ) ;
#304 = AXIS2_PLACEMENT_3D ( 'NONE', #26, #182, #214 ) ;
#305 = ORIENTED_EDGE ( 'NONE', *, *, #3, .T. ) ;
#306 = ADVANCED_FACE ( 'NONE', ( #162, #75 ), #48, .T. ) ;
#307 = VERTEX_POINT ( 'NONE', #123 ) ;
#308 = APPROVAL_DATE_TIME ( #84, #327 ) ;
#309 = CIRCLE ( 'NONE', #227, 3.835000000000000400 ) ;
#310 = PRODUCT_DEFINITION ( 'UNKNOWN', '', #43, #124 ) ;
#311 = DIRECTION ( 'NONE',  ( -0.0000000000000000000, -0.0000000000000000000, 1.000000000000000000 ) ) ;
#312 = DIRECTION ( 'NONE',  ( 1.000000000000000000, 0.0000000000000000000, 0.0000000000000000000 ) ) ;
#313 = EDGE_LOOP ( 'NONE', ( #23 ) ) ;
#314 = CARTESIAN_POINT ( 'NONE',  ( 0.0000000000000000000, 0.0000000000000000000, 0.0000000000000000000 ) ) ;
#315 = PLANE ( 'NONE',  #66 ) ;
#316 = CARTESIAN_POINT ( 'NONE',  ( 0.0000000000000000000, 0.0000000000000000000, 0.0000000000000000000 ) ) ;
#317 = FACE_OUTER_BOUND ( 'NONE', #208, .T. ) ;
#318 = CARTESIAN_POINT ( 'NONE',  ( 1.011999999999999800, 0.0000000000000000000, -1.709399064622412200 ) ) ;
#319 = EDGE_LOOP ( 'NONE', ( #180 ) ) ;
#320 = CARTESIAN_POINT ( 'NONE',  ( 3.218000000000000000, 0.0000000000000000000, -2.500000000000000000 ) ) ;
#321 = PERSON_AND_ORGANIZATION_ROLE ( 'creator' ) ;
#322 = CIRCLE ( 'NONE', #56, 1.011999999999999800 ) ;
#323 = AXIS2_PLACEMENT_3D ( 'NONE', #115, #137, #55 ) ;
#324 = CALENDAR_DATE ( 2017, 31, 7 ) ;
#325 = FACE_OUTER_BOUND ( 'NONE', #49, .T. ) ;
#326 = ORIENTED_EDGE ( 'NONE', *, *, #250, .F. ) ;
#327 = APPROVAL ( #167, 'UNSPECIFIED' ) ;
#328 = TOROIDAL_SURFACE ( 'NONE', #152, 3.088000000000000100, 0.1300000000000000900 ) ;
#329 = ADVANCED_FACE ( 'NONE', ( #9, #289 ), #110, .F. ) ;
#330 = PERSON_AND_ORGANIZATION ( #111, #277 ) ;
#331 = FACE_OUTER_BOUND ( 'NONE', #274, .T. ) ;
#332 = AXIS2_PLACEMENT_3D ( 'NONE', #262, #87, #238 ) ;
ENDSEC;
END-ISO-10303-21;
