ISO-10303-21;
HEADER;
FILE_DESCRIPTION (( 'STEP AP203' ),
    '1' );
FILE_NAME ('581207582.STEP',
    '2017-07-31T19:02:35',
    ( '' ),
    ( '' ),
    'SwSTEP 2.0',
    'SolidWorks 2017',
    '' );
FILE_SCHEMA (( 'CONFIG_CONTROL_DESIGN' ));
ENDSEC;

DATA;
#1 = AXIS2_PLACEMENT_3D ( 'NONE', #130, #272, #291 ) ;
#2 = APPROVAL_DATE_TIME ( #124, #257 ) ;
#3 = ORIENTED_EDGE ( 'NONE', *, *, #142, .T. ) ;
#4 = DIRECTION ( 'NONE',  ( -1.000000000000000000, 0.0000000000000000000, 0.0000000000000000000 ) ) ;
#5 = FACE_OUTER_BOUND ( 'NONE', #186, .T. ) ;
#6 = DIRECTION ( 'NONE',  ( -0.0000000000000000000, -0.0000000000000000000, 1.000000000000000000 ) ) ;
#7 = CARTESIAN_POINT ( 'NONE',  ( 0.0000000000000000000, 0.0000000000000000000, -1.120000000000000100 ) ) ;
#8 = ADVANCED_FACE ( 'NONE', ( #194, #26 ), #128, .F. ) ;
#9 = COORDINATED_UNIVERSAL_TIME_OFFSET ( 5, 0, .BEHIND. ) ;
#10 = EDGE_CURVE ( 'NONE', #213, #213, #82, .T. ) ;
#11 = ADVANCED_FACE ( 'NONE', ( #49, #80 ), #268, .F. ) ;
#12 = CC_DESIGN_PERSON_AND_ORGANIZATION_ASSIGNMENT ( #55, #237, ( #199 ) ) ;
#13 = CYLINDRICAL_SURFACE ( 'NONE', #92, 1.446999999999999800 ) ;
#14 = COORDINATED_UNIVERSAL_TIME_OFFSET ( 5, 0, .BEHIND. ) ;
#15 = PLANE ( 'NONE',  #107 ) ;
#16 = DIMENSIONAL_EXPONENTS ( 1.000000000000000000, 0.0000000000000000000, 0.0000000000000000000, 0.0000000000000000000, 0.0000000000000000000, 0.0000000000000000000, 0.0000000000000000000 ) ;
#17 = DIRECTION ( 'NONE',  ( 1.000000000000000000, 0.0000000000000000000, 0.0000000000000000000 ) ) ;
#18 = CARTESIAN_POINT ( 'NONE',  ( 1.447000000000000100, 0.0000000000000000000, -1.543354755180037500 ) ) ;
#19 = FACE_BOUND ( 'NONE', #56, .T. ) ;
#20 = AXIS2_PLACEMENT_3D ( 'NONE', #108, #280, #250 ) ;
#21 = PLANE ( 'NONE',  #81 ) ;
#22 = EDGE_LOOP ( 'NONE', ( #207 ) ) ;
#23 = APPROVAL_DATE_TIME ( #191, #266 ) ;
#24 = CARTESIAN_POINT ( 'NONE',  ( 0.0000000000000000000, 0.0000000000000000000, -1.543354755180037500 ) ) ;
#25 = PERSON_AND_ORGANIZATION ( #220, #239 ) ;
#26 = FACE_BOUND ( 'NONE', #222, .T. ) ;
#27 = PERSON_AND_ORGANIZATION_ROLE ( 'creator' ) ;
#28 = CYLINDRICAL_SURFACE ( 'NONE', #168, 1.770000000000000000 ) ;
#29 = DIRECTION ( 'NONE',  ( 0.0000000000000000000, 0.0000000000000000000, -1.000000000000000000 ) ) ;
#30 = ORIENTED_EDGE ( 'NONE', *, *, #121, .F. ) ;
#31 = FACE_BOUND ( 'NONE', #271, .T. ) ;
#32 = PRODUCT_DEFINITION_SHAPE ( 'NONE', 'NONE',  #33 ) ;
#33 = PRODUCT_DEFINITION ( 'UNKNOWN', '', #200, #260 ) ;
#34 = CIRCLE ( 'NONE', #224, 3.935000000000000100 ) ;
#35 = VERTEX_POINT ( 'NONE', #137 ) ;
#36 = CARTESIAN_POINT ( 'NONE',  ( 0.0000000000000000000, 3.935000000000000100, -3.000000000000000400 ) ) ;
#37 = ADVANCED_FACE ( 'NONE', ( #93, #5 ), #77, .T. ) ;
#38 = APPROVAL_ROLE ( '' ) ;
#39 = EDGE_LOOP ( 'NONE', ( #251 ) ) ;
#40 = DIRECTION ( 'NONE',  ( -0.0000000000000000000, -0.0000000000000000000, 1.000000000000000000 ) ) ;
#41 = DIRECTION ( 'NONE',  ( 1.000000000000000000, 0.0000000000000000000, 0.0000000000000000000 ) ) ;
#42 = CARTESIAN_POINT ( 'NONE',  ( 0.0000000000000000000, 0.0000000000000000000, -2.247839959297832200 ) ) ;
#43 = CARTESIAN_POINT ( 'NONE',  ( 1.532537381367663700, 0.0000000000000000000, -1.665514795882205600 ) ) ;
#44 = DIRECTION ( 'NONE',  ( -1.000000000000000000, 0.0000000000000000000, -0.0000000000000000000 ) ) ;
#45 = CARTESIAN_POINT ( 'NONE',  ( 1.770000000000000000, 0.0000000000000000000, 0.0000000000000000000 ) ) ;
#46 = COORDINATED_UNIVERSAL_TIME_OFFSET ( 5, 0, .BEHIND. ) ;
#47 = AXIS2_PLACEMENT_3D ( 'NONE', #283, #94, #258 ) ;
#48 = CARTESIAN_POINT ( 'NONE',  ( 0.0000000000000000000, 0.0000000000000000000, -1.250000000000000000 ) ) ;
#49 = FACE_OUTER_BOUND ( 'NONE', #211, .T. ) ;
#50 = PERSON_AND_ORGANIZATION_ROLE ( 'classification_officer' ) ;
#51 = AXIS2_PLACEMENT_3D ( 'NONE', #36, #116, #170 ) ;
#52 = APPROVAL_PERSON_ORGANIZATION ( #184, #257, #38 ) ;
#53 = APPROVAL_STATUS ( 'not_yet_approved' ) ;
#54 = CARTESIAN_POINT ( 'NONE',  ( 0.0000000000000000000, 1.899999999999999900, -1.250000000000000000 ) ) ;
#55 = PERSON_AND_ORGANIZATION ( #220, #239 ) ;
#56 = EDGE_LOOP ( 'NONE', ( #3 ) ) ;
#57 = FACE_OUTER_BOUND ( 'NONE', #122, .T. ) ;
#58 = AXIS2_PLACEMENT_3D ( 'NONE', #309, #227, #91 ) ;
#59 = EDGE_LOOP ( 'NONE', ( #215 ) ) ;
#60 = ADVANCED_FACE ( 'NONE', ( #198, #255 ), #28, .T. ) ;
#61 = AXIS2_PLACEMENT_3D ( 'NONE', #24, #164, #17 ) ;
#62 = LOCAL_TIME ( 15, 2, 35.00000000000000000, #192 ) ;
#63 = VERTEX_POINT ( 'NONE', #112 ) ;
#64 = CARTESIAN_POINT ( 'NONE',  ( 0.0000000000000000000, 0.0000000000000000000, 0.0000000000000000000 ) ) ;
#65 = ORIENTED_EDGE ( 'NONE', *, *, #234, .T. ) ;
#66 = DIRECTION ( 'NONE',  ( 1.000000000000000000, 0.0000000000000000000, 0.0000000000000000000 ) ) ;
#67 = AXIS2_PLACEMENT_3D ( 'NONE', #144, #163, #188 ) ;
#68 = FACE_OUTER_BOUND ( 'NONE', #59, .T. ) ;
#69 = APPROVAL_ROLE ( '' ) ;
#70 = APPROVAL_STATUS ( 'not_yet_approved' ) ;
#71 = AXIS2_PLACEMENT_3D ( 'NONE', #89, #252, #41 ) ;
#72 = DATE_TIME_ROLE ( 'classification_date' ) ;
#73 = VERTEX_POINT ( 'NONE', #264 ) ;
#74 = ORIENTED_EDGE ( 'NONE', *, *, #267, .F. ) ;
#75 = APPLICATION_CONTEXT ( 'configuration controlled 3d designs of mechanical parts and assemblies' ) ;
#76 = PERSON_AND_ORGANIZATION_ROLE ( 'creator' ) ;
#77 = CYLINDRICAL_SURFACE ( 'NONE', #287, 3.935000000000000100 ) ;
#78 = PERSON_AND_ORGANIZATION ( #220, #239 ) ;
#79 = AXIS2_PLACEMENT_3D ( 'NONE', #299, #153, #4 ) ;
#80 = FACE_OUTER_BOUND ( 'NONE', #119, .T. ) ;
#81 = AXIS2_PLACEMENT_3D ( 'NONE', #54, #109, #44 ) ;
#82 = CIRCLE ( 'NONE', #1, 1.770000000000000000 ) ;
#83 = ADVANCED_BREP_SHAPE_REPRESENTATION ( '581207582', ( #311, #47 ), #111 ) ;
#84 = FACE_OUTER_BOUND ( 'NONE', #289, .T. ) ;
#85 = EDGE_LOOP ( 'NONE', ( #162 ) ) ;
#86 = VERTEX_POINT ( 'NONE', #187 ) ;
#87 = DIRECTION ( 'NONE',  ( -0.0000000000000000000, -0.0000000000000000000, 1.000000000000000000 ) ) ;
#88 = VERTEX_POINT ( 'NONE', #259 ) ;
#89 = CARTESIAN_POINT ( 'NONE',  ( 0.0000000000000000000, 0.0000000000000000000, -1.250000000000000000 ) ) ;
#90 = FACE_OUTER_BOUND ( 'NONE', #39, .T. ) ;
#91 = DIRECTION ( 'NONE',  ( 1.000000000000000000, 0.0000000000000000000, 0.0000000000000000000 ) ) ;
#92 = AXIS2_PLACEMENT_3D ( 'NONE', #64, #171, #292 ) ;
#93 = FACE_OUTER_BOUND ( 'NONE', #190, .T. ) ;
#94 = DIRECTION ( 'NONE',  ( 0.0000000000000000000, 0.0000000000000000000, 1.000000000000000000 ) ) ;
#95 = EDGE_CURVE ( 'NONE', #88, #88, #270, .T. ) ;
#96 = PLANE ( 'NONE',  #51 ) ;
#97 =( CONVERSION_BASED_UNIT ( 'INCH', #115 ) LENGTH_UNIT ( ) NAMED_UNIT ( #16 ) );
#98 = CYLINDRICAL_SURFACE ( 'NONE', #67, 3.218000000000000400 ) ;
#99 = ORIENTED_EDGE ( 'NONE', *, *, #296, .F. ) ;
#100 = AXIS2_PLACEMENT_3D ( 'NONE', #229, #253, #256 ) ;
#101 = CIRCLE ( 'NONE', #129, 1.770000000000000000 ) ;
#102 = DATE_AND_TIME ( #232, #249 ) ;
#103 = UNCERTAINTY_MEASURE_WITH_UNIT (LENGTH_MEASURE( 1.000000000000000100E-005 ), #97, 'distance_accuracy_value', 'NONE');
#104 = ORIENTED_EDGE ( 'NONE', *, *, #117, .T. ) ;
#105 = CIRCLE ( 'NONE', #310, 1.532537381367663700 ) ;
#106 = ADVANCED_FACE ( 'NONE', ( #90, #244 ), #279, .F. ) ;
#107 = AXIS2_PLACEMENT_3D ( 'NONE', #277, #29, #197 ) ;
#108 = CARTESIAN_POINT ( 'NONE',  ( 0.0000000000000000000, 0.0000000000000000000, 0.0000000000000000000 ) ) ;
#109 = DIRECTION ( 'NONE',  ( 0.0000000000000000000, 0.0000000000000000000, -1.000000000000000000 ) ) ;
#110 = CARTESIAN_POINT ( 'NONE',  ( 3.132462618632336800, 0.0000000000000000000, -2.247839959297832200 ) ) ;
#111 =( GEOMETRIC_REPRESENTATION_CONTEXT ( 3 ) GLOBAL_UNCERTAINTY_ASSIGNED_CONTEXT ( ( #103 ) ) GLOBAL_UNIT_ASSIGNED_CONTEXT ( ( #97, #216, #120 ) ) REPRESENTATION_CONTEXT ( 'NONE', 'WORKASPACE' ) );
#112 = CARTESIAN_POINT ( 'NONE',  ( 3.218000000000000000, 0.0000000000000000000, -3.000000000000000400 ) ) ;
#113 = CIRCLE ( 'NONE', #58, 3.218000000000000400 ) ;
#114 = MECHANICAL_CONTEXT ( 'NONE', #233, 'mechanical' ) ;
#115 = LENGTH_MEASURE_WITH_UNIT ( LENGTH_MEASURE( 0.02539999999999999900 ), #193 );
#116 = DIRECTION ( 'NONE',  ( 0.0000000000000000000, -0.0000000000000000000, 1.000000000000000000 ) ) ;
#117 = EDGE_CURVE ( 'NONE', #141, #141, #34, .T. ) ;
#118 = CALENDAR_DATE ( 2017, 31, 7 ) ;
#119 = EDGE_LOOP ( 'NONE', ( #238 ) ) ;
#120 =( NAMED_UNIT ( * ) SI_UNIT ( $, .STERADIAN. ) SOLID_ANGLE_UNIT ( ) );
#121 = EDGE_CURVE ( 'NONE', #312, #312, #307, .T. ) ;
#122 = EDGE_LOOP ( 'NONE', ( #150 ) ) ;
#123 = PRODUCT_RELATED_PRODUCT_CATEGORY ( 'detail', '', ( #199 ) ) ;
#124 = DATE_AND_TIME ( #302, #62 ) ;
#125 = SHAPE_DEFINITION_REPRESENTATION ( #32, #83 ) ;
#126 = PERSON_AND_ORGANIZATION ( #220, #239 ) ;
#127 = ORIENTED_EDGE ( 'NONE', *, *, #95, .F. ) ;
#128 = CONICAL_SURFACE ( 'NONE', #79, 1.532537381367663700, 1.221730476396033900 ) ;
#129 = AXIS2_PLACEMENT_3D ( 'NONE', #169, #139, #254 ) ;
#130 = CARTESIAN_POINT ( 'NONE',  ( 0.0000000000000000000, 0.0000000000000000000, 0.0000000000000000000 ) ) ;
#131 = AXIS2_PLACEMENT_3D ( 'NONE', #48, #294, #146 ) ;
#132 = CARTESIAN_POINT ( 'NONE',  ( 0.0000000000000000000, 0.0000000000000000000, -1.665514795882205600 ) ) ;
#133 = AXIS2_PLACEMENT_3D ( 'NONE', #7, #6, #288 ) ;
#134 = CARTESIAN_POINT ( 'NONE',  ( 0.0000000000000000000, 0.0000000000000000000, -3.000000000000000400 ) ) ;
#135 = EDGE_LOOP ( 'NONE', ( #293 ) ) ;
#136 = DIRECTION ( 'NONE',  ( -0.0000000000000000000, -0.0000000000000000000, 1.000000000000000000 ) ) ;
#137 = CARTESIAN_POINT ( 'NONE',  ( 3.218000000000000400, 0.0000000000000000000, -2.370000000000000100 ) ) ;
#138 = FACE_OUTER_BOUND ( 'NONE', #281, .T. ) ;
#139 = DIRECTION ( 'NONE',  ( -0.0000000000000000000, -0.0000000000000000000, 1.000000000000000000 ) ) ;
#140 = CALENDAR_DATE ( 2017, 31, 7 ) ;
#141 = VERTEX_POINT ( 'NONE', #290 ) ;
#142 = EDGE_CURVE ( 'NONE', #63, #63, #151, .T. ) ;
#143 = DIRECTION ( 'NONE',  ( 1.000000000000000000, 0.0000000000000000000, 0.0000000000000000000 ) ) ;
#144 = CARTESIAN_POINT ( 'NONE',  ( 0.0000000000000000000, 0.0000000000000000000, 0.0000000000000000000 ) ) ;
#145 = FACE_OUTER_BOUND ( 'NONE', #180, .T. ) ;
#146 = DIRECTION ( 'NONE',  ( 1.000000000000000000, 0.0000000000000000000, 0.0000000000000000000 ) ) ;
#147 = EDGE_LOOP ( 'NONE', ( #218 ) ) ;
#148 = APPROVAL_PERSON_ORGANIZATION ( #154, #266, #69 ) ;
#149 = COORDINATED_UNIVERSAL_TIME_OFFSET ( 5, 0, .BEHIND. ) ;
#150 = ORIENTED_EDGE ( 'NONE', *, *, #240, .T. ) ;
#151 = CIRCLE ( 'NONE', #203, 3.218000000000000000 ) ;
#152 = EDGE_LOOP ( 'NONE', ( #167 ) ) ;
#153 = DIRECTION ( 'NONE',  ( 0.0000000000000000000, 0.0000000000000000000, -1.000000000000000000 ) ) ;
#154 = PERSON_AND_ORGANIZATION ( #220, #239 ) ;
#155 = DIRECTION ( 'NONE',  ( -0.0000000000000000000, -0.0000000000000000000, 1.000000000000000000 ) ) ;
#156 = CC_DESIGN_APPROVAL ( #266, ( #33 ) ) ;
#157 = CALENDAR_DATE ( 2017, 31, 7 ) ;
#158 = ORIENTED_EDGE ( 'NONE', *, *, #230, .F. ) ;
#159 = CARTESIAN_POINT ( 'NONE',  ( 0.0000000000000000000, 0.0000000000000000000, -2.370000000000000100 ) ) ;
#160 = CC_DESIGN_PERSON_AND_ORGANIZATION_ASSIGNMENT ( #126, #76, ( #200 ) ) ;
#161 = CIRCLE ( 'NONE', #61, 1.447000000000000100 ) ;
#162 = ORIENTED_EDGE ( 'NONE', *, *, #296, .T. ) ;
#163 = DIRECTION ( 'NONE',  ( -0.0000000000000000000, -0.0000000000000000000, 1.000000000000000000 ) ) ;
#164 = DIRECTION ( 'NONE',  ( -0.0000000000000000000, -0.0000000000000000000, 1.000000000000000000 ) ) ;
#165 = PERSON_AND_ORGANIZATION ( #220, #239 ) ;
#166 = CC_DESIGN_PERSON_AND_ORGANIZATION_ASSIGNMENT ( #286, #50, ( #265 ) ) ;
#167 = ORIENTED_EDGE ( 'NONE', *, *, #230, .T. ) ;
#168 = AXIS2_PLACEMENT_3D ( 'NONE', #247, #87, #205 ) ;
#169 = CARTESIAN_POINT ( 'NONE',  ( 0.0000000000000000000, 0.0000000000000000000, -1.120000000000000100 ) ) ;
#170 = DIRECTION ( 'NONE',  ( 1.000000000000000000, 0.0000000000000000000, 0.0000000000000000000 ) ) ;
#171 = DIRECTION ( 'NONE',  ( -0.0000000000000000000, -0.0000000000000000000, 1.000000000000000000 ) ) ;
#172 = ORIENTED_EDGE ( 'NONE', *, *, #117, .F. ) ;
#173 = ADVANCED_FACE ( 'NONE', ( #31, #68 ), #15, .F. ) ;
#174 = DIRECTION ( 'NONE',  ( 1.000000000000000000, 0.0000000000000000000, 0.0000000000000000000 ) ) ;
#175 = CIRCLE ( 'NONE', #20, 1.446999999999999600 ) ;
#176 = DATE_AND_TIME ( #157, #185 ) ;
#177 = ORIENTED_EDGE ( 'NONE', *, *, #267, .T. ) ;
#178 = CC_DESIGN_APPROVAL ( #284, ( #200 ) ) ;
#179 = CARTESIAN_POINT ( 'NONE',  ( 0.0000000000000000000, 0.0000000000000000000, 0.0000000000000000000 ) ) ;
#180 = EDGE_LOOP ( 'NONE', ( #172 ) ) ;
#181 = ADVANCED_FACE ( 'NONE', ( #221, #262 ), #21, .F. ) ;
#182 = CC_DESIGN_DATE_AND_TIME_ASSIGNMENT ( #176, #195, ( #33 ) ) ;
#183 = DIRECTION ( 'NONE',  ( -0.0000000000000000000, -0.0000000000000000000, 1.000000000000000000 ) ) ;
#184 = PERSON_AND_ORGANIZATION ( #220, #239 ) ;
#185 = LOCAL_TIME ( 15, 2, 35.00000000000000000, #14 ) ;
#186 = EDGE_LOOP ( 'NONE', ( #104 ) ) ;
#187 = CARTESIAN_POINT ( 'NONE',  ( 1.446999999999999600, 0.0000000000000000000, 0.0000000000000000000 ) ) ;
#188 = DIRECTION ( 'NONE',  ( 1.000000000000000000, 0.0000000000000000000, 0.0000000000000000000 ) ) ;
#189 = FACE_OUTER_BOUND ( 'NONE', #243, .T. ) ;
#190 = EDGE_LOOP ( 'NONE', ( #158 ) ) ;
#191 = DATE_AND_TIME ( #140, #301 ) ;
#192 = COORDINATED_UNIVERSAL_TIME_OFFSET ( 5, 0, .BEHIND. ) ;
#193 =( LENGTH_UNIT ( ) NAMED_UNIT ( * ) SI_UNIT ( $, .METRE. ) );
#194 = FACE_OUTER_BOUND ( 'NONE', #308, .T. ) ;
#195 = DATE_TIME_ROLE ( 'creation_date' ) ;
#196 = ADVANCED_FACE ( 'NONE', ( #138, #201 ), #98, .F. ) ;
#197 = DIRECTION ( 'NONE',  ( -1.000000000000000000, 0.0000000000000000000, -0.0000000000000000000 ) ) ;
#198 = FACE_OUTER_BOUND ( 'NONE', #147, .T. ) ;
#199 = PRODUCT ( '581207582', '581207582', '', ( #114 ) ) ;
#200 = PRODUCT_DEFINITION_FORMATION_WITH_SPECIFIED_SOURCE ( 'ANY', '', #199, .NOT_KNOWN. ) ;
#201 = FACE_OUTER_BOUND ( 'NONE', #135, .T. ) ;
#202 = EDGE_LOOP ( 'NONE', ( #65 ) ) ;
#203 = AXIS2_PLACEMENT_3D ( 'NONE', #278, #136, #174 ) ;
#204 = ADVANCED_FACE ( 'NONE', ( #189, #57 ), #13, .F. ) ;
#205 = DIRECTION ( 'NONE',  ( 1.000000000000000000, 0.0000000000000000000, 0.0000000000000000000 ) ) ;
#206 = CIRCLE ( 'NONE', #131, 3.935000000000000100 ) ;
#207 = ORIENTED_EDGE ( 'NONE', *, *, #121, .T. ) ;
#208 = DIRECTION ( 'NONE',  ( 1.000000000000000000, 0.0000000000000000000, 0.0000000000000000000 ) ) ;
#209 = DIRECTION ( 'NONE',  ( -0.0000000000000000000, -0.0000000000000000000, 1.000000000000000000 ) ) ;
#210 = VERTEX_POINT ( 'NONE', #18 ) ;
#211 = EDGE_LOOP ( 'NONE', ( #99 ) ) ;
#212 = PERSON_AND_ORGANIZATION_ROLE ( 'design_supplier' ) ;
#213 = VERTEX_POINT ( 'NONE', #45 ) ;
#214 = DIRECTION ( 'NONE',  ( 1.000000000000000000, 0.0000000000000000000, 0.0000000000000000000 ) ) ;
#215 = ORIENTED_EDGE ( 'NONE', *, *, #10, .T. ) ;
#216 =( NAMED_UNIT ( * ) PLANE_ANGLE_UNIT ( ) SI_UNIT ( $, .RADIAN. ) );
#217 = APPROVAL_ROLE ( '' ) ;
#218 = ORIENTED_EDGE ( 'NONE', *, *, #10, .F. ) ;
#219 = VERTEX_POINT ( 'NONE', #43 ) ;
#220 = PERSON ( 'UNSPECIFIED', 'UNSPECIFIED', 'UNSPECIFIED', ('UNSPECIFIED'), ('UNSPECIFIED'), ('UNSPECIFIED') ) ;
#221 = FACE_BOUND ( 'NONE', #276, .T. ) ;
#222 = EDGE_LOOP ( 'NONE', ( #177 ) ) ;
#223 = APPROVAL_DATE_TIME ( #102, #284 ) ;
#224 = AXIS2_PLACEMENT_3D ( 'NONE', #134, #303, #66 ) ;
#225 = ADVANCED_FACE ( 'NONE', ( #145, #19 ), #96, .F. ) ;
#226 = ORIENTED_EDGE ( 'NONE', *, *, #142, .F. ) ;
#227 = DIRECTION ( 'NONE',  ( -0.0000000000000000000, -0.0000000000000000000, 1.000000000000000000 ) ) ;
#228 = APPLICATION_PROTOCOL_DEFINITION ( 'international standard', 'config_control_design', 1994, #233 ) ;
#229 = CARTESIAN_POINT ( 'NONE',  ( 0.0000000000000000000, 0.0000000000000000000, -1.543354755180037500 ) ) ;
#230 = EDGE_CURVE ( 'NONE', #73, #73, #206, .T. ) ;
#231 = TOROIDAL_SURFACE ( 'NONE', #100, 1.577000000000000200, 0.1299999999999999200 ) ;
#232 = CALENDAR_DATE ( 2017, 31, 7 ) ;
#233 = APPLICATION_CONTEXT ( 'configuration controlled 3d designs of mechanical parts and assemblies' ) ;
#234 = EDGE_CURVE ( 'NONE', #210, #210, #161, .T. ) ;
#235 = SECURITY_CLASSIFICATION_LEVEL ( 'unclassified' ) ;
#236 = APPROVAL_STATUS ( 'not_yet_approved' ) ;
#237 = PERSON_AND_ORGANIZATION_ROLE ( 'design_owner' ) ;
#238 = ORIENTED_EDGE ( 'NONE', *, *, #95, .T. ) ;
#239 = ORGANIZATION ( 'UNSPECIFIED', 'UNSPECIFIED', '' ) ;
#240 = EDGE_CURVE ( 'NONE', #86, #86, #175, .T. ) ;
#241 = DATE_AND_TIME ( #118, #269 ) ;
#242 = APPROVAL_PERSON_ORGANIZATION ( #165, #284, #217 ) ;
#243 = EDGE_LOOP ( 'NONE', ( #263 ) ) ;
#244 = FACE_OUTER_BOUND ( 'NONE', #22, .T. ) ;
#245 = AXIS2_PLACEMENT_3D ( 'NONE', #159, #40, #208 ) ;
#246 = CC_DESIGN_PERSON_AND_ORGANIZATION_ASSIGNMENT ( #78, #27, ( #33 ) ) ;
#247 = CARTESIAN_POINT ( 'NONE',  ( 0.0000000000000000000, 0.0000000000000000000, 0.0000000000000000000 ) ) ;
#248 = FACE_OUTER_BOUND ( 'NONE', #202, .T. ) ;
#249 = LOCAL_TIME ( 15, 2, 35.00000000000000000, #46 ) ;
#250 = DIRECTION ( 'NONE',  ( 1.000000000000000000, 0.0000000000000000000, 0.0000000000000000000 ) ) ;
#251 = ORIENTED_EDGE ( 'NONE', *, *, #274, .F. ) ;
#252 = DIRECTION ( 'NONE',  ( -0.0000000000000000000, -0.0000000000000000000, 1.000000000000000000 ) ) ;
#253 = DIRECTION ( 'NONE',  ( -0.0000000000000000000, -0.0000000000000000000, 1.000000000000000000 ) ) ;
#254 = DIRECTION ( 'NONE',  ( 1.000000000000000000, 0.0000000000000000000, 0.0000000000000000000 ) ) ;
#255 = FACE_OUTER_BOUND ( 'NONE', #85, .T. ) ;
#256 = DIRECTION ( 'NONE',  ( 1.000000000000000000, 0.0000000000000000000, 0.0000000000000000000 ) ) ;
#257 = APPROVAL ( #236, 'UNSPECIFIED' ) ;
#258 = DIRECTION ( 'NONE',  ( 1.000000000000000000, 0.0000000000000000000, 0.0000000000000000000 ) ) ;
#259 = CARTESIAN_POINT ( 'NONE',  ( 1.899999999999999900, 0.0000000000000000000, -1.250000000000000000 ) ) ;
#260 = DESIGN_CONTEXT ( 'detailed design', #75, 'design' ) ;
#261 = CC_DESIGN_DATE_AND_TIME_ASSIGNMENT ( #241, #72, ( #265 ) ) ;
#262 = FACE_OUTER_BOUND ( 'NONE', #152, .T. ) ;
#263 = ORIENTED_EDGE ( 'NONE', *, *, #234, .F. ) ;
#264 = CARTESIAN_POINT ( 'NONE',  ( 3.935000000000000100, 0.0000000000000000000, -1.250000000000000000 ) ) ;
#265 = SECURITY_CLASSIFICATION ( '', '', #235 ) ;
#266 = APPROVAL ( #70, 'UNSPECIFIED' ) ;
#267 = EDGE_CURVE ( 'NONE', #219, #219, #105, .T. ) ;
#268 = TOROIDAL_SURFACE ( 'NONE', #133, 1.899999999999999900, 0.1299999999999999800 ) ;
#269 = LOCAL_TIME ( 15, 2, 35.00000000000000000, #149 ) ;
#270 = CIRCLE ( 'NONE', #71, 1.899999999999999900 ) ;
#271 = EDGE_LOOP ( 'NONE', ( #297 ) ) ;
#272 = DIRECTION ( 'NONE',  ( -0.0000000000000000000, -0.0000000000000000000, 1.000000000000000000 ) ) ;
#273 = CC_DESIGN_APPROVAL ( #257, ( #265 ) ) ;
#274 = EDGE_CURVE ( 'NONE', #35, #35, #113, .T. ) ;
#275 = ADVANCED_FACE ( 'NONE', ( #84, #248 ), #231, .T. ) ;
#276 = EDGE_LOOP ( 'NONE', ( #127 ) ) ;
#277 = CARTESIAN_POINT ( 'NONE',  ( 0.0000000000000000000, 1.446999999999999600, 0.0000000000000000000 ) ) ;
#278 = CARTESIAN_POINT ( 'NONE',  ( 0.0000000000000000000, 0.0000000000000000000, -3.000000000000000400 ) ) ;
#279 = TOROIDAL_SURFACE ( 'NONE', #245, 3.088000000000000100, 0.1300000000000002300 ) ;
#280 = DIRECTION ( 'NONE',  ( -0.0000000000000000000, -0.0000000000000000000, 1.000000000000000000 ) ) ;
#281 = EDGE_LOOP ( 'NONE', ( #226 ) ) ;
#282 = VERTEX_POINT ( 'NONE', #306 ) ;
#283 = CARTESIAN_POINT ( 'NONE',  ( 0.0000000000000000000, 0.0000000000000000000, 0.0000000000000000000 ) ) ;
#284 = APPROVAL ( #53, 'UNSPECIFIED' ) ;
#285 = APPLICATION_PROTOCOL_DEFINITION ( 'international standard', 'config_control_design', 1994, #75 ) ;
#286 = PERSON_AND_ORGANIZATION ( #220, #239 ) ;
#287 = AXIS2_PLACEMENT_3D ( 'NONE', #179, #155, #143 ) ;
#288 = DIRECTION ( 'NONE',  ( 1.000000000000000000, 0.0000000000000000000, 0.0000000000000000000 ) ) ;
#289 = EDGE_LOOP ( 'NONE', ( #74 ) ) ;
#290 = CARTESIAN_POINT ( 'NONE',  ( 3.935000000000000100, 0.0000000000000000000, -3.000000000000000400 ) ) ;
#291 = DIRECTION ( 'NONE',  ( 1.000000000000000000, 0.0000000000000000000, 0.0000000000000000000 ) ) ;
#292 = DIRECTION ( 'NONE',  ( 1.000000000000000000, 0.0000000000000000000, 0.0000000000000000000 ) ) ;
#293 = ORIENTED_EDGE ( 'NONE', *, *, #274, .T. ) ;
#294 = DIRECTION ( 'NONE',  ( -0.0000000000000000000, -0.0000000000000000000, 1.000000000000000000 ) ) ;
#295 = CC_DESIGN_SECURITY_CLASSIFICATION ( #265, ( #200 ) ) ;
#296 = EDGE_CURVE ( 'NONE', #282, #282, #101, .T. ) ;
#297 = ORIENTED_EDGE ( 'NONE', *, *, #240, .F. ) ;
#298 = CC_DESIGN_PERSON_AND_ORGANIZATION_ASSIGNMENT ( #25, #212, ( #200 ) ) ;
#299 = CARTESIAN_POINT ( 'NONE',  ( 0.0000000000000000000, 0.0000000000000000000, -1.665514795882205600 ) ) ;
#300 = AXIS2_PLACEMENT_3D ( 'NONE', #42, #209, #304 ) ;
#301 = LOCAL_TIME ( 15, 2, 35.00000000000000000, #9 ) ;
#302 = CALENDAR_DATE ( 2017, 31, 7 ) ;
#303 = DIRECTION ( 'NONE',  ( -0.0000000000000000000, -0.0000000000000000000, 1.000000000000000000 ) ) ;
#304 = DIRECTION ( 'NONE',  ( 1.000000000000000000, 0.0000000000000000000, 0.0000000000000000000 ) ) ;
#305 = CLOSED_SHELL ( 'NONE', ( #106, #196, #225, #37, #181, #11, #60, #173, #204, #275, #8 ) ) ;
#306 = CARTESIAN_POINT ( 'NONE',  ( 1.770000000000000000, 0.0000000000000000000, -1.120000000000000100 ) ) ;
#307 = CIRCLE ( 'NONE', #300, 3.132462618632336800 ) ;
#308 = EDGE_LOOP ( 'NONE', ( #30 ) ) ;
#309 = CARTESIAN_POINT ( 'NONE',  ( 0.0000000000000000000, 0.0000000000000000000, -2.370000000000000100 ) ) ;
#310 = AXIS2_PLACEMENT_3D ( 'NONE', #132, #183, #214 ) ;
#311 = MANIFOLD_SOLID_BREP ( 'Revolve1', #305 ) ;
#312 = VERTEX_POINT ( 'NONE', #110 ) ;
ENDSEC;
END-ISO-10303-21;
