ISO-10303-21;
HEADER;
FILE_DESCRIPTION (( 'STEP AP203' ),
    '1' );
FILE_NAME ('581207583.STEP',
    '2017-07-31T19:10:16',
    ( '' ),
    ( '' ),
    'SwSTEP 2.0',
    'SolidWorks 2017',
    '' );
FILE_SCHEMA (( 'CONFIG_CONTROL_DESIGN' ));
ENDSEC;

DATA;
#1 = FACE_OUTER_BOUND ( 'NONE', #197, .T. ) ;
#2 = ADVANCED_FACE ( 'NONE', ( #77, #221 ), #168, .F. ) ;
#3 = ORIENTED_EDGE ( 'NONE', *, *, #149, .F. ) ;
#4 = PERSON_AND_ORGANIZATION ( #182, #297 ) ;
#5 = DIRECTION ( 'NONE',  ( -0.0000000000000000000, -0.0000000000000000000, 1.000000000000000000 ) ) ;
#6 =( GEOMETRIC_REPRESENTATION_CONTEXT ( 3 ) GLOBAL_UNCERTAINTY_ASSIGNED_CONTEXT ( ( #66 ) ) GLOBAL_UNIT_ASSIGNED_CONTEXT ( ( #163, #289, #246 ) ) REPRESENTATION_CONTEXT ( 'NONE', 'WORKASPACE' ) );
#7 = FACE_BOUND ( 'NONE', #191, .T. ) ;
#8 = DIRECTION ( 'NONE',  ( -1.000000000000000000, 0.0000000000000000000, 0.0000000000000000000 ) ) ;
#9 = EDGE_LOOP ( 'NONE', ( #251 ) ) ;
#10 = DIRECTION ( 'NONE',  ( 0.0000000000000000000, 0.0000000000000000000, -1.000000000000000000 ) ) ;
#11 = DIRECTION ( 'NONE',  ( -0.0000000000000000000, -0.0000000000000000000, 1.000000000000000000 ) ) ;
#12 = DIRECTION ( 'NONE',  ( -0.0000000000000000000, -0.0000000000000000000, 1.000000000000000000 ) ) ;
#13 = PRODUCT_DEFINITION ( 'UNKNOWN', '', #120, #123 ) ;
#14 = ORIENTED_EDGE ( 'NONE', *, *, #214, .T. ) ;
#15 = DIRECTION ( 'NONE',  ( -0.0000000000000000000, -0.0000000000000000000, 1.000000000000000000 ) ) ;
#16 = APPROVAL_DATE_TIME ( #274, #206 ) ;
#17 = LENGTH_MEASURE_WITH_UNIT ( LENGTH_MEASURE( 0.02539999999999999900 ), #132 );
#18 = MECHANICAL_CONTEXT ( 'NONE', #139, 'mechanical' ) ;
#19 = DIRECTION ( 'NONE',  ( 0.0000000000000000000, 0.0000000000000000000, -1.000000000000000000 ) ) ;
#20 = CARTESIAN_POINT ( 'NONE',  ( 0.0000000000000000000, 0.0000000000000000000, 0.0000000000000000000 ) ) ;
#21 = AXIS2_PLACEMENT_3D ( 'NONE', #158, #265, #35 ) ;
#22 = DIRECTION ( 'NONE',  ( -0.0000000000000000000, -0.0000000000000000000, 1.000000000000000000 ) ) ;
#23 = ADVANCED_BREP_SHAPE_REPRESENTATION ( '581207583', ( #137, #264 ), #6 ) ;
#24 = ORIENTED_EDGE ( 'NONE', *, *, #169, .T. ) ;
#25 = ADVANCED_FACE ( 'NONE', ( #296, #185 ), #179, .F. ) ;
#26 = COORDINATED_UNIVERSAL_TIME_OFFSET ( 5, 0, .BEHIND. ) ;
#27 = VERTEX_POINT ( 'NONE', #248 ) ;
#28 = FACE_OUTER_BOUND ( 'NONE', #84, .T. ) ;
#29 = AXIS2_PLACEMENT_3D ( 'NONE', #112, #290, #41 ) ;
#30 = FACE_BOUND ( 'NONE', #183, .T. ) ;
#31 = ORIENTED_EDGE ( 'NONE', *, *, #238, .F. ) ;
#32 = PERSON_AND_ORGANIZATION ( #182, #297 ) ;
#33 = DIRECTION ( 'NONE',  ( 0.0000000000000000000, 0.0000000000000000000, -1.000000000000000000 ) ) ;
#34 = CIRCLE ( 'NONE', #91, 3.935000000000000100 ) ;
#35 = DIRECTION ( 'NONE',  ( 1.000000000000000000, 0.0000000000000000000, 0.0000000000000000000 ) ) ;
#36 = CARTESIAN_POINT ( 'NONE',  ( 0.0000000000000000000, 0.0000000000000000000, -1.661281111082286500 ) ) ;
#37 = ORIENTED_EDGE ( 'NONE', *, *, #208, .F. ) ;
#38 = CARTESIAN_POINT ( 'NONE',  ( 0.0000000000000000000, 0.0000000000000000000, 0.0000000000000000000 ) ) ;
#39 = DIRECTION ( 'NONE',  ( 1.000000000000000000, 0.0000000000000000000, 0.0000000000000000000 ) ) ;
#40 = AXIS2_PLACEMENT_3D ( 'NONE', #293, #309, #92 ) ;
#41 = DIRECTION ( 'NONE',  ( 1.000000000000000000, 0.0000000000000000000, 0.0000000000000000000 ) ) ;
#42 = CIRCLE ( 'NONE', #53, 3.218000000000000400 ) ;
#43 = EDGE_LOOP ( 'NONE', ( #48 ) ) ;
#44 = FACE_BOUND ( 'NONE', #247, .T. ) ;
#45 = EDGE_LOOP ( 'NONE', ( #37 ) ) ;
#46 = ADVANCED_FACE ( 'NONE', ( #62, #211 ), #152, .F. ) ;
#47 = AXIS2_PLACEMENT_3D ( 'NONE', #304, #189, #271 ) ;
#48 = ORIENTED_EDGE ( 'NONE', *, *, #223, .F. ) ;
#49 = DATE_AND_TIME ( #157, #61 ) ;
#50 = CIRCLE ( 'NONE', #249, 1.771000000000000400 ) ;
#51 = EDGE_LOOP ( 'NONE', ( #31 ) ) ;
#52 = ADVANCED_FACE ( 'NONE', ( #44, #94 ), #192, .F. ) ;
#53 = AXIS2_PLACEMENT_3D ( 'NONE', #250, #93, #270 ) ;
#54 = ADVANCED_FACE ( 'NONE', ( #295, #1 ), #298, .T. ) ;
#55 = CIRCLE ( 'NONE', #275, 1.771000000000000100 ) ;
#56 = DIRECTION ( 'NONE',  ( 0.0000000000000000000, 0.0000000000000000000, -1.000000000000000000 ) ) ;
#57 = EDGE_LOOP ( 'NONE', ( #3 ) ) ;
#58 = DIRECTION ( 'NONE',  ( 1.000000000000000000, 0.0000000000000000000, 0.0000000000000000000 ) ) ;
#59 = APPROVAL_PERSON_ORGANIZATION ( #231, #284, #63 ) ;
#60 = PRODUCT_RELATED_PRODUCT_CATEGORY ( 'detail', '', ( #277 ) ) ;
#61 = LOCAL_TIME ( 15, 10, 16.00000000000000000, #205 ) ;
#62 = FACE_OUTER_BOUND ( 'NONE', #207, .T. ) ;
#63 = APPROVAL_ROLE ( '' ) ;
#64 = ORIENTED_EDGE ( 'NONE', *, *, #99, .F. ) ;
#65 = APPROVAL_ROLE ( '' ) ;
#66 = UNCERTAINTY_MEASURE_WITH_UNIT (LENGTH_MEASURE( 1.000000000000000100E-005 ), #163, 'distance_accuracy_value', 'NONE');
#67 = APPLICATION_PROTOCOL_DEFINITION ( 'international standard', 'config_control_design', 1994, #194 ) ;
#68 = CONICAL_SURFACE ( 'NONE', #201, 1.856537381367663300, 1.221730476396034600 ) ;
#69 = CARTESIAN_POINT ( 'NONE',  ( 3.132462618632336800, 0.0000000000000000000, -2.247839959297832200 ) ) ;
#70 = PERSON_AND_ORGANIZATION_ROLE ( 'design_supplier' ) ;
#71 = AXIS2_PLACEMENT_3D ( 'NONE', #170, #241, #174 ) ;
#72 = CARTESIAN_POINT ( 'NONE',  ( 0.0000000000000000000, 3.935000000000000100, -3.000000000000000400 ) ) ;
#73 = VERTEX_POINT ( 'NONE', #267 ) ;
#74 = PERSON_AND_ORGANIZATION ( #182, #297 ) ;
#75 = VERTEX_POINT ( 'NONE', #280 ) ;
#76 = AXIS2_PLACEMENT_3D ( 'NONE', #310, #22, #119 ) ;
#77 = FACE_BOUND ( 'NONE', #279, .T. ) ;
#78 = VERTEX_POINT ( 'NONE', #229 ) ;
#79 = ORIENTED_EDGE ( 'NONE', *, *, #149, .T. ) ;
#80 = COORDINATED_UNIVERSAL_TIME_OFFSET ( 5, 0, .BEHIND. ) ;
#81 = ADVANCED_FACE ( 'NONE', ( #245, #7 ), #217, .F. ) ;
#82 = CIRCLE ( 'NONE', #105, 1.856537381367663300 ) ;
#83 = PRODUCT_DEFINITION_SHAPE ( 'NONE', 'NONE',  #13 ) ;
#84 = EDGE_LOOP ( 'NONE', ( #269 ) ) ;
#85 = CARTESIAN_POINT ( 'NONE',  ( 0.0000000000000000000, 2.165000000000000000, -1.250000000000000000 ) ) ;
#86 = AXIS2_PLACEMENT_3D ( 'NONE', #283, #33, #8 ) ;
#87 = CYLINDRICAL_SURFACE ( 'NONE', #145, 1.771000000000000400 ) ;
#88 = LOCAL_TIME ( 15, 10, 16.00000000000000000, #26 ) ;
#89 = DATE_TIME_ROLE ( 'classification_date' ) ;
#90 = CIRCLE ( 'NONE', #216, 2.294999999999999900 ) ;
#91 = AXIS2_PLACEMENT_3D ( 'NONE', #257, #122, #95 ) ;
#92 = DIRECTION ( 'NONE',  ( -1.000000000000000000, 0.0000000000000000000, 0.0000000000000000000 ) ) ;
#93 = DIRECTION ( 'NONE',  ( -0.0000000000000000000, -0.0000000000000000000, 1.000000000000000000 ) ) ;
#94 = FACE_OUTER_BOUND ( 'NONE', #235, .T. ) ;
#95 = DIRECTION ( 'NONE',  ( 1.000000000000000000, 0.0000000000000000000, 0.0000000000000000000 ) ) ;
#96 = ORIENTED_EDGE ( 'NONE', *, *, #169, .F. ) ;
#97 = LOCAL_TIME ( 15, 10, 16.00000000000000000, #184 ) ;
#98 = CC_DESIGN_PERSON_AND_ORGANIZATION_ASSIGNMENT ( #4, #291, ( #277 ) ) ;
#99 = EDGE_CURVE ( 'NONE', #78, #78, #90, .T. ) ;
#100 = FACE_OUTER_BOUND ( 'NONE', #311, .T. ) ;
#101 = ORIENTED_EDGE ( 'NONE', *, *, #220, .F. ) ;
#102 = DIMENSIONAL_EXPONENTS ( 1.000000000000000000, 0.0000000000000000000, 0.0000000000000000000, 0.0000000000000000000, 0.0000000000000000000, 0.0000000000000000000, 0.0000000000000000000 ) ;
#103 = FACE_OUTER_BOUND ( 'NONE', #285, .T. ) ;
#104 = DIRECTION ( 'NONE',  ( 1.000000000000000000, 0.0000000000000000000, 0.0000000000000000000 ) ) ;
#105 = AXIS2_PLACEMENT_3D ( 'NONE', #307, #199, #104 ) ;
#106 = DIRECTION ( 'NONE',  ( -1.000000000000000000, 0.0000000000000000000, 0.0000000000000000000 ) ) ;
#107 = CARTESIAN_POINT ( 'NONE',  ( 0.0000000000000000000, 0.0000000000000000000, 0.0000000000000000000 ) ) ;
#108 = CC_DESIGN_PERSON_AND_ORGANIZATION_ASSIGNMENT ( #288, #70, ( #120 ) ) ;
#109 = CALENDAR_DATE ( 2017, 31, 7 ) ;
#110 = APPROVAL_STATUS ( 'not_yet_approved' ) ;
#111 = PERSON_AND_ORGANIZATION ( #182, #297 ) ;
#112 = CARTESIAN_POINT ( 'NONE',  ( 0.0000000000000000000, 0.0000000000000000000, -2.370000000000000100 ) ) ;
#113 = CARTESIAN_POINT ( 'NONE',  ( 0.0000000000000000000, 0.0000000000000000000, -3.000000000000000400 ) ) ;
#114 = EDGE_LOOP ( 'NONE', ( #210 ) ) ;
#115 = CARTESIAN_POINT ( 'NONE',  ( 0.0000000000000000000, 0.0000000000000000000, -2.247839959297832200 ) ) ;
#116 = CARTESIAN_POINT ( 'NONE',  ( 1.856537381367663300, 0.0000000000000000000, -1.783441151784454600 ) ) ;
#117 = CIRCLE ( 'NONE', #161, 3.935000000000000100 ) ;
#118 = SECURITY_CLASSIFICATION_LEVEL ( 'unclassified' ) ;
#119 = DIRECTION ( 'NONE',  ( 1.000000000000000000, 0.0000000000000000000, 0.0000000000000000000 ) ) ;
#120 = PRODUCT_DEFINITION_FORMATION_WITH_SPECIFIED_SOURCE ( 'ANY', '', #277, .NOT_KNOWN. ) ;
#121 = ORIENTED_EDGE ( 'NONE', *, *, #220, .T. ) ;
#122 = DIRECTION ( 'NONE',  ( -0.0000000000000000000, -0.0000000000000000000, 1.000000000000000000 ) ) ;
#123 = DESIGN_CONTEXT ( 'detailed design', #194, 'design' ) ;
#124 = APPROVAL_DATE_TIME ( #49, #284 ) ;
#125 = FACE_OUTER_BOUND ( 'NONE', #230, .T. ) ;
#126 = CLOSED_SHELL ( 'NONE', ( #258, #25, #81, #181, #2, #159, #52, #187, #54, #234, #46 ) ) ;
#127 = VERTEX_POINT ( 'NONE', #116 ) ;
#128 = AXIS2_PLACEMENT_3D ( 'NONE', #107, #239, #261 ) ;
#129 = ORIENTED_EDGE ( 'NONE', *, *, #253, .T. ) ;
#130 = SHAPE_DEFINITION_REPRESENTATION ( #83, #23 ) ;
#131 = ORIENTED_EDGE ( 'NONE', *, *, #272, .T. ) ;
#132 =( LENGTH_UNIT ( ) NAMED_UNIT ( * ) SI_UNIT ( $, .METRE. ) );
#133 = CALENDAR_DATE ( 2017, 31, 7 ) ;
#134 = ORIENTED_EDGE ( 'NONE', *, *, #238, .T. ) ;
#135 = CARTESIAN_POINT ( 'NONE',  ( 0.0000000000000000000, 0.0000000000000000000, 0.0000000000000000000 ) ) ;
#136 = PERSON_AND_ORGANIZATION_ROLE ( 'creator' ) ;
#137 = MANIFOLD_SOLID_BREP ( 'Fillet1', #126 ) ;
#138 = CC_DESIGN_APPROVAL ( #284, ( #188 ) ) ;
#139 = APPLICATION_CONTEXT ( 'configuration controlled 3d designs of mechanical parts and assemblies' ) ;
#140 = COORDINATED_UNIVERSAL_TIME_OFFSET ( 5, 0, .BEHIND. ) ;
#141 = VERTEX_POINT ( 'NONE', #171 ) ;
#142 = DIRECTION ( 'NONE',  ( -1.000000000000000000, 0.0000000000000000000, 0.0000000000000000000 ) ) ;
#143 = CIRCLE ( 'NONE', #180, 3.132462618632336800 ) ;
#144 = DIRECTION ( 'NONE',  ( 0.0000000000000000000, 0.0000000000000000000, 1.000000000000000000 ) ) ;
#145 = AXIS2_PLACEMENT_3D ( 'NONE', #38, #218, #306 ) ;
#146 = DIRECTION ( 'NONE',  ( 1.000000000000000000, 0.0000000000000000000, 0.0000000000000000000 ) ) ;
#147 = CIRCLE ( 'NONE', #40, 2.165000000000000000 ) ;
#148 = ORIENTED_EDGE ( 'NONE', *, *, #255, .T. ) ;
#149 = EDGE_CURVE ( 'NONE', #256, #256, #50, .T. ) ;
#150 = LOCAL_TIME ( 15, 10, 16.00000000000000000, #80 ) ;
#151 = CIRCLE ( 'NONE', #259, 3.218000000000000000 ) ;
#152 = TOROIDAL_SURFACE ( 'NONE', #86, 2.294999999999999900, 0.1300000000000000000 ) ;
#153 = APPROVAL ( #262, 'UNSPECIFIED' ) ;
#154 = TOROIDAL_SURFACE ( 'NONE', #29, 3.088000000000000100, 0.1300000000000002300 ) ;
#155 = ORIENTED_EDGE ( 'NONE', *, *, #253, .F. ) ;
#156 = DATE_AND_TIME ( #133, #88 ) ;
#157 = CALENDAR_DATE ( 2017, 31, 7 ) ;
#158 = CARTESIAN_POINT ( 'NONE',  ( 0.0000000000000000000, 0.0000000000000000000, 0.0000000000000000000 ) ) ;
#159 = ADVANCED_FACE ( 'NONE', ( #160, #237 ), #266, .T. ) ;
#160 = FACE_OUTER_BOUND ( 'NONE', #203, .T. ) ;
#161 = AXIS2_PLACEMENT_3D ( 'NONE', #212, #15, #196 ) ;
#162 = CARTESIAN_POINT ( 'NONE',  ( 0.0000000000000000000, 0.0000000000000000000, -1.250000000000000000 ) ) ;
#163 =( CONVERSION_BASED_UNIT ( 'INCH', #17 ) LENGTH_UNIT ( ) NAMED_UNIT ( #102 ) );
#164 = CARTESIAN_POINT ( 'NONE',  ( 0.0000000000000000000, 0.0000000000000000000, 0.0000000000000000000 ) ) ;
#165 = ORIENTED_EDGE ( 'NONE', *, *, #223, .T. ) ;
#166 = CALENDAR_DATE ( 2017, 31, 7 ) ;
#167 = APPROVAL_ROLE ( '' ) ;
#168 = PLANE ( 'NONE',  #302 ) ;
#169 = EDGE_CURVE ( 'NONE', #273, #273, #55, .T. ) ;
#170 = CARTESIAN_POINT ( 'NONE',  ( 0.0000000000000000000, 0.0000000000000000000, -1.661281111082286500 ) ) ;
#171 = CARTESIAN_POINT ( 'NONE',  ( 3.218000000000000400, 0.0000000000000000000, -2.370000000000000100 ) ) ;
#172 = PERSON_AND_ORGANIZATION_ROLE ( 'classification_officer' ) ;
#173 = CARTESIAN_POINT ( 'NONE',  ( 1.771000000000000400, 0.0000000000000000000, -1.661281111082286500 ) ) ;
#174 = DIRECTION ( 'NONE',  ( 1.000000000000000000, 0.0000000000000000000, 0.0000000000000000000 ) ) ;
#175 = CC_DESIGN_DATE_AND_TIME_ASSIGNMENT ( #222, #195, ( #13 ) ) ;
#176 = EDGE_LOOP ( 'NONE', ( #134 ) ) ;
#177 = CC_DESIGN_PERSON_AND_ORGANIZATION_ASSIGNMENT ( #243, #136, ( #13 ) ) ;
#178 = CALENDAR_DATE ( 2017, 31, 7 ) ;
#179 = CYLINDRICAL_SURFACE ( 'NONE', #21, 3.218000000000000400 ) ;
#180 = AXIS2_PLACEMENT_3D ( 'NONE', #115, #200, #146 ) ;
#181 = ADVANCED_FACE ( 'NONE', ( #240, #125 ), #278, .T. ) ;
#182 = PERSON ( 'UNSPECIFIED', 'UNSPECIFIED', 'UNSPECIFIED', ('UNSPECIFIED'), ('UNSPECIFIED'), ('UNSPECIFIED') ) ;
#183 = EDGE_LOOP ( 'NONE', ( #14 ) ) ;
#184 = COORDINATED_UNIVERSAL_TIME_OFFSET ( 5, 0, .BEHIND. ) ;
#185 = FACE_OUTER_BOUND ( 'NONE', #276, .T. ) ;
#186 = DIRECTION ( 'NONE',  ( 1.000000000000000000, 0.0000000000000000000, 0.0000000000000000000 ) ) ;
#187 = ADVANCED_FACE ( 'NONE', ( #282, #103 ), #87, .F. ) ;
#188 = SECURITY_CLASSIFICATION ( '', '', #118 ) ;
#189 = DIRECTION ( 'NONE',  ( 0.0000000000000000000, 0.0000000000000000000, -1.000000000000000000 ) ) ;
#190 = FACE_OUTER_BOUND ( 'NONE', #43, .T. ) ;
#191 = EDGE_LOOP ( 'NONE', ( #263 ) ) ;
#192 = PLANE ( 'NONE',  #47 ) ;
#193 = DIRECTION ( 'NONE',  ( 1.000000000000000000, 0.0000000000000000000, 0.0000000000000000000 ) ) ;
#194 = APPLICATION_CONTEXT ( 'configuration controlled 3d designs of mechanical parts and assemblies' ) ;
#195 = DATE_TIME_ROLE ( 'creation_date' ) ;
#196 = DIRECTION ( 'NONE',  ( 1.000000000000000000, 0.0000000000000000000, 0.0000000000000000000 ) ) ;
#197 = EDGE_LOOP ( 'NONE', ( #79 ) ) ;
#198 = APPLICATION_PROTOCOL_DEFINITION ( 'international standard', 'config_control_design', 1994, #139 ) ;
#199 = DIRECTION ( 'NONE',  ( -0.0000000000000000000, -0.0000000000000000000, 1.000000000000000000 ) ) ;
#200 = DIRECTION ( 'NONE',  ( -0.0000000000000000000, -0.0000000000000000000, 1.000000000000000000 ) ) ;
#201 = AXIS2_PLACEMENT_3D ( 'NONE', #225, #19, #142 ) ;
#202 = CARTESIAN_POINT ( 'NONE',  ( 1.771000000000000100, 0.0000000000000000000, 0.0000000000000000000 ) ) ;
#203 = EDGE_LOOP ( 'NONE', ( #131 ) ) ;
#204 = DIRECTION ( 'NONE',  ( 0.0000000000000000000, -0.0000000000000000000, 1.000000000000000000 ) ) ;
#205 = COORDINATED_UNIVERSAL_TIME_OFFSET ( 5, 0, .BEHIND. ) ;
#206 = APPROVAL ( #110, 'UNSPECIFIED' ) ;
#207 = EDGE_LOOP ( 'NONE', ( #64 ) ) ;
#208 = EDGE_CURVE ( 'NONE', #73, #73, #151, .T. ) ;
#209 = CC_DESIGN_PERSON_AND_ORGANIZATION_ASSIGNMENT ( #111, #228, ( #120 ) ) ;
#210 = ORIENTED_EDGE ( 'NONE', *, *, #214, .F. ) ;
#211 = FACE_OUTER_BOUND ( 'NONE', #9, .T. ) ;
#212 = CARTESIAN_POINT ( 'NONE',  ( 0.0000000000000000000, 0.0000000000000000000, -3.000000000000000400 ) ) ;
#213 = LOCAL_TIME ( 15, 10, 16.00000000000000000, #140 ) ;
#214 = EDGE_CURVE ( 'NONE', #127, #127, #82, .T. ) ;
#215 = VERTEX_POINT ( 'NONE', #292 ) ;
#216 = AXIS2_PLACEMENT_3D ( 'NONE', #162, #10, #106 ) ;
#217 = PLANE ( 'NONE',  #233 ) ;
#218 = DIRECTION ( 'NONE',  ( -0.0000000000000000000, -0.0000000000000000000, 1.000000000000000000 ) ) ;
#219 = DIRECTION ( 'NONE',  ( -0.0000000000000000000, -0.0000000000000000000, 1.000000000000000000 ) ) ;
#220 = EDGE_CURVE ( 'NONE', #244, #244, #117, .T. ) ;
#221 = FACE_OUTER_BOUND ( 'NONE', #176, .T. ) ;
#222 = DATE_AND_TIME ( #178, #150 ) ;
#223 = EDGE_CURVE ( 'NONE', #260, #260, #143, .T. ) ;
#224 = CIRCLE ( 'NONE', #76, 2.165000000000000000 ) ;
#225 = CARTESIAN_POINT ( 'NONE',  ( 0.0000000000000000000, 0.0000000000000000000, -1.783441151784454600 ) ) ;
#226 = CARTESIAN_POINT ( 'NONE',  ( 3.935000000000000100, 0.0000000000000000000, -3.000000000000000400 ) ) ;
#227 = CC_DESIGN_PERSON_AND_ORGANIZATION_ASSIGNMENT ( #32, #172, ( #188 ) ) ;
#228 = PERSON_AND_ORGANIZATION_ROLE ( 'creator' ) ;
#229 = CARTESIAN_POINT ( 'NONE',  ( -2.294999999999999900, 0.0000000000000000000, -1.250000000000000000 ) ) ;
#230 = EDGE_LOOP ( 'NONE', ( #121 ) ) ;
#231 = PERSON_AND_ORGANIZATION ( #182, #297 ) ;
#232 = APPROVAL_DATE_TIME ( #156, #153 ) ;
#233 = AXIS2_PLACEMENT_3D ( 'NONE', #72, #204, #186 ) ;
#234 = ADVANCED_FACE ( 'NONE', ( #190, #30 ), #68, .F. ) ;
#235 = EDGE_LOOP ( 'NONE', ( #129 ) ) ;
#236 = APPROVAL_PERSON_ORGANIZATION ( #74, #206, #167 ) ;
#237 = FACE_OUTER_BOUND ( 'NONE', #301, .T. ) ;
#238 = EDGE_CURVE ( 'NONE', #215, #215, #34, .T. ) ;
#239 = DIRECTION ( 'NONE',  ( -0.0000000000000000000, -0.0000000000000000000, 1.000000000000000000 ) ) ;
#240 = FACE_OUTER_BOUND ( 'NONE', #51, .T. ) ;
#241 = DIRECTION ( 'NONE',  ( -0.0000000000000000000, -0.0000000000000000000, 1.000000000000000000 ) ) ;
#242 = APPROVAL_STATUS ( 'not_yet_approved' ) ;
#243 = PERSON_AND_ORGANIZATION ( #182, #297 ) ;
#244 = VERTEX_POINT ( 'NONE', #226 ) ;
#245 = FACE_OUTER_BOUND ( 'NONE', #305, .T. ) ;
#246 =( NAMED_UNIT ( * ) SI_UNIT ( $, .STERADIAN. ) SOLID_ANGLE_UNIT ( ) );
#247 = EDGE_LOOP ( 'NONE', ( #96 ) ) ;
#248 = CARTESIAN_POINT ( 'NONE',  ( -2.165000000000000000, 0.0000000000000000000, -1.120000000000000100 ) ) ;
#249 = AXIS2_PLACEMENT_3D ( 'NONE', #36, #219, #58 ) ;
#250 = CARTESIAN_POINT ( 'NONE',  ( 0.0000000000000000000, 0.0000000000000000000, -2.370000000000000100 ) ) ;
#251 = ORIENTED_EDGE ( 'NONE', *, *, #272, .F. ) ;
#252 = APPROVAL_PERSON_ORGANIZATION ( #281, #153, #65 ) ;
#253 = EDGE_CURVE ( 'NONE', #75, #75, #224, .T. ) ;
#254 = ORIENTED_EDGE ( 'NONE', *, *, #99, .T. ) ;
#255 = EDGE_CURVE ( 'NONE', #141, #141, #42, .T. ) ;
#256 = VERTEX_POINT ( 'NONE', #173 ) ;
#257 = CARTESIAN_POINT ( 'NONE',  ( 0.0000000000000000000, 0.0000000000000000000, -1.250000000000000000 ) ) ;
#258 = ADVANCED_FACE ( 'NONE', ( #28, #100 ), #154, .F. ) ;
#259 = AXIS2_PLACEMENT_3D ( 'NONE', #113, #5, #39 ) ;
#260 = VERTEX_POINT ( 'NONE', #69 ) ;
#261 = DIRECTION ( 'NONE',  ( 1.000000000000000000, 0.0000000000000000000, 0.0000000000000000000 ) ) ;
#262 = APPROVAL_STATUS ( 'not_yet_approved' ) ;
#263 = ORIENTED_EDGE ( 'NONE', *, *, #208, .T. ) ;
#264 = AXIS2_PLACEMENT_3D ( 'NONE', #20, #144, #308 ) ;
#265 = DIRECTION ( 'NONE',  ( -0.0000000000000000000, -0.0000000000000000000, 1.000000000000000000 ) ) ;
#266 = CYLINDRICAL_SURFACE ( 'NONE', #294, 2.165000000000000000 ) ;
#267 = CARTESIAN_POINT ( 'NONE',  ( 3.218000000000000000, 0.0000000000000000000, -3.000000000000000400 ) ) ;
#268 = CC_DESIGN_APPROVAL ( #153, ( #120 ) ) ;
#269 = ORIENTED_EDGE ( 'NONE', *, *, #255, .F. ) ;
#270 = DIRECTION ( 'NONE',  ( 1.000000000000000000, 0.0000000000000000000, 0.0000000000000000000 ) ) ;
#271 = DIRECTION ( 'NONE',  ( -1.000000000000000000, 0.0000000000000000000, -0.0000000000000000000 ) ) ;
#272 = EDGE_CURVE ( 'NONE', #27, #27, #147, .T. ) ;
#273 = VERTEX_POINT ( 'NONE', #202 ) ;
#274 = DATE_AND_TIME ( #109, #213 ) ;
#275 = AXIS2_PLACEMENT_3D ( 'NONE', #164, #12, #193 ) ;
#276 = EDGE_LOOP ( 'NONE', ( #148 ) ) ;
#277 = PRODUCT ( '581207583', '581207583', '', ( #18 ) ) ;
#278 = CYLINDRICAL_SURFACE ( 'NONE', #128, 3.935000000000000100 ) ;
#279 = EDGE_LOOP ( 'NONE', ( #254 ) ) ;
#280 = CARTESIAN_POINT ( 'NONE',  ( 2.165000000000000000, 0.0000000000000000000, 0.0000000000000000000 ) ) ;
#281 = PERSON_AND_ORGANIZATION ( #182, #297 ) ;
#282 = FACE_OUTER_BOUND ( 'NONE', #57, .T. ) ;
#283 = CARTESIAN_POINT ( 'NONE',  ( 0.0000000000000000000, 0.0000000000000000000, -1.120000000000000100 ) ) ;
#284 = APPROVAL ( #242, 'UNSPECIFIED' ) ;
#285 = EDGE_LOOP ( 'NONE', ( #24 ) ) ;
#286 = DIRECTION ( 'NONE',  ( -1.000000000000000000, 0.0000000000000000000, -0.0000000000000000000 ) ) ;
#287 = CC_DESIGN_APPROVAL ( #206, ( #13 ) ) ;
#288 = PERSON_AND_ORGANIZATION ( #182, #297 ) ;
#289 =( NAMED_UNIT ( * ) PLANE_ANGLE_UNIT ( ) SI_UNIT ( $, .RADIAN. ) );
#290 = DIRECTION ( 'NONE',  ( -0.0000000000000000000, -0.0000000000000000000, 1.000000000000000000 ) ) ;
#291 = PERSON_AND_ORGANIZATION_ROLE ( 'design_owner' ) ;
#292 = CARTESIAN_POINT ( 'NONE',  ( 3.935000000000000100, 0.0000000000000000000, -1.250000000000000000 ) ) ;
#293 = CARTESIAN_POINT ( 'NONE',  ( 0.0000000000000000000, 0.0000000000000000000, -1.120000000000000100 ) ) ;
#294 = AXIS2_PLACEMENT_3D ( 'NONE', #135, #11, #303 ) ;
#295 = FACE_OUTER_BOUND ( 'NONE', #114, .T. ) ;
#296 = FACE_OUTER_BOUND ( 'NONE', #45, .T. ) ;
#297 = ORGANIZATION ( 'UNSPECIFIED', 'UNSPECIFIED', '' ) ;
#298 = TOROIDAL_SURFACE ( 'NONE', #71, 1.901000000000000000, 0.1299999999999999500 ) ;
#299 = CC_DESIGN_DATE_AND_TIME_ASSIGNMENT ( #312, #89, ( #188 ) ) ;
#300 = CC_DESIGN_SECURITY_CLASSIFICATION ( #188, ( #120 ) ) ;
#301 = EDGE_LOOP ( 'NONE', ( #155 ) ) ;
#302 = AXIS2_PLACEMENT_3D ( 'NONE', #85, #56, #286 ) ;
#303 = DIRECTION ( 'NONE',  ( 1.000000000000000000, 0.0000000000000000000, 0.0000000000000000000 ) ) ;
#304 = CARTESIAN_POINT ( 'NONE',  ( 0.0000000000000000000, 1.771000000000000100, 0.0000000000000000000 ) ) ;
#305 = EDGE_LOOP ( 'NONE', ( #101 ) ) ;
#306 = DIRECTION ( 'NONE',  ( 1.000000000000000000, 0.0000000000000000000, 0.0000000000000000000 ) ) ;
#307 = CARTESIAN_POINT ( 'NONE',  ( 0.0000000000000000000, 0.0000000000000000000, -1.783441151784454600 ) ) ;
#308 = DIRECTION ( 'NONE',  ( 1.000000000000000000, 0.0000000000000000000, 0.0000000000000000000 ) ) ;
#309 = DIRECTION ( 'NONE',  ( -0.0000000000000000000, -0.0000000000000000000, 1.000000000000000000 ) ) ;
#310 = CARTESIAN_POINT ( 'NONE',  ( 0.0000000000000000000, 0.0000000000000000000, 0.0000000000000000000 ) ) ;
#311 = EDGE_LOOP ( 'NONE', ( #165 ) ) ;
#312 = DATE_AND_TIME ( #166, #97 ) ;
ENDSEC;
END-ISO-10303-21;
