ISO-10303-21;
HEADER;
FILE_DESCRIPTION (( 'STEP AP203' ),
    '1' );
FILE_NAME ('581207585.STEP',
    '2017-07-31T19:22:11',
    ( '' ),
    ( '' ),
    'SwSTEP 2.0',
    'SolidWorks 2017',
    '' );
FILE_SCHEMA (( 'CONFIG_CONTROL_DESIGN' ));
ENDSEC;

DATA;
#1 = AXIS2_PLACEMENT_3D ( 'NONE', #209, #107, #88 ) ;
#2 = COORDINATED_UNIVERSAL_TIME_OFFSET ( 5, 0, .BEHIND. ) ;
#3 = ORIENTED_EDGE ( 'NONE', *, *, #220, .F. ) ;
#4 = CARTESIAN_POINT ( 'NONE',  ( 0.0000000000000000000, 0.0000000000000000000, -2.500000000000000000 ) ) ;
#5 = EDGE_LOOP ( 'NONE', ( #8 ) ) ;
#6 = CYLINDRICAL_SURFACE ( 'NONE', #248, 3.149999999999999900 ) ;
#7 = AXIS2_PLACEMENT_3D ( 'NONE', #174, #105, #278 ) ;
#8 = ORIENTED_EDGE ( 'NONE', *, *, #144, .T. ) ;
#9 = CYLINDRICAL_SURFACE ( 'NONE', #305, 3.218000000000000400 ) ;
#10 = APPROVAL_DATE_TIME ( #17, #311 ) ;
#11 = CALENDAR_DATE ( 2017, 31, 7 ) ;
#12 = ORIENTED_EDGE ( 'NONE', *, *, #192, .T. ) ;
#13 = CC_DESIGN_PERSON_AND_ORGANIZATION_ASSIGNMENT ( #30, #204, ( #75 ) ) ;
#14 = CIRCLE ( 'NONE', #260, 3.218000000000000400 ) ;
#15 = DIRECTION ( 'NONE',  ( 1.000000000000000000, 0.0000000000000000000, 0.0000000000000000000 ) ) ;
#16 = FACE_OUTER_BOUND ( 'NONE', #191, .T. ) ;
#17 = DATE_AND_TIME ( #215, #73 ) ;
#18 = PLANE ( 'NONE',  #289 ) ;
#19 = PRODUCT_RELATED_PRODUCT_CATEGORY ( 'detail', '', ( #151 ) ) ;
#20 = EDGE_LOOP ( 'NONE', ( #63 ) ) ;
#21 = COORDINATED_UNIVERSAL_TIME_OFFSET ( 5, 0, .BEHIND. ) ;
#22 = CARTESIAN_POINT ( 'NONE',  ( 0.0000000000000000000, 3.149999999999999900, -1.250000000000000000 ) ) ;
#23 = DIRECTION ( 'NONE',  ( -1.000000000000000000, 0.0000000000000000000, 0.0000000000000000000 ) ) ;
#24 = APPROVAL_STATUS ( 'not_yet_approved' ) ;
#25 = AXIS2_PLACEMENT_3D ( 'NONE', #228, #85, #310 ) ;
#26 = DIRECTION ( 'NONE',  ( 1.000000000000000000, 0.0000000000000000000, 0.0000000000000000000 ) ) ;
#27 = EDGE_LOOP ( 'NONE', ( #54 ) ) ;
#28 = AXIS2_PLACEMENT_3D ( 'NONE', #109, #42, #64 ) ;
#29 = DIRECTION ( 'NONE',  ( -0.0000000000000000000, -0.0000000000000000000, 1.000000000000000000 ) ) ;
#30 = PERSON_AND_ORGANIZATION ( #201, #142 ) ;
#31 = FACE_BOUND ( 'NONE', #221, .T. ) ;
#32 = EDGE_LOOP ( 'NONE', ( #304 ) ) ;
#33 = ORIENTED_EDGE ( 'NONE', *, *, #214, .T. ) ;
#34 = ADVANCED_FACE ( 'NONE', ( #31, #230 ), #47, .F. ) ;
#35 = EDGE_CURVE ( 'NONE', #255, #255, #226, .T. ) ;
#36 = PERSON_AND_ORGANIZATION ( #201, #142 ) ;
#37 = COORDINATED_UNIVERSAL_TIME_OFFSET ( 5, 0, .BEHIND. ) ;
#38 = DIRECTION ( 'NONE',  ( -1.000000000000000000, 0.0000000000000000000, 0.0000000000000000000 ) ) ;
#39 = DATE_TIME_ROLE ( 'creation_date' ) ;
#40 = APPLICATION_PROTOCOL_DEFINITION ( 'international standard', 'config_control_design', 1994, #198 ) ;
#41 = CARTESIAN_POINT ( 'NONE',  ( -3.149999999999999900, 0.0000000000000000000, -1.120000000000000100 ) ) ;
#42 = DIRECTION ( 'NONE',  ( -0.0000000000000000000, -0.0000000000000000000, 1.000000000000000000 ) ) ;
#43 = CC_DESIGN_DATE_AND_TIME_ASSIGNMENT ( #146, #39, ( #75 ) ) ;
#44 = ORIENTED_EDGE ( 'NONE', *, *, #108, .F. ) ;
#45 =( CONVERSION_BASED_UNIT ( 'INCH', #114 ) LENGTH_UNIT ( ) NAMED_UNIT ( #300 ) );
#46 = EDGE_LOOP ( 'NONE', ( #12 ) ) ;
#47 = PLANE ( 'NONE',  #82 ) ;
#48 = FACE_OUTER_BOUND ( 'NONE', #101, .T. ) ;
#49 = CC_DESIGN_SECURITY_CLASSIFICATION ( #237, ( #131 ) ) ;
#50 = EDGE_LOOP ( 'NONE', ( #169 ) ) ;
#51 = AXIS2_PLACEMENT_3D ( 'NONE', #150, #200, #38 ) ;
#52 = TOROIDAL_SURFACE ( 'NONE', #232, 2.705000000000000100, 0.1299999999999998700 ) ;
#53 = AXIS2_PLACEMENT_3D ( 'NONE', #246, #257, #227 ) ;
#54 = ORIENTED_EDGE ( 'NONE', *, *, #210, .F. ) ;
#55 = ADVANCED_FACE ( 'NONE', ( #298, #277 ), #9, .F. ) ;
#56 = CALENDAR_DATE ( 2017, 31, 7 ) ;
#57 = DIRECTION ( 'NONE',  ( 0.0000000000000000000, 0.0000000000000000000, -1.000000000000000000 ) ) ;
#58 = ORIENTED_EDGE ( 'NONE', *, *, #214, .F. ) ;
#59 = CARTESIAN_POINT ( 'NONE',  ( 3.162564936725636300, 0.0000000000000000000, -2.393510234242430800 ) ) ;
#60 = EDGE_LOOP ( 'NONE', ( #217 ) ) ;
#61 = FACE_BOUND ( 'NONE', #46, .T. ) ;
#62 = DATE_AND_TIME ( #166, #112 ) ;
#63 = ORIENTED_EDGE ( 'NONE', *, *, #99, .F. ) ;
#64 = DIRECTION ( 'NONE',  ( 1.000000000000000000, 0.0000000000000000000, 0.0000000000000000000 ) ) ;
#65 = EDGE_LOOP ( 'NONE', ( #285 ) ) ;
#66 = DIRECTION ( 'NONE',  ( 1.000000000000000000, 0.0000000000000000000, 0.0000000000000000000 ) ) ;
#67 = DIRECTION ( 'NONE',  ( -0.0000000000000000000, -0.0000000000000000000, 1.000000000000000000 ) ) ;
#68 = FACE_OUTER_BOUND ( 'NONE', #264, .T. ) ;
#69 = DIRECTION ( 'NONE',  ( 1.000000000000000000, 0.0000000000000000000, 0.0000000000000000000 ) ) ;
#70 = AXIS2_PLACEMENT_3D ( 'NONE', #258, #67, #66 ) ;
#71 = CIRCLE ( 'NONE', #25, 3.162564936725636300 ) ;
#72 = PLANE ( 'NONE',  #287 ) ;
#73 = LOCAL_TIME ( 15, 22, 11.00000000000000000, #21 ) ;
#74 = CYLINDRICAL_SURFACE ( 'NONE', #164, 3.935000000000000100 ) ;
#75 = PRODUCT_DEFINITION ( 'UNKNOWN', '', #131, #86 ) ;
#76 = FACE_OUTER_BOUND ( 'NONE', #149, .T. ) ;
#77 = FACE_OUTER_BOUND ( 'NONE', #124, .T. ) ;
#78 = SHAPE_DEFINITION_REPRESENTATION ( #303, #294 ) ;
#79 = CLOSED_SHELL ( 'NONE', ( #181, #132, #211, #55, #272, #249, #138, #242, #34, #299, #167 ) ) ;
#80 = CIRCLE ( 'NONE', #185, 2.574999999999999700 ) ;
#81 = FACE_OUTER_BOUND ( 'NONE', #98, .T. ) ;
#82 = AXIS2_PLACEMENT_3D ( 'NONE', #183, #223, #250 ) ;
#83 = CARTESIAN_POINT ( 'NONE',  ( 3.935000000000000100, 0.0000000000000000000, -3.000000000000000400 ) ) ;
#84 = FACE_OUTER_BOUND ( 'NONE', #65, .T. ) ;
#85 = DIRECTION ( 'NONE',  ( -0.0000000000000000000, -0.0000000000000000000, 1.000000000000000000 ) ) ;
#86 = DESIGN_CONTEXT ( 'detailed design', #116, 'design' ) ;
#87 = PERSON_AND_ORGANIZATION_ROLE ( 'classification_officer' ) ;
#88 = DIRECTION ( 'NONE',  ( 1.000000000000000000, 0.0000000000000000000, 0.0000000000000000000 ) ) ;
#89 = MANIFOLD_SOLID_BREP ( 'Fillet1', #79 ) ;
#90 = DIRECTION ( 'NONE',  ( -0.0000000000000000000, -0.0000000000000000000, 1.000000000000000000 ) ) ;
#91 =( GEOMETRIC_REPRESENTATION_CONTEXT ( 3 ) GLOBAL_UNCERTAINTY_ASSIGNED_CONTEXT ( ( #134 ) ) GLOBAL_UNIT_ASSIGNED_CONTEXT ( ( #45, #184, #160 ) ) REPRESENTATION_CONTEXT ( 'NONE', 'WORKASPACE' ) );
#92 = ORIENTED_EDGE ( 'NONE', *, *, #251, .F. ) ;
#93 = APPROVAL_PERSON_ORGANIZATION ( #267, #295, #308 ) ;
#94 = CIRCLE ( 'NONE', #245, 3.935000000000000100 ) ;
#95 = CARTESIAN_POINT ( 'NONE',  ( 0.0000000000000000000, 0.0000000000000000000, -1.120000000000000100 ) ) ;
#96 = ORIENTED_EDGE ( 'NONE', *, *, #35, .T. ) ;
#97 = DIRECTION ( 'NONE',  ( 0.0000000000000000000, 0.0000000000000000000, -1.000000000000000000 ) ) ;
#98 = EDGE_LOOP ( 'NONE', ( #302 ) ) ;
#99 = EDGE_CURVE ( 'NONE', #216, #216, #71, .T. ) ;
#100 = CARTESIAN_POINT ( 'NONE',  ( -3.279999999999999800, 0.0000000000000000000, -1.250000000000000000 ) ) ;
#101 = EDGE_LOOP ( 'NONE', ( #254 ) ) ;
#102 = CARTESIAN_POINT ( 'NONE',  ( 3.218000000000000400, 0.0000000000000000000, -2.500000000000000000 ) ) ;
#103 = CARTESIAN_POINT ( 'NONE',  ( 0.0000000000000000000, 0.0000000000000000000, -1.250000000000000000 ) ) ;
#104 = FACE_OUTER_BOUND ( 'NONE', #203, .T. ) ;
#105 = DIRECTION ( 'NONE',  ( 0.0000000000000000000, 0.0000000000000000000, -1.000000000000000000 ) ) ;
#106 = VERTEX_POINT ( 'NONE', #100 ) ;
#107 = DIRECTION ( 'NONE',  ( -0.0000000000000000000, -0.0000000000000000000, 1.000000000000000000 ) ) ;
#108 = EDGE_CURVE ( 'NONE', #270, #270, #141, .T. ) ;
#109 = CARTESIAN_POINT ( 'NONE',  ( 0.0000000000000000000, 0.0000000000000000000, 0.0000000000000000000 ) ) ;
#110 = APPROVAL_STATUS ( 'not_yet_approved' ) ;
#111 = DIRECTION ( 'NONE',  ( -0.0000000000000000000, -0.0000000000000000000, 1.000000000000000000 ) ) ;
#112 = LOCAL_TIME ( 15, 22, 11.00000000000000000, #2 ) ;
#113 = PERSON_AND_ORGANIZATION_ROLE ( 'creator' ) ;
#114 = LENGTH_MEASURE_WITH_UNIT ( LENGTH_MEASURE( 0.02539999999999999900 ), #152 );
#115 = VERTEX_POINT ( 'NONE', #161 ) ;
#116 = APPLICATION_CONTEXT ( 'configuration controlled 3d designs of mechanical parts and assemblies' ) ;
#117 = FACE_OUTER_BOUND ( 'NONE', #27, .T. ) ;
#118 = APPROVAL_DATE_TIME ( #265, #291 ) ;
#119 = CC_DESIGN_APPROVAL ( #291, ( #237 ) ) ;
#120 = EDGE_LOOP ( 'NONE', ( #247 ) ) ;
#121 = AXIS2_PLACEMENT_3D ( 'NONE', #281, #170, #148 ) ;
#122 = APPROVAL_PERSON_ORGANIZATION ( #36, #291, #173 ) ;
#123 = EDGE_CURVE ( 'NONE', #190, #190, #268, .T. ) ;
#124 = EDGE_LOOP ( 'NONE', ( #44 ) ) ;
#125 = CARTESIAN_POINT ( 'NONE',  ( 3.935000000000000100, 0.0000000000000000000, -1.250000000000000000 ) ) ;
#126 = DIRECTION ( 'NONE',  ( 1.000000000000000000, 0.0000000000000000000, 0.0000000000000000000 ) ) ;
#127 = FACE_BOUND ( 'NONE', #195, .T. ) ;
#128 = APPROVAL_ROLE ( '' ) ;
#129 = PERSON_AND_ORGANIZATION ( #201, #142 ) ;
#130 = DIRECTION ( 'NONE',  ( 1.000000000000000000, 0.0000000000000000000, 0.0000000000000000000 ) ) ;
#131 = PRODUCT_DEFINITION_FORMATION_WITH_SPECIFIED_SOURCE ( 'ANY', '', #151, .NOT_KNOWN. ) ;
#132 = ADVANCED_FACE ( 'NONE', ( #175, #61 ), #234, .F. ) ;
#133 = CARTESIAN_POINT ( 'NONE',  ( 0.0000000000000000000, 3.935000000000000100, -3.000000000000000400 ) ) ;
#134 = UNCERTAINTY_MEASURE_WITH_UNIT (LENGTH_MEASURE( 1.000000000000000100E-005 ), #45, 'distance_accuracy_value', 'NONE');
#135 = VERTEX_POINT ( 'NONE', #125 ) ;
#136 = EDGE_LOOP ( 'NONE', ( #239 ) ) ;
#137 = DATE_TIME_ROLE ( 'classification_date' ) ;
#138 = ADVANCED_FACE ( 'NONE', ( #127, #48 ), #72, .F. ) ;
#139 = DIRECTION ( 'NONE',  ( -0.0000000000000000000, -0.0000000000000000000, 1.000000000000000000 ) ) ;
#140 = CARTESIAN_POINT ( 'NONE',  ( 2.630435063274363800, 0.0000000000000000000, -2.020908885545270400 ) ) ;
#141 = CIRCLE ( 'NONE', #189, 3.935000000000000100 ) ;
#142 = ORGANIZATION ( 'UNSPECIFIED', 'UNSPECIFIED', '' ) ;
#143 = CYLINDRICAL_SURFACE ( 'NONE', #121, 2.575000000000000200 ) ;
#144 = EDGE_CURVE ( 'NONE', #147, #147, #14, .T. ) ;
#145 = LOCAL_TIME ( 15, 22, 11.00000000000000000, #229 ) ;
#146 = DATE_AND_TIME ( #276, #297 ) ;
#147 = VERTEX_POINT ( 'NONE', #102 ) ;
#148 = DIRECTION ( 'NONE',  ( 1.000000000000000000, 0.0000000000000000000, 0.0000000000000000000 ) ) ;
#149 = EDGE_LOOP ( 'NONE', ( #238 ) ) ;
#150 = CARTESIAN_POINT ( 'NONE',  ( 0.0000000000000000000, 0.0000000000000000000, -1.120000000000000100 ) ) ;
#151 = PRODUCT ( '581207585', '581207585', '', ( #283 ) ) ;
#152 =( LENGTH_UNIT ( ) NAMED_UNIT ( * ) SI_UNIT ( $, .METRE. ) );
#153 = DIRECTION ( 'NONE',  ( 0.0000000000000000000, 0.0000000000000000000, -1.000000000000000000 ) ) ;
#154 = DIRECTION ( 'NONE',  ( 1.000000000000000000, 0.0000000000000000000, 0.0000000000000000000 ) ) ;
#155 = DIRECTION ( 'NONE',  ( -1.000000000000000000, 0.0000000000000000000, 0.0000000000000000000 ) ) ;
#156 = CARTESIAN_POINT ( 'NONE',  ( 0.0000000000000000000, 0.0000000000000000000, -3.000000000000000400 ) ) ;
#157 = EDGE_CURVE ( 'NONE', #135, #135, #94, .T. ) ;
#158 = DIRECTION ( 'NONE',  ( 1.000000000000000000, 0.0000000000000000000, 0.0000000000000000000 ) ) ;
#159 = ORIENTED_EDGE ( 'NONE', *, *, #123, .F. ) ;
#160 =( NAMED_UNIT ( * ) SI_UNIT ( $, .STERADIAN. ) SOLID_ANGLE_UNIT ( ) );
#161 = CARTESIAN_POINT ( 'NONE',  ( 3.218000000000000000, 0.0000000000000000000, -3.000000000000000400 ) ) ;
#162 = CARTESIAN_POINT ( 'NONE',  ( 0.0000000000000000000, 0.0000000000000000000, -2.500000000000000000 ) ) ;
#163 = CC_DESIGN_PERSON_AND_ORGANIZATION_ASSIGNMENT ( #235, #113, ( #131 ) ) ;
#164 = AXIS2_PLACEMENT_3D ( 'NONE', #177, #206, #15 ) ;
#165 = TOROIDAL_SURFACE ( 'NONE', #266, 3.279999999999999800, 0.1300000000000000000 ) ;
#166 = CALENDAR_DATE ( 2017, 31, 7 ) ;
#167 = ADVANCED_FACE ( 'NONE', ( #104, #81 ), #165, .F. ) ;
#168 = CC_DESIGN_DATE_AND_TIME_ASSIGNMENT ( #301, #137, ( #237 ) ) ;
#169 = ORIENTED_EDGE ( 'NONE', *, *, #192, .F. ) ;
#170 = DIRECTION ( 'NONE',  ( -0.0000000000000000000, -0.0000000000000000000, 1.000000000000000000 ) ) ;
#171 = EDGE_LOOP ( 'NONE', ( #58 ) ) ;
#172 = DIRECTION ( 'NONE',  ( -0.0000000000000000000, -0.0000000000000000000, 1.000000000000000000 ) ) ;
#173 = APPROVAL_ROLE ( '' ) ;
#174 = CARTESIAN_POINT ( 'NONE',  ( 0.0000000000000000000, 0.0000000000000000000, -2.020908885545270400 ) ) ;
#175 = FACE_OUTER_BOUND ( 'NONE', #20, .T. ) ;
#176 = PERSON_AND_ORGANIZATION ( #201, #142 ) ;
#177 = CARTESIAN_POINT ( 'NONE',  ( 0.0000000000000000000, 0.0000000000000000000, 0.0000000000000000000 ) ) ;
#178 = CC_DESIGN_PERSON_AND_ORGANIZATION_ASSIGNMENT ( #129, #87, ( #237 ) ) ;
#179 = VERTEX_POINT ( 'NONE', #312 ) ;
#180 = CARTESIAN_POINT ( 'NONE',  ( 0.0000000000000000000, 0.0000000000000000000, 0.0000000000000000000 ) ) ;
#181 = ADVANCED_FACE ( 'NONE', ( #202, #261 ), #52, .T. ) ;
#182 = DIRECTION ( 'NONE',  ( -0.0000000000000000000, -0.0000000000000000000, 1.000000000000000000 ) ) ;
#183 = CARTESIAN_POINT ( 'NONE',  ( 0.0000000000000000000, 2.574999999999999700, 0.0000000000000000000 ) ) ;
#184 =( NAMED_UNIT ( * ) PLANE_ANGLE_UNIT ( ) SI_UNIT ( $, .RADIAN. ) );
#185 = AXIS2_PLACEMENT_3D ( 'NONE', #180, #307, #154 ) ;
#186 = APPLICATION_PROTOCOL_DEFINITION ( 'international standard', 'config_control_design', 1994, #116 ) ;
#187 = CARTESIAN_POINT ( 'NONE',  ( 0.0000000000000000000, 0.0000000000000000000, -1.914419119787701200 ) ) ;
#188 = COORDINATED_UNIVERSAL_TIME_OFFSET ( 5, 0, .BEHIND. ) ;
#189 = AXIS2_PLACEMENT_3D ( 'NONE', #290, #172, #158 ) ;
#190 = VERTEX_POINT ( 'NONE', #224 ) ;
#191 = EDGE_LOOP ( 'NONE', ( #296 ) ) ;
#192 = EDGE_CURVE ( 'NONE', #263, #263, #241, .T. ) ;
#193 = ORIENTED_EDGE ( 'NONE', *, *, #220, .T. ) ;
#194 = CC_DESIGN_PERSON_AND_ORGANIZATION_ASSIGNMENT ( #207, #288, ( #151 ) ) ;
#195 = EDGE_LOOP ( 'NONE', ( #193 ) ) ;
#196 = APPROVAL_PERSON_ORGANIZATION ( #271, #311, #128 ) ;
#197 = FACE_OUTER_BOUND ( 'NONE', #120, .T. ) ;
#198 = APPLICATION_CONTEXT ( 'configuration controlled 3d designs of mechanical parts and assemblies' ) ;
#199 = AXIS2_PLACEMENT_3D ( 'NONE', #156, #182, #274 ) ;
#200 = DIRECTION ( 'NONE',  ( -0.0000000000000000000, -0.0000000000000000000, 1.000000000000000000 ) ) ;
#201 = PERSON ( 'UNSPECIFIED', 'UNSPECIFIED', 'UNSPECIFIED', ('UNSPECIFIED'), ('UNSPECIFIED'), ('UNSPECIFIED') ) ;
#202 = FACE_OUTER_BOUND ( 'NONE', #50, .T. ) ;
#203 = EDGE_LOOP ( 'NONE', ( #3 ) ) ;
#204 = PERSON_AND_ORGANIZATION_ROLE ( 'creator' ) ;
#205 = CIRCLE ( 'NONE', #28, 3.149999999999999900 ) ;
#206 = DIRECTION ( 'NONE',  ( -0.0000000000000000000, -0.0000000000000000000, 1.000000000000000000 ) ) ;
#207 = PERSON_AND_ORGANIZATION ( #201, #142 ) ;
#208 = DIRECTION ( 'NONE',  ( 1.000000000000000000, 0.0000000000000000000, 0.0000000000000000000 ) ) ;
#209 = CARTESIAN_POINT ( 'NONE',  ( 0.0000000000000000000, 0.0000000000000000000, -1.914419119787701200 ) ) ;
#210 = EDGE_CURVE ( 'NONE', #179, #179, #205, .T. ) ;
#211 = ADVANCED_FACE ( 'NONE', ( #76, #279 ), #269, .F. ) ;
#212 = CARTESIAN_POINT ( 'NONE',  ( 2.574999999999999700, 0.0000000000000000000, 0.0000000000000000000 ) ) ;
#213 = EDGE_LOOP ( 'NONE', ( #33 ) ) ;
#214 = EDGE_CURVE ( 'NONE', #115, #115, #236, .T. ) ;
#215 = CALENDAR_DATE ( 2017, 31, 7 ) ;
#216 = VERTEX_POINT ( 'NONE', #59 ) ;
#217 = ORIENTED_EDGE ( 'NONE', *, *, #123, .T. ) ;
#218 = AXIS2_PLACEMENT_3D ( 'NONE', #4, #286, #208 ) ;
#219 = CC_DESIGN_APPROVAL ( #311, ( #75 ) ) ;
#220 = EDGE_CURVE ( 'NONE', #106, #106, #233, .T. ) ;
#221 = EDGE_LOOP ( 'NONE', ( #92 ) ) ;
#222 = DIRECTION ( 'NONE',  ( 1.000000000000000000, 0.0000000000000000000, 0.0000000000000000000 ) ) ;
#223 = DIRECTION ( 'NONE',  ( 0.0000000000000000000, 0.0000000000000000000, -1.000000000000000000 ) ) ;
#224 = CARTESIAN_POINT ( 'NONE',  ( 2.575000000000000600, 0.0000000000000000000, -1.914419119787701200 ) ) ;
#225 = APPROVAL_STATUS ( 'not_yet_approved' ) ;
#226 = CIRCLE ( 'NONE', #51, 3.149999999999999900 ) ;
#227 = DIRECTION ( 'NONE',  ( 1.000000000000000000, 0.0000000000000000000, 0.0000000000000000000 ) ) ;
#228 = CARTESIAN_POINT ( 'NONE',  ( 0.0000000000000000000, 0.0000000000000000000, -2.393510234242430800 ) ) ;
#229 = COORDINATED_UNIVERSAL_TIME_OFFSET ( 5, 0, .BEHIND. ) ;
#230 = FACE_OUTER_BOUND ( 'NONE', #32, .T. ) ;
#231 = CARTESIAN_POINT ( 'NONE',  ( 0.0000000000000000000, 0.0000000000000000000, 0.0000000000000000000 ) ) ;
#232 = AXIS2_PLACEMENT_3D ( 'NONE', #187, #284, #222 ) ;
#233 = CIRCLE ( 'NONE', #306, 3.279999999999999800 ) ;
#234 = CONICAL_SURFACE ( 'NONE', #7, 2.630435063274363800, 0.9599310885968805900 ) ;
#235 = PERSON_AND_ORGANIZATION ( #201, #142 ) ;
#236 = CIRCLE ( 'NONE', #199, 3.218000000000000000 ) ;
#237 = SECURITY_CLASSIFICATION ( '', '', #282 ) ;
#238 = ORIENTED_EDGE ( 'NONE', *, *, #144, .F. ) ;
#239 = ORIENTED_EDGE ( 'NONE', *, *, #99, .T. ) ;
#240 = APPROVAL_DATE_TIME ( #62, #295 ) ;
#241 = CIRCLE ( 'NONE', #70, 2.630435063274363800 ) ;
#242 = ADVANCED_FACE ( 'NONE', ( #68, #117 ), #6, .T. ) ;
#243 = EDGE_LOOP ( 'NONE', ( #159 ) ) ;
#244 = FACE_OUTER_BOUND ( 'NONE', #243, .T. ) ;
#245 = AXIS2_PLACEMENT_3D ( 'NONE', #259, #111, #26 ) ;
#246 = CARTESIAN_POINT ( 'NONE',  ( 0.0000000000000000000, 0.0000000000000000000, 0.0000000000000000000 ) ) ;
#247 = ORIENTED_EDGE ( 'NONE', *, *, #251, .T. ) ;
#248 = AXIS2_PLACEMENT_3D ( 'NONE', #231, #90, #309 ) ;
#249 = ADVANCED_FACE ( 'NONE', ( #84, #16 ), #74, .T. ) ;
#250 = DIRECTION ( 'NONE',  ( -1.000000000000000000, 0.0000000000000000000, -0.0000000000000000000 ) ) ;
#251 = EDGE_CURVE ( 'NONE', #292, #292, #80, .T. ) ;
#252 = LOCAL_TIME ( 15, 22, 11.00000000000000000, #188 ) ;
#253 = PERSON_AND_ORGANIZATION_ROLE ( 'design_supplier' ) ;
#254 = ORIENTED_EDGE ( 'NONE', *, *, #157, .T. ) ;
#255 = VERTEX_POINT ( 'NONE', #41 ) ;
#256 = CC_DESIGN_APPROVAL ( #295, ( #131 ) ) ;
#257 = DIRECTION ( 'NONE',  ( 0.0000000000000000000, 0.0000000000000000000, 1.000000000000000000 ) ) ;
#258 = CARTESIAN_POINT ( 'NONE',  ( 0.0000000000000000000, 0.0000000000000000000, -2.020908885545270400 ) ) ;
#259 = CARTESIAN_POINT ( 'NONE',  ( 0.0000000000000000000, 0.0000000000000000000, -1.250000000000000000 ) ) ;
#260 = AXIS2_PLACEMENT_3D ( 'NONE', #162, #29, #69 ) ;
#261 = FACE_OUTER_BOUND ( 'NONE', #60, .T. ) ;
#262 = DIRECTION ( 'NONE',  ( -1.000000000000000000, 0.0000000000000000000, -0.0000000000000000000 ) ) ;
#263 = VERTEX_POINT ( 'NONE', #140 ) ;
#264 = EDGE_LOOP ( 'NONE', ( #96 ) ) ;
#265 = DATE_AND_TIME ( #11, #145 ) ;
#266 = AXIS2_PLACEMENT_3D ( 'NONE', #95, #57, #23 ) ;
#267 = PERSON_AND_ORGANIZATION ( #201, #142 ) ;
#268 = CIRCLE ( 'NONE', #1, 2.575000000000000600 ) ;
#269 = TOROIDAL_SURFACE ( 'NONE', #218, 3.088000000000000100, 0.1300000000000005300 ) ;
#270 = VERTEX_POINT ( 'NONE', #83 ) ;
#271 = PERSON_AND_ORGANIZATION ( #201, #142 ) ;
#272 = ADVANCED_FACE ( 'NONE', ( #77, #293 ), #18, .F. ) ;
#273 = CC_DESIGN_PERSON_AND_ORGANIZATION_ASSIGNMENT ( #176, #253, ( #131 ) ) ;
#274 = DIRECTION ( 'NONE',  ( 1.000000000000000000, 0.0000000000000000000, 0.0000000000000000000 ) ) ;
#275 = CARTESIAN_POINT ( 'NONE',  ( 0.0000000000000000000, 0.0000000000000000000, 0.0000000000000000000 ) ) ;
#276 = CALENDAR_DATE ( 2017, 31, 7 ) ;
#277 = FACE_OUTER_BOUND ( 'NONE', #5, .T. ) ;
#278 = DIRECTION ( 'NONE',  ( -1.000000000000000000, 0.0000000000000000000, 0.0000000000000000000 ) ) ;
#279 = FACE_OUTER_BOUND ( 'NONE', #136, .T. ) ;
#280 = DIRECTION ( 'NONE',  ( 0.0000000000000000000, -0.0000000000000000000, 1.000000000000000000 ) ) ;
#281 = CARTESIAN_POINT ( 'NONE',  ( 0.0000000000000000000, 0.0000000000000000000, 0.0000000000000000000 ) ) ;
#282 = SECURITY_CLASSIFICATION_LEVEL ( 'unclassified' ) ;
#283 = MECHANICAL_CONTEXT ( 'NONE', #198, 'mechanical' ) ;
#284 = DIRECTION ( 'NONE',  ( -0.0000000000000000000, -0.0000000000000000000, 1.000000000000000000 ) ) ;
#285 = ORIENTED_EDGE ( 'NONE', *, *, #157, .F. ) ;
#286 = DIRECTION ( 'NONE',  ( -0.0000000000000000000, -0.0000000000000000000, 1.000000000000000000 ) ) ;
#287 = AXIS2_PLACEMENT_3D ( 'NONE', #22, #97, #262 ) ;
#288 = PERSON_AND_ORGANIZATION_ROLE ( 'design_owner' ) ;
#289 = AXIS2_PLACEMENT_3D ( 'NONE', #133, #280, #130 ) ;
#290 = CARTESIAN_POINT ( 'NONE',  ( 0.0000000000000000000, 0.0000000000000000000, -3.000000000000000400 ) ) ;
#291 = APPROVAL ( #110, 'UNSPECIFIED' ) ;
#292 = VERTEX_POINT ( 'NONE', #212 ) ;
#293 = FACE_BOUND ( 'NONE', #213, .T. ) ;
#294 = ADVANCED_BREP_SHAPE_REPRESENTATION ( '581207585', ( #89, #53 ), #91 ) ;
#295 = APPROVAL ( #225, 'UNSPECIFIED' ) ;
#296 = ORIENTED_EDGE ( 'NONE', *, *, #108, .T. ) ;
#297 = LOCAL_TIME ( 15, 22, 11.00000000000000000, #37 ) ;
#298 = FACE_OUTER_BOUND ( 'NONE', #171, .T. ) ;
#299 = ADVANCED_FACE ( 'NONE', ( #244, #197 ), #143, .F. ) ;
#300 = DIMENSIONAL_EXPONENTS ( 1.000000000000000000, 0.0000000000000000000, 0.0000000000000000000, 0.0000000000000000000, 0.0000000000000000000, 0.0000000000000000000, 0.0000000000000000000 ) ;
#301 = DATE_AND_TIME ( #56, #252 ) ;
#302 = ORIENTED_EDGE ( 'NONE', *, *, #35, .F. ) ;
#303 = PRODUCT_DEFINITION_SHAPE ( 'NONE', 'NONE',  #75 ) ;
#304 = ORIENTED_EDGE ( 'NONE', *, *, #210, .T. ) ;
#305 = AXIS2_PLACEMENT_3D ( 'NONE', #275, #139, #126 ) ;
#306 = AXIS2_PLACEMENT_3D ( 'NONE', #103, #153, #155 ) ;
#307 = DIRECTION ( 'NONE',  ( -0.0000000000000000000, -0.0000000000000000000, 1.000000000000000000 ) ) ;
#308 = APPROVAL_ROLE ( '' ) ;
#309 = DIRECTION ( 'NONE',  ( 1.000000000000000000, 0.0000000000000000000, 0.0000000000000000000 ) ) ;
#310 = DIRECTION ( 'NONE',  ( 1.000000000000000000, 0.0000000000000000000, 0.0000000000000000000 ) ) ;
#311 = APPROVAL ( #24, 'UNSPECIFIED' ) ;
#312 = CARTESIAN_POINT ( 'NONE',  ( 3.149999999999999900, 0.0000000000000000000, 0.0000000000000000000 ) ) ;
ENDSEC;
END-ISO-10303-21;
