ISO-10303-21;
HEADER;
FILE_DESCRIPTION (( 'STEP AP203' ),
    '1' );
FILE_NAME ('581207625.STEP',
    '2017-07-31T19:28:26',
    ( '' ),
    ( '' ),
    'SwSTEP 2.0',
    'SolidWorks 2017',
    '' );
FILE_SCHEMA (( 'CONFIG_CONTROL_DESIGN' ));
ENDSEC;

DATA;
#1 = CALENDAR_DATE ( 2017, 31, 7 ) ;
#2 = APPROVAL_DATE_TIME ( #253, #305 ) ;
#3 = DIRECTION ( 'NONE',  ( -0.0000000000000000000, -0.0000000000000000000, 1.000000000000000000 ) ) ;
#4 = CARTESIAN_POINT ( 'NONE',  ( 1.447000000000000100, 0.0000000000000000000, -1.697086812646786400 ) ) ;
#5 = DIRECTION ( 'NONE',  ( -0.0000000000000000000, -0.0000000000000000000, 1.000000000000000000 ) ) ;
#6 =( GEOMETRIC_REPRESENTATION_CONTEXT ( 3 ) GLOBAL_UNCERTAINTY_ASSIGNED_CONTEXT ( ( #172 ) ) GLOBAL_UNIT_ASSIGNED_CONTEXT ( ( #66, #238, #268 ) ) REPRESENTATION_CONTEXT ( 'NONE', 'WORKASPACE' ) );
#7 = EDGE_LOOP ( 'NONE', ( #83 ) ) ;
#8 = CARTESIAN_POINT ( 'NONE',  ( 0.0000000000000000000, 0.0000000000000000000, -1.697086812646786400 ) ) ;
#9 = CARTESIAN_POINT ( 'NONE',  ( 0.0000000000000000000, 0.0000000000000000000, -1.120000000000000100 ) ) ;
#10 = FACE_OUTER_BOUND ( 'NONE', #264, .T. ) ;
#11 = AXIS2_PLACEMENT_3D ( 'NONE', #297, #325, #302 ) ;
#12 = CARTESIAN_POINT ( 'NONE',  ( 0.0000000000000000000, 0.0000000000000000000, -1.250000000000000000 ) ) ;
#13 = CARTESIAN_POINT ( 'NONE',  ( 0.0000000000000000000, 0.0000000000000000000, -2.370000000000000100 ) ) ;
#14 = ADVANCED_FACE ( 'NONE', ( #105, #154 ), #23, .F. ) ;
#15 = APPROVAL_STATUS ( 'not_yet_approved' ) ;
#16 = CIRCLE ( 'NONE', #51, 4.025999999999999800 ) ;
#17 = DIRECTION ( 'NONE',  ( 1.000000000000000000, 0.0000000000000000000, 0.0000000000000000000 ) ) ;
#18 = ORIENTED_EDGE ( 'NONE', *, *, #163, .F. ) ;
#19 = PERSON_AND_ORGANIZATION ( #129, #220 ) ;
#20 = EDGE_LOOP ( 'NONE', ( #53 ) ) ;
#21 = PLANE ( 'NONE',  #46 ) ;
#22 = DIRECTION ( 'NONE',  ( -1.000000000000000000, 0.0000000000000000000, 0.0000000000000000000 ) ) ;
#23 = TOROIDAL_SURFACE ( 'NONE', #232, 3.896000000000000400, 0.1299999999999994200 ) ;
#24 = CARTESIAN_POINT ( 'NONE',  ( 0.0000000000000000000, 0.0000000000000000000, -1.350000000000000100 ) ) ;
#25 = VERTEX_POINT ( 'NONE', #93 ) ;
#26 = FACE_OUTER_BOUND ( 'NONE', #33, .T. ) ;
#27 = EDGE_LOOP ( 'NONE', ( #48 ) ) ;
#28 = EDGE_LOOP ( 'NONE', ( #147 ) ) ;
#29 = EDGE_LOOP ( 'NONE', ( #278 ) ) ;
#30 = PRODUCT_DEFINITION_FORMATION_WITH_SPECIFIED_SOURCE ( 'ANY', '', #171, .NOT_KNOWN. ) ;
#31 = AXIS2_PLACEMENT_3D ( 'NONE', #24, #166, #329 ) ;
#32 = CONICAL_SURFACE ( 'NONE', #324, 1.554425736903299400, 1.396263401595467600 ) ;
#33 = EDGE_LOOP ( 'NONE', ( #204 ) ) ;
#34 = DIRECTION ( 'NONE',  ( 0.0000000000000000000, 0.0000000000000000000, 1.000000000000000000 ) ) ;
#35 = CARTESIAN_POINT ( 'NONE',  ( 0.0000000000000000000, 0.0000000000000000000, 0.0000000000000000000 ) ) ;
#36 = AXIS2_PLACEMENT_3D ( 'NONE', #221, #164, #326 ) ;
#37 = DIRECTION ( 'NONE',  ( -0.0000000000000000000, -0.0000000000000000000, 1.000000000000000000 ) ) ;
#38 = FACE_OUTER_BOUND ( 'NONE', #180, .T. ) ;
#39 = ORIENTED_EDGE ( 'NONE', *, *, #263, .T. ) ;
#40 = PERSON_AND_ORGANIZATION_ROLE ( 'design_owner' ) ;
#41 = CARTESIAN_POINT ( 'NONE',  ( 0.0000000000000000000, 0.0000000000000000000, -1.250000000000000000 ) ) ;
#42 = CARTESIAN_POINT ( 'NONE',  ( 0.0000000000000000000, 0.0000000000000000000, -1.825111820538373400 ) ) ;
#43 = DIRECTION ( 'NONE',  ( -0.0000000000000000000, -0.0000000000000000000, 1.000000000000000000 ) ) ;
#44 = VERTEX_POINT ( 'NONE', #85 ) ;
#45 = LOCAL_TIME ( 15, 28, 26.00000000000000000, #174 ) ;
#46 = AXIS2_PLACEMENT_3D ( 'NONE', #267, #183, #276 ) ;
#47 = CIRCLE ( 'NONE', #100, 1.770000000000000000 ) ;
#48 = ORIENTED_EDGE ( 'NONE', *, *, #279, .T. ) ;
#49 = CIRCLE ( 'NONE', #31, 4.919999999999999900 ) ;
#50 = EDGE_LOOP ( 'NONE', ( #249 ) ) ;
#51 = AXIS2_PLACEMENT_3D ( 'NONE', #137, #37, #317 ) ;
#52 = VERTEX_POINT ( 'NONE', #127 ) ;
#53 = ORIENTED_EDGE ( 'NONE', *, *, #184, .T. ) ;
#54 = ORIENTED_EDGE ( 'NONE', *, *, #184, .F. ) ;
#55 = CC_DESIGN_PERSON_AND_ORGANIZATION_ASSIGNMENT ( #179, #40, ( #171 ) ) ;
#56 = DIRECTION ( 'NONE',  ( -0.0000000000000000000, -0.0000000000000000000, 1.000000000000000000 ) ) ;
#57 = FACE_OUTER_BOUND ( 'NONE', #27, .T. ) ;
#58 = DIRECTION ( 'NONE',  ( -0.0000000000000000000, -0.0000000000000000000, 1.000000000000000000 ) ) ;
#59 = APPROVAL_PERSON_ORGANIZATION ( #260, #305, #294 ) ;
#60 = CARTESIAN_POINT ( 'NONE',  ( 4.025999999999999800, 0.0000000000000000000, -2.370000000000000100 ) ) ;
#61 = APPROVAL_ROLE ( '' ) ;
#62 = CIRCLE ( 'NONE', #293, 1.899999999999999900 ) ;
#63 = AXIS2_PLACEMENT_3D ( 'NONE', #120, #274, #98 ) ;
#64 = EDGE_LOOP ( 'NONE', ( #332 ) ) ;
#65 = DIRECTION ( 'NONE',  ( 1.000000000000000000, 0.0000000000000000000, 0.0000000000000000000 ) ) ;
#66 =( CONVERSION_BASED_UNIT ( 'INCH', #307 ) LENGTH_UNIT ( ) NAMED_UNIT ( #319 ) );
#67 = ADVANCED_FACE ( 'NONE', ( #96, #318 ), #113, .F. ) ;
#68 = FACE_BOUND ( 'NONE', #70, .T. ) ;
#69 = MECHANICAL_CONTEXT ( 'NONE', #192, 'mechanical' ) ;
#70 = EDGE_LOOP ( 'NONE', ( #75 ) ) ;
#71 = DIRECTION ( 'NONE',  ( -1.000000000000000000, 0.0000000000000000000, 0.0000000000000000000 ) ) ;
#72 = CALENDAR_DATE ( 2017, 31, 7 ) ;
#73 = LOCAL_TIME ( 15, 28, 26.00000000000000000, #328 ) ;
#74 = AXIS2_PLACEMENT_3D ( 'NONE', #327, #156, #258 ) ;
#75 = ORIENTED_EDGE ( 'NONE', *, *, #207, .T. ) ;
#76 = AXIS2_PLACEMENT_3D ( 'NONE', #99, #225, #200 ) ;
#77 = ORIENTED_EDGE ( 'NONE', *, *, #169, .F. ) ;
#78 = EDGE_LOOP ( 'NONE', ( #77 ) ) ;
#79 = CONICAL_SURFACE ( 'NONE', #76, 4.819999999999999400, 0.7853981633974510500 ) ;
#80 = AXIS2_PLACEMENT_3D ( 'NONE', #223, #43, #199 ) ;
#81 = AXIS2_PLACEMENT_3D ( 'NONE', #35, #58, #287 ) ;
#82 = DIRECTION ( 'NONE',  ( 1.000000000000000000, 0.0000000000000000000, 0.0000000000000000000 ) ) ;
#83 = ORIENTED_EDGE ( 'NONE', *, *, #114, .F. ) ;
#84 = CARTESIAN_POINT ( 'NONE',  ( 0.0000000000000000000, 0.0000000000000000000, 0.0000000000000000000 ) ) ;
#85 = CARTESIAN_POINT ( 'NONE',  ( -4.819999999999999400, 0.0000000000000000000, -1.250000000000000000 ) ) ;
#86 = ORIENTED_EDGE ( 'NONE', *, *, #290, .T. ) ;
#87 = VERTEX_POINT ( 'NONE', #215 ) ;
#88 = AXIS2_PLACEMENT_3D ( 'NONE', #12, #230, #212 ) ;
#89 = APPROVAL_STATUS ( 'not_yet_approved' ) ;
#90 = DATE_TIME_ROLE ( 'classification_date' ) ;
#91 = CARTESIAN_POINT ( 'NONE',  ( 4.025999999999999800, 0.0000000000000000000, -3.000000000000000400 ) ) ;
#92 = AXIS2_PLACEMENT_3D ( 'NONE', #272, #97, #246 ) ;
#93 = CARTESIAN_POINT ( 'NONE',  ( -1.770000000000000000, 0.0000000000000000000, -1.120000000000000100 ) ) ;
#94 = ORIENTED_EDGE ( 'NONE', *, *, #257, .T. ) ;
#95 = DIRECTION ( 'NONE',  ( 1.000000000000000000, 0.0000000000000000000, 0.0000000000000000000 ) ) ;
#96 = FACE_OUTER_BOUND ( 'NONE', #122, .T. ) ;
#97 = DIRECTION ( 'NONE',  ( -0.0000000000000000000, -0.0000000000000000000, 1.000000000000000000 ) ) ;
#98 = DIRECTION ( 'NONE',  ( 1.000000000000000000, 0.0000000000000000000, 0.0000000000000000000 ) ) ;
#99 = CARTESIAN_POINT ( 'NONE',  ( 0.0000000000000000000, 0.0000000000000000000, -1.250000000000000000 ) ) ;
#100 = AXIS2_PLACEMENT_3D ( 'NONE', #9, #5, #313 ) ;
#101 = CC_DESIGN_DATE_AND_TIME_ASSIGNMENT ( #134, #90, ( #126 ) ) ;
#102 = CYLINDRICAL_SURFACE ( 'NONE', #11, 4.919999999999999900 ) ;
#103 = EDGE_LOOP ( 'NONE', ( #132 ) ) ;
#104 = CC_DESIGN_SECURITY_CLASSIFICATION ( #126, ( #30 ) ) ;
#105 = FACE_OUTER_BOUND ( 'NONE', #7, .T. ) ;
#106 = EDGE_CURVE ( 'NONE', #52, #52, #285, .T. ) ;
#107 = CARTESIAN_POINT ( 'NONE',  ( 0.0000000000000000000, 0.0000000000000000000, 0.0000000000000000000 ) ) ;
#108 = CARTESIAN_POINT ( 'NONE',  ( 4.919999999999999900, 0.0000000000000000000, -3.000000000000000400 ) ) ;
#109 = EDGE_LOOP ( 'NONE', ( #161 ) ) ;
#110 = PERSON_AND_ORGANIZATION_ROLE ( 'creator' ) ;
#111 = CARTESIAN_POINT ( 'NONE',  ( 3.918574263096700400, 0.0000000000000000000, -2.241974992108413600 ) ) ;
#112 = CC_DESIGN_PERSON_AND_ORGANIZATION_ASSIGNMENT ( #197, #234, ( #126 ) ) ;
#113 = CYLINDRICAL_SURFACE ( 'NONE', #275, 4.025999999999999800 ) ;
#114 = EDGE_CURVE ( 'NONE', #282, #282, #152, .T. ) ;
#115 = PRODUCT_DEFINITION_SHAPE ( 'NONE', 'NONE',  #240 ) ;
#116 = DIRECTION ( 'NONE',  ( 0.0000000000000000000, 0.0000000000000000000, -1.000000000000000000 ) ) ;
#117 = LOCAL_TIME ( 15, 28, 26.00000000000000000, #196 ) ;
#118 = AXIS2_PLACEMENT_3D ( 'NONE', #243, #143, #22 ) ;
#119 = PERSON_AND_ORGANIZATION ( #129, #220 ) ;
#120 = CARTESIAN_POINT ( 'NONE',  ( 0.0000000000000000000, 0.0000000000000000000, -3.000000000000000400 ) ) ;
#121 = TOROIDAL_SURFACE ( 'NONE', #202, 1.577000000000000000, 0.1299999999999998700 ) ;
#122 = EDGE_LOOP ( 'NONE', ( #311 ) ) ;
#123 = FACE_OUTER_BOUND ( 'NONE', #289, .T. ) ;
#124 = CALENDAR_DATE ( 2017, 31, 7 ) ;
#125 = FACE_OUTER_BOUND ( 'NONE', #78, .T. ) ;
#126 = SECURITY_CLASSIFICATION ( '', '', #262 ) ;
#127 = CARTESIAN_POINT ( 'NONE',  ( 1.446999999999999600, 0.0000000000000000000, 0.0000000000000000000 ) ) ;
#128 = FACE_OUTER_BOUND ( 'NONE', #103, .T. ) ;
#129 = PERSON ( 'UNSPECIFIED', 'UNSPECIFIED', 'UNSPECIFIED', ('UNSPECIFIED'), ('UNSPECIFIED'), ('UNSPECIFIED') ) ;
#130 = CARTESIAN_POINT ( 'NONE',  ( -1.899999999999999900, 0.0000000000000000000, -1.250000000000000000 ) ) ;
#131 = APPROVAL ( #15, 'UNSPECIFIED' ) ;
#132 = ORIENTED_EDGE ( 'NONE', *, *, #175, .T. ) ;
#133 = DIRECTION ( 'NONE',  ( 0.0000000000000000000, 0.0000000000000000000, -1.000000000000000000 ) ) ;
#134 = DATE_AND_TIME ( #124, #45 ) ;
#135 = CIRCLE ( 'NONE', #63, 4.919999999999999900 ) ;
#136 = DIRECTION ( 'NONE',  ( 1.000000000000000000, 0.0000000000000000000, 0.0000000000000000000 ) ) ;
#137 = CARTESIAN_POINT ( 'NONE',  ( 0.0000000000000000000, 0.0000000000000000000, -3.000000000000000400 ) ) ;
#138 = FACE_OUTER_BOUND ( 'NONE', #188, .T. ) ;
#139 = DIRECTION ( 'NONE',  ( -0.0000000000000000000, -0.0000000000000000000, 1.000000000000000000 ) ) ;
#140 = AXIS2_PLACEMENT_3D ( 'NONE', #8, #162, #17 ) ;
#141 = ADVANCED_FACE ( 'NONE', ( #138, #38 ), #269, .T. ) ;
#142 = PERSON_AND_ORGANIZATION ( #129, #220 ) ;
#143 = DIRECTION ( 'NONE',  ( 0.0000000000000000000, 0.0000000000000000000, -1.000000000000000000 ) ) ;
#144 = PLANE ( 'NONE',  #36 ) ;
#145 = CC_DESIGN_PERSON_AND_ORGANIZATION_ASSIGNMENT ( #142, #189, ( #240 ) ) ;
#146 = CIRCLE ( 'NONE', #165, 1.554425736903299400 ) ;
#147 = ORIENTED_EDGE ( 'NONE', *, *, #106, .T. ) ;
#148 = FACE_BOUND ( 'NONE', #280, .T. ) ;
#149 = EDGE_LOOP ( 'NONE', ( #86 ) ) ;
#150 = MANIFOLD_SOLID_BREP ( 'Chamfer1', #300 ) ;
#151 = DIRECTION ( 'NONE',  ( 1.000000000000000000, 0.0000000000000000000, 0.0000000000000000000 ) ) ;
#152 = CIRCLE ( 'NONE', #224, 4.025999999999999800 ) ;
#153 = DIRECTION ( 'NONE',  ( 1.000000000000000000, 0.0000000000000000000, 0.0000000000000000000 ) ) ;
#154 = FACE_OUTER_BOUND ( 'NONE', #50, .T. ) ;
#155 =( LENGTH_UNIT ( ) NAMED_UNIT ( * ) SI_UNIT ( $, .METRE. ) );
#156 = DIRECTION ( 'NONE',  ( 0.0000000000000000000, 0.0000000000000000000, -1.000000000000000000 ) ) ;
#157 = ADVANCED_FACE ( 'NONE', ( #10, #128 ), #102, .T. ) ;
#158 = DIRECTION ( 'NONE',  ( -1.000000000000000000, 0.0000000000000000000, 0.0000000000000000000 ) ) ;
#159 = VERTEX_POINT ( 'NONE', #231 ) ;
#160 = APPLICATION_PROTOCOL_DEFINITION ( 'international standard', 'config_control_design', 1994, #219 ) ;
#161 = ORIENTED_EDGE ( 'NONE', *, *, #279, .F. ) ;
#162 = DIRECTION ( 'NONE',  ( -0.0000000000000000000, -0.0000000000000000000, 1.000000000000000000 ) ) ;
#163 = EDGE_CURVE ( 'NONE', #306, #306, #62, .T. ) ;
#164 = DIRECTION ( 'NONE',  ( 0.0000000000000000000, 0.0000000000000000000, -1.000000000000000000 ) ) ;
#165 = AXIS2_PLACEMENT_3D ( 'NONE', #42, #195, #153 ) ;
#166 = DIRECTION ( 'NONE',  ( 0.0000000000000000000, 0.0000000000000000000, -1.000000000000000000 ) ) ;
#167 = ADVANCED_FACE ( 'NONE', ( #296, #148 ), #21, .F. ) ;
#168 = FACE_BOUND ( 'NONE', #29, .T. ) ;
#169 = EDGE_CURVE ( 'NONE', #159, #159, #49, .T. ) ;
#170 = CC_DESIGN_APPROVAL ( #305, ( #30 ) ) ;
#171 = PRODUCT ( '581207625', '581207625', '', ( #69 ) ) ;
#172 = UNCERTAINTY_MEASURE_WITH_UNIT (LENGTH_MEASURE( 1.000000000000000100E-005 ), #66, 'distance_accuracy_value', 'NONE');
#173 = AXIS2_PLACEMENT_3D ( 'NONE', #210, #34, #65 ) ;
#174 = COORDINATED_UNIVERSAL_TIME_OFFSET ( 5, 0, .BEHIND. ) ;
#175 = EDGE_CURVE ( 'NONE', #301, #301, #135, .T. ) ;
#176 = FACE_BOUND ( 'NONE', #64, .T. ) ;
#177 = ORIENTED_EDGE ( 'NONE', *, *, #201, .F. ) ;
#178 = DIRECTION ( 'NONE',  ( 1.000000000000000000, 0.0000000000000000000, 0.0000000000000000000 ) ) ;
#179 = PERSON_AND_ORGANIZATION ( #129, #220 ) ;
#180 = EDGE_LOOP ( 'NONE', ( #54 ) ) ;
#181 = VERTEX_POINT ( 'NONE', #322 ) ;
#182 = DATE_AND_TIME ( #72, #245 ) ;
#183 = DIRECTION ( 'NONE',  ( 0.0000000000000000000, -0.0000000000000000000, 1.000000000000000000 ) ) ;
#184 = EDGE_CURVE ( 'NONE', #87, #87, #310, .T. ) ;
#185 = COORDINATED_UNIVERSAL_TIME_OFFSET ( 5, 0, .BEHIND. ) ;
#186 = CIRCLE ( 'NONE', #92, 3.918574263096700400 ) ;
#187 = PERSON_AND_ORGANIZATION_ROLE ( 'design_supplier' ) ;
#188 = EDGE_LOOP ( 'NONE', ( #39 ) ) ;
#189 = PERSON_AND_ORGANIZATION_ROLE ( 'creator' ) ;
#190 = APPROVAL_ROLE ( '' ) ;
#191 = APPROVAL ( #214, 'UNSPECIFIED' ) ;
#192 = APPLICATION_CONTEXT ( 'configuration controlled 3d designs of mechanical parts and assemblies' ) ;
#193 = FACE_OUTER_BOUND ( 'NONE', #28, .T. ) ;
#194 = ADVANCED_FACE ( 'NONE', ( #125, #176 ), #79, .T. ) ;
#195 = DIRECTION ( 'NONE',  ( -0.0000000000000000000, -0.0000000000000000000, 1.000000000000000000 ) ) ;
#196 = COORDINATED_UNIVERSAL_TIME_OFFSET ( 5, 0, .BEHIND. ) ;
#197 = PERSON_AND_ORGANIZATION ( #129, #220 ) ;
#198 = LOCAL_TIME ( 15, 28, 26.00000000000000000, #185 ) ;
#199 = DIRECTION ( 'NONE',  ( 1.000000000000000000, 0.0000000000000000000, 0.0000000000000000000 ) ) ;
#200 = DIRECTION ( 'NONE',  ( -1.000000000000000000, 0.0000000000000000000, 0.0000000000000000000 ) ) ;
#201 = EDGE_CURVE ( 'NONE', #239, #239, #186, .T. ) ;
#202 = AXIS2_PLACEMENT_3D ( 'NONE', #271, #139, #178 ) ;
#203 = VERTEX_POINT ( 'NONE', #91 ) ;
#204 = ORIENTED_EDGE ( 'NONE', *, *, #207, .F. ) ;
#205 = DATE_AND_TIME ( #1, #117 ) ;
#206 = PERSON_AND_ORGANIZATION ( #129, #220 ) ;
#207 = EDGE_CURVE ( 'NONE', #181, #181, #146, .T. ) ;
#208 = SHAPE_DEFINITION_REPRESENTATION ( #115, #298 ) ;
#209 = DIRECTION ( 'NONE',  ( 1.000000000000000000, 0.0000000000000000000, 0.0000000000000000000 ) ) ;
#210 = CARTESIAN_POINT ( 'NONE',  ( 0.0000000000000000000, 0.0000000000000000000, 0.0000000000000000000 ) ) ;
#211 = EDGE_LOOP ( 'NONE', ( #259 ) ) ;
#212 = DIRECTION ( 'NONE',  ( -1.000000000000000000, 0.0000000000000000000, 0.0000000000000000000 ) ) ;
#213 = CC_DESIGN_DATE_AND_TIME_ASSIGNMENT ( #205, #233, ( #240 ) ) ;
#214 = APPROVAL_STATUS ( 'not_yet_approved' ) ;
#215 = CARTESIAN_POINT ( 'NONE',  ( 1.770000000000000000, 0.0000000000000000000, 0.0000000000000000000 ) ) ;
#216 = CC_DESIGN_PERSON_AND_ORGANIZATION_ASSIGNMENT ( #261, #110, ( #30 ) ) ;
#217 = FACE_OUTER_BOUND ( 'NONE', #20, .T. ) ;
#218 = ADVANCED_FACE ( 'NONE', ( #168, #217 ), #304, .F. ) ;
#219 = APPLICATION_CONTEXT ( 'configuration controlled 3d designs of mechanical parts and assemblies' ) ;
#220 = ORGANIZATION ( 'UNSPECIFIED', 'UNSPECIFIED', '' ) ;
#221 = CARTESIAN_POINT ( 'NONE',  ( 0.0000000000000000000, 1.770000000000000000, -1.250000000000000000 ) ) ;
#222 = CIRCLE ( 'NONE', #140, 1.447000000000000100 ) ;
#223 = CARTESIAN_POINT ( 'NONE',  ( 0.0000000000000000000, 0.0000000000000000000, 0.0000000000000000000 ) ) ;
#224 = AXIS2_PLACEMENT_3D ( 'NONE', #13, #241, #95 ) ;
#225 = DIRECTION ( 'NONE',  ( 0.0000000000000000000, 0.0000000000000000000, -1.000000000000000000 ) ) ;
#226 = CIRCLE ( 'NONE', #88, 4.819999999999999400 ) ;
#227 = CALENDAR_DATE ( 2017, 31, 7 ) ;
#228 = CC_DESIGN_PERSON_AND_ORGANIZATION_ASSIGNMENT ( #119, #187, ( #30 ) ) ;
#229 = FACE_OUTER_BOUND ( 'NONE', #149, .T. ) ;
#230 = DIRECTION ( 'NONE',  ( -0.0000000000000000000, -0.0000000000000000000, 1.000000000000000000 ) ) ;
#231 = CARTESIAN_POINT ( 'NONE',  ( -4.919999999999999900, 0.0000000000000000000, -1.350000000000000100 ) ) ;
#232 = AXIS2_PLACEMENT_3D ( 'NONE', #286, #256, #209 ) ;
#233 = DATE_TIME_ROLE ( 'creation_date' ) ;
#234 = PERSON_AND_ORGANIZATION_ROLE ( 'classification_officer' ) ;
#235 = CYLINDRICAL_SURFACE ( 'NONE', #81, 1.446999999999999800 ) ;
#236 = ADVANCED_FACE ( 'NONE', ( #229, #248 ), #144, .F. ) ;
#237 = ORIENTED_EDGE ( 'NONE', *, *, #169, .T. ) ;
#238 =( NAMED_UNIT ( * ) PLANE_ANGLE_UNIT ( ) SI_UNIT ( $, .RADIAN. ) );
#239 = VERTEX_POINT ( 'NONE', #111 ) ;
#240 = PRODUCT_DEFINITION ( 'UNKNOWN', '', #30, #308 ) ;
#241 = DIRECTION ( 'NONE',  ( -0.0000000000000000000, -0.0000000000000000000, 1.000000000000000000 ) ) ;
#242 = FACE_OUTER_BOUND ( 'NONE', #321, .T. ) ;
#243 = CARTESIAN_POINT ( 'NONE',  ( 0.0000000000000000000, 0.0000000000000000000, -1.120000000000000100 ) ) ;
#244 = ADVANCED_FACE ( 'NONE', ( #123, #242 ), #273, .F. ) ;
#245 = LOCAL_TIME ( 15, 28, 26.00000000000000000, #251 ) ;
#246 = DIRECTION ( 'NONE',  ( 1.000000000000000000, 0.0000000000000000000, 0.0000000000000000000 ) ) ;
#247 = CC_DESIGN_APPROVAL ( #191, ( #126 ) ) ;
#248 = FACE_BOUND ( 'NONE', #211, .T. ) ;
#249 = ORIENTED_EDGE ( 'NONE', *, *, #201, .T. ) ;
#250 = EDGE_LOOP ( 'NONE', ( #292 ) ) ;
#251 = COORDINATED_UNIVERSAL_TIME_OFFSET ( 5, 0, .BEHIND. ) ;
#252 = APPROVAL_DATE_TIME ( #182, #131 ) ;
#253 = DATE_AND_TIME ( #316, #73 ) ;
#254 = APPROVAL_PERSON_ORGANIZATION ( #206, #191, #61 ) ;
#255 = AXIS2_PLACEMENT_3D ( 'NONE', #107, #309, #82 ) ;
#256 = DIRECTION ( 'NONE',  ( -0.0000000000000000000, -0.0000000000000000000, 1.000000000000000000 ) ) ;
#257 = EDGE_CURVE ( 'NONE', #203, #203, #16, .T. ) ;
#258 = DIRECTION ( 'NONE',  ( -1.000000000000000000, 0.0000000000000000000, -0.0000000000000000000 ) ) ;
#259 = ORIENTED_EDGE ( 'NONE', *, *, #163, .T. ) ;
#260 = PERSON_AND_ORGANIZATION ( #129, #220 ) ;
#261 = PERSON_AND_ORGANIZATION ( #129, #220 ) ;
#262 = SECURITY_CLASSIFICATION_LEVEL ( 'unclassified' ) ;
#263 = EDGE_CURVE ( 'NONE', #25, #25, #47, .T. ) ;
#264 = EDGE_LOOP ( 'NONE', ( #237 ) ) ;
#265 = EDGE_LOOP ( 'NONE', ( #299 ) ) ;
#266 = ADVANCED_FACE ( 'NONE', ( #26, #57 ), #121, .T. ) ;
#267 = CARTESIAN_POINT ( 'NONE',  ( 0.0000000000000000000, 4.919999999999999900, -3.000000000000000400 ) ) ;
#268 =( NAMED_UNIT ( * ) SI_UNIT ( $, .STERADIAN. ) SOLID_ANGLE_UNIT ( ) );
#269 = CYLINDRICAL_SURFACE ( 'NONE', #330, 1.770000000000000000 ) ;
#270 = ADVANCED_FACE ( 'NONE', ( #331, #193 ), #235, .F. ) ;
#271 = CARTESIAN_POINT ( 'NONE',  ( 0.0000000000000000000, 0.0000000000000000000, -1.697086812646786400 ) ) ;
#272 = CARTESIAN_POINT ( 'NONE',  ( 0.0000000000000000000, 0.0000000000000000000, -2.241974992108413600 ) ) ;
#273 = TOROIDAL_SURFACE ( 'NONE', #118, 1.899999999999999900, 0.1300000000000000000 ) ;
#274 = DIRECTION ( 'NONE',  ( -0.0000000000000000000, -0.0000000000000000000, 1.000000000000000000 ) ) ;
#275 = AXIS2_PLACEMENT_3D ( 'NONE', #84, #56, #151 ) ;
#276 = DIRECTION ( 'NONE',  ( 1.000000000000000000, 0.0000000000000000000, 0.0000000000000000000 ) ) ;
#277 = VERTEX_POINT ( 'NONE', #4 ) ;
#278 = ORIENTED_EDGE ( 'NONE', *, *, #106, .F. ) ;
#279 = EDGE_CURVE ( 'NONE', #277, #277, #222, .T. ) ;
#280 = EDGE_LOOP ( 'NONE', ( #94 ) ) ;
#281 = DATE_AND_TIME ( #227, #198 ) ;
#282 = VERTEX_POINT ( 'NONE', #60 ) ;
#283 = PRODUCT_RELATED_PRODUCT_CATEGORY ( 'detail', '', ( #171 ) ) ;
#284 = CARTESIAN_POINT ( 'NONE',  ( 0.0000000000000000000, 0.0000000000000000000, 0.0000000000000000000 ) ) ;
#285 = CIRCLE ( 'NONE', #255, 1.446999999999999600 ) ;
#286 = CARTESIAN_POINT ( 'NONE',  ( 0.0000000000000000000, 0.0000000000000000000, -2.370000000000000100 ) ) ;
#287 = DIRECTION ( 'NONE',  ( 1.000000000000000000, 0.0000000000000000000, 0.0000000000000000000 ) ) ;
#288 = APPROVAL_PERSON_ORGANIZATION ( #19, #131, #190 ) ;
#289 = EDGE_LOOP ( 'NONE', ( #18 ) ) ;
#290 = EDGE_CURVE ( 'NONE', #44, #44, #226, .T. ) ;
#291 = CARTESIAN_POINT ( 'NONE',  ( 0.0000000000000000000, 0.0000000000000000000, -1.825111820538373400 ) ) ;
#292 = ORIENTED_EDGE ( 'NONE', *, *, #175, .F. ) ;
#293 = AXIS2_PLACEMENT_3D ( 'NONE', #41, #116, #71 ) ;
#294 = APPROVAL_ROLE ( '' ) ;
#295 = APPLICATION_PROTOCOL_DEFINITION ( 'international standard', 'config_control_design', 1994, #192 ) ;
#296 = FACE_OUTER_BOUND ( 'NONE', #250, .T. ) ;
#297 = CARTESIAN_POINT ( 'NONE',  ( 0.0000000000000000000, 0.0000000000000000000, 0.0000000000000000000 ) ) ;
#298 = ADVANCED_BREP_SHAPE_REPRESENTATION ( '581207625', ( #150, #173 ), #6 ) ;
#299 = ORIENTED_EDGE ( 'NONE', *, *, #114, .T. ) ;
#300 = CLOSED_SHELL ( 'NONE', ( #266, #323, #14, #67, #167, #157, #236, #141, #218, #270, #244, #194 ) ) ;
#301 = VERTEX_POINT ( 'NONE', #108 ) ;
#302 = DIRECTION ( 'NONE',  ( 1.000000000000000000, 0.0000000000000000000, 0.0000000000000000000 ) ) ;
#303 = APPROVAL_DATE_TIME ( #281, #191 ) ;
#304 = PLANE ( 'NONE',  #74 ) ;
#305 = APPROVAL ( #89, 'UNSPECIFIED' ) ;
#306 = VERTEX_POINT ( 'NONE', #130 ) ;
#307 = LENGTH_MEASURE_WITH_UNIT ( LENGTH_MEASURE( 0.02539999999999999900 ), #155 );
#308 = DESIGN_CONTEXT ( 'detailed design', #219, 'design' ) ;
#309 = DIRECTION ( 'NONE',  ( -0.0000000000000000000, -0.0000000000000000000, 1.000000000000000000 ) ) ;
#310 = CIRCLE ( 'NONE', #80, 1.770000000000000000 ) ;
#311 = ORIENTED_EDGE ( 'NONE', *, *, #257, .F. ) ;
#312 = ORIENTED_EDGE ( 'NONE', *, *, #263, .F. ) ;
#313 = DIRECTION ( 'NONE',  ( -1.000000000000000000, 0.0000000000000000000, 0.0000000000000000000 ) ) ;
#314 = CC_DESIGN_APPROVAL ( #131, ( #240 ) ) ;
#315 = FACE_OUTER_BOUND ( 'NONE', #320, .T. ) ;
#316 = CALENDAR_DATE ( 2017, 31, 7 ) ;
#317 = DIRECTION ( 'NONE',  ( 1.000000000000000000, 0.0000000000000000000, 0.0000000000000000000 ) ) ;
#318 = FACE_OUTER_BOUND ( 'NONE', #265, .T. ) ;
#319 = DIMENSIONAL_EXPONENTS ( 1.000000000000000000, 0.0000000000000000000, 0.0000000000000000000, 0.0000000000000000000, 0.0000000000000000000, 0.0000000000000000000, 0.0000000000000000000 ) ;
#320 = EDGE_LOOP ( 'NONE', ( #177 ) ) ;
#321 = EDGE_LOOP ( 'NONE', ( #312 ) ) ;
#322 = CARTESIAN_POINT ( 'NONE',  ( 1.554425736903299400, 0.0000000000000000000, -1.825111820538373400 ) ) ;
#323 = ADVANCED_FACE ( 'NONE', ( #315, #68 ), #32, .F. ) ;
#324 = AXIS2_PLACEMENT_3D ( 'NONE', #291, #133, #158 ) ;
#325 = DIRECTION ( 'NONE',  ( -0.0000000000000000000, -0.0000000000000000000, 1.000000000000000000 ) ) ;
#326 = DIRECTION ( 'NONE',  ( -1.000000000000000000, 0.0000000000000000000, -0.0000000000000000000 ) ) ;
#327 = CARTESIAN_POINT ( 'NONE',  ( 0.0000000000000000000, 1.446999999999999600, 0.0000000000000000000 ) ) ;
#328 = COORDINATED_UNIVERSAL_TIME_OFFSET ( 5, 0, .BEHIND. ) ;
#329 = DIRECTION ( 'NONE',  ( -1.000000000000000000, 0.0000000000000000000, 0.0000000000000000000 ) ) ;
#330 = AXIS2_PLACEMENT_3D ( 'NONE', #284, #3, #136 ) ;
#331 = FACE_OUTER_BOUND ( 'NONE', #109, .T. ) ;
#332 = ORIENTED_EDGE ( 'NONE', *, *, #290, .F. ) ;
ENDSEC;
END-ISO-10303-21;
