ISO-10303-21;
HEADER;
FILE_DESCRIPTION (( 'STEP AP203' ),
    '1' );
FILE_NAME ('581207626.STEP',
    '2017-07-31T19:39:31',
    ( '' ),
    ( '' ),
    'SwSTEP 2.0',
    'SolidWorks 2017',
    '' );
FILE_SCHEMA (( 'CONFIG_CONTROL_DESIGN' ));
ENDSEC;

DATA;
#1 = PERSON_AND_ORGANIZATION ( #134, #137 ) ;
#2 = ORIENTED_EDGE ( 'NONE', *, *, #205, .F. ) ;
#3 = EDGE_LOOP ( 'NONE', ( #225 ) ) ;
#4 = DIRECTION ( 'NONE',  ( -1.000000000000000000, 0.0000000000000000000, 0.0000000000000000000 ) ) ;
#5 = APPROVAL_DATE_TIME ( #206, #11 ) ;
#6 = PERSON_AND_ORGANIZATION ( #134, #137 ) ;
#7 = CIRCLE ( 'NONE', #304, 4.919999999999999900 ) ;
#8 = FACE_OUTER_BOUND ( 'NONE', #187, .T. ) ;
#9 = EDGE_CURVE ( 'NONE', #164, #164, #71, .T. ) ;
#10 = CARTESIAN_POINT ( 'NONE',  ( 1.863647619362185100, 0.0000000000000000000, -1.824683552359218600 ) ) ;
#11 = APPROVAL ( #98, 'UNSPECIFIED' ) ;
#12 = CARTESIAN_POINT ( 'NONE',  ( 0.0000000000000000000, 0.0000000000000000000, 0.0000000000000000000 ) ) ;
#13 = CLOSED_SHELL ( 'NONE', ( #305, #289, #233, #248, #157, #46, #227, #291, #204, #298, #14 ) ) ;
#14 = ADVANCED_FACE ( 'NONE', ( #52, #110 ), #82, .F. ) ;
#15 = PLANE ( 'NONE',  #130 ) ;
#16 = DIRECTION ( 'NONE',  ( 0.0000000000000000000, -0.0000000000000000000, 1.000000000000000000 ) ) ;
#17 = CC_DESIGN_PERSON_AND_ORGANIZATION_ASSIGNMENT ( #1, #102, ( #108 ) ) ;
#18 = ADVANCED_BREP_SHAPE_REPRESENTATION ( '581207626', ( #85, #152 ), #57 ) ;
#19 = CARTESIAN_POINT ( 'NONE',  ( 0.0000000000000000000, 0.0000000000000000000, -1.250000000000000000 ) ) ;
#20 = AXIS2_PLACEMENT_3D ( 'NONE', #53, #242, #4 ) ;
#21 = FACE_OUTER_BOUND ( 'NONE', #74, .T. ) ;
#22 = APPROVAL_PERSON_ORGANIZATION ( #241, #11, #266 ) ;
#23 = ORIENTED_EDGE ( 'NONE', *, *, #112, .F. ) ;
#24 = AXIS2_PLACEMENT_3D ( 'NONE', #12, #287, #192 ) ;
#25 = EDGE_LOOP ( 'NONE', ( #267 ) ) ;
#26 = CC_DESIGN_PERSON_AND_ORGANIZATION_ASSIGNMENT ( #153, #193, ( #163 ) ) ;
#27 = DIRECTION ( 'NONE',  ( 1.000000000000000000, 0.0000000000000000000, 0.0000000000000000000 ) ) ;
#28 = AXIS2_PLACEMENT_3D ( 'NONE', #251, #176, #97 ) ;
#29 = CYLINDRICAL_SURFACE ( 'NONE', #24, 1.771000000000000100 ) ;
#30 = COORDINATED_UNIVERSAL_TIME_OFFSET ( 5, 0, .BEHIND. ) ;
#31 = ORIENTED_EDGE ( 'NONE', *, *, #218, .T. ) ;
#32 = DIRECTION ( 'NONE',  ( 1.000000000000000000, 0.0000000000000000000, 0.0000000000000000000 ) ) ;
#33 = EDGE_LOOP ( 'NONE', ( #235 ) ) ;
#34 = APPROVAL_DATE_TIME ( #89, #232 ) ;
#35 = DIRECTION ( 'NONE',  ( -0.0000000000000000000, -0.0000000000000000000, 1.000000000000000000 ) ) ;
#36 = SHAPE_DEFINITION_REPRESENTATION ( #217, #18 ) ;
#37 = DIRECTION ( 'NONE',  ( 1.000000000000000000, 0.0000000000000000000, 0.0000000000000000000 ) ) ;
#38 =( LENGTH_UNIT ( ) NAMED_UNIT ( * ) SI_UNIT ( $, .METRE. ) );
#39 = DIRECTION ( 'NONE',  ( -0.0000000000000000000, -0.0000000000000000000, 1.000000000000000000 ) ) ;
#40 = CARTESIAN_POINT ( 'NONE',  ( 4.919999999999999900, 0.0000000000000000000, -3.000000000000000900 ) ) ;
#41 = VERTEX_POINT ( 'NONE', #65 ) ;
#42 = CARTESIAN_POINT ( 'NONE',  ( 0.0000000000000000000, 0.0000000000000000000, -3.000000000000000400 ) ) ;
#43 = APPLICATION_CONTEXT ( 'configuration controlled 3d designs of mechanical parts and assemblies' ) ;
#44 = VERTEX_POINT ( 'NONE', #40 ) ;
#45 = EDGE_LOOP ( 'NONE', ( #310 ) ) ;
#46 = ADVANCED_FACE ( 'NONE', ( #88, #113 ), #229, .T. ) ;
#47 = CC_DESIGN_DATE_AND_TIME_ASSIGNMENT ( #128, #284, ( #108 ) ) ;
#48 = EDGE_CURVE ( 'NONE', #288, #288, #84, .T. ) ;
#49 = TOROIDAL_SURFACE ( 'NONE', #118, 3.901000000000000200, 0.1249999999999999400 ) ;
#50 = CC_DESIGN_DATE_AND_TIME_ASSIGNMENT ( #93, #151, ( #163 ) ) ;
#51 = EDGE_LOOP ( 'NONE', ( #64 ) ) ;
#52 = FACE_OUTER_BOUND ( 'NONE', #87, .T. ) ;
#53 = CARTESIAN_POINT ( 'NONE',  ( 0.0000000000000000000, 0.0000000000000000000, -1.250000000000000000 ) ) ;
#54 = FACE_OUTER_BOUND ( 'NONE', #114, .T. ) ;
#55 = APPROVAL_PERSON_ORGANIZATION ( #6, #232, #231 ) ;
#56 = APPROVAL ( #168, 'UNSPECIFIED' ) ;
#57 =( GEOMETRIC_REPRESENTATION_CONTEXT ( 3 ) GLOBAL_UNCERTAINTY_ASSIGNED_CONTEXT ( ( #240 ) ) GLOBAL_UNIT_ASSIGNED_CONTEXT ( ( #147, #198, #249 ) ) REPRESENTATION_CONTEXT ( 'NONE', 'WORKASPACE' ) );
#58 = TOROIDAL_SURFACE ( 'NONE', #76, 1.895999999999999900, 0.1249999999999997200 ) ;
#59 = DIRECTION ( 'NONE',  ( -0.0000000000000000000, -0.0000000000000000000, 1.000000000000000000 ) ) ;
#60 = CARTESIAN_POINT ( 'NONE',  ( 0.0000000000000000000, 0.0000000000000000000, 0.0000000000000000000 ) ) ;
#61 = CARTESIAN_POINT ( 'NONE',  ( 0.0000000000000000000, 0.0000000000000000000, -1.120000000000000100 ) ) ;
#62 = APPROVAL_STATUS ( 'not_yet_approved' ) ;
#63 = PERSON_AND_ORGANIZATION_ROLE ( 'creator' ) ;
#64 = ORIENTED_EDGE ( 'NONE', *, *, #9, .T. ) ;
#65 = CARTESIAN_POINT ( 'NONE',  ( 4.025999999999999800, 0.0000000000000000000, -2.500000000000000000 ) ) ;
#66 = AXIS2_PLACEMENT_3D ( 'NONE', #127, #150, #141 ) ;
#67 = DIRECTION ( 'NONE',  ( -0.0000000000000000000, -0.0000000000000000000, 1.000000000000000000 ) ) ;
#68 = CC_DESIGN_PERSON_AND_ORGANIZATION_ASSIGNMENT ( #132, #63, ( #290 ) ) ;
#69 = DATE_AND_TIME ( #312, #165 ) ;
#70 = EDGE_LOOP ( 'NONE', ( #129 ) ) ;
#71 = CIRCLE ( 'NONE', #28, 1.863647619362185100 ) ;
#72 = FACE_BOUND ( 'NONE', #51, .T. ) ;
#73 = LOCAL_TIME ( 15, 39, 31.00000000000000000, #30 ) ;
#74 = EDGE_LOOP ( 'NONE', ( #161 ) ) ;
#75 = CC_DESIGN_APPROVAL ( #56, ( #290 ) ) ;
#76 = AXIS2_PLACEMENT_3D ( 'NONE', #257, #184, #247 ) ;
#77 = FACE_OUTER_BOUND ( 'NONE', #278, .T. ) ;
#78 = AXIS2_PLACEMENT_3D ( 'NONE', #221, #59, #244 ) ;
#79 = DIRECTION ( 'NONE',  ( -0.0000000000000000000, -0.0000000000000000000, 1.000000000000000000 ) ) ;
#80 = FACE_OUTER_BOUND ( 'NONE', #25, .T. ) ;
#81 = CC_DESIGN_PERSON_AND_ORGANIZATION_ASSIGNMENT ( #201, #264, ( #290 ) ) ;
#82 = TOROIDAL_SURFACE ( 'NONE', #270, 2.294999999999999900, 0.1300000000000000000 ) ;
#83 = DIRECTION ( 'NONE',  ( -1.000000000000000000, 0.0000000000000000000, 0.0000000000000000000 ) ) ;
#84 = CIRCLE ( 'NONE', #178, 4.919999999999999900 ) ;
#85 = MANIFOLD_SOLID_BREP ( 'Fillet1', #13 ) ;
#86 = CIRCLE ( 'NONE', #188, 4.025999999999999800 ) ;
#87 = EDGE_LOOP ( 'NONE', ( #124 ) ) ;
#88 = FACE_OUTER_BOUND ( 'NONE', #259, .T. ) ;
#89 = DATE_AND_TIME ( #272, #271 ) ;
#90 = DIRECTION ( 'NONE',  ( 0.0000000000000000000, 0.0000000000000000000, -1.000000000000000000 ) ) ;
#91 = DIRECTION ( 'NONE',  ( -0.0000000000000000000, -0.0000000000000000000, 1.000000000000000000 ) ) ;
#92 = CYLINDRICAL_SURFACE ( 'NONE', #203, 2.165000000000000000 ) ;
#93 = DATE_AND_TIME ( #239, #277 ) ;
#94 = CARTESIAN_POINT ( 'NONE',  ( 0.0000000000000000000, 0.0000000000000000000, 0.0000000000000000000 ) ) ;
#95 = APPLICATION_CONTEXT ( 'configuration controlled 3d designs of mechanical parts and assemblies' ) ;
#96 = CARTESIAN_POINT ( 'NONE',  ( 4.025999999999999800, 0.0000000000000000000, -3.000000000000000400 ) ) ;
#97 = DIRECTION ( 'NONE',  ( 1.000000000000000000, 0.0000000000000000000, 0.0000000000000000000 ) ) ;
#98 = APPROVAL_STATUS ( 'not_yet_approved' ) ;
#99 = ORIENTED_EDGE ( 'NONE', *, *, #269, .T. ) ;
#100 = EDGE_LOOP ( 'NONE', ( #260 ) ) ;
#101 = CARTESIAN_POINT ( 'NONE',  ( -2.165000000000000000, 0.0000000000000000000, -1.120000000000000100 ) ) ;
#102 = PERSON_AND_ORGANIZATION_ROLE ( 'classification_officer' ) ;
#103 = DIRECTION ( 'NONE',  ( -1.000000000000000000, 0.0000000000000000000, 0.0000000000000000000 ) ) ;
#104 = AXIS2_PLACEMENT_3D ( 'NONE', #301, #146, #226 ) ;
#105 = DIMENSIONAL_EXPONENTS ( 1.000000000000000000, 0.0000000000000000000, 0.0000000000000000000, 0.0000000000000000000, 0.0000000000000000000, 0.0000000000000000000, 0.0000000000000000000 ) ;
#106 = PERSON_AND_ORGANIZATION ( #134, #137 ) ;
#107 = EDGE_LOOP ( 'NONE', ( #2 ) ) ;
#108 = SECURITY_CLASSIFICATION ( '', '', #119 ) ;
#109 = CIRCLE ( 'NONE', #20, 2.294999999999999900 ) ;
#110 = FACE_OUTER_BOUND ( 'NONE', #230, .T. ) ;
#111 = EDGE_CURVE ( 'NONE', #255, #255, #258, .T. ) ;
#112 = EDGE_CURVE ( 'NONE', #214, #214, #219, .T. ) ;
#113 = FACE_OUTER_BOUND ( 'NONE', #154, .T. ) ;
#114 = EDGE_LOOP ( 'NONE', ( #177 ) ) ;
#115 = CARTESIAN_POINT ( 'NONE',  ( 1.770999999999999700, 0.0000000000000000000, 0.0000000000000000000 ) ) ;
#116 = LENGTH_MEASURE_WITH_UNIT ( LENGTH_MEASURE( 0.02539999999999999900 ), #38 );
#117 = FACE_BOUND ( 'NONE', #70, .T. ) ;
#118 = AXIS2_PLACEMENT_3D ( 'NONE', #133, #91, #37 ) ;
#119 = SECURITY_CLASSIFICATION_LEVEL ( 'unclassified' ) ;
#120 = CARTESIAN_POINT ( 'NONE',  ( 0.0000000000000000000, 0.0000000000000000000, -3.000000000000000900 ) ) ;
#121 = APPLICATION_PROTOCOL_DEFINITION ( 'international standard', 'config_control_design', 1994, #43 ) ;
#122 = COORDINATED_UNIVERSAL_TIME_OFFSET ( 5, 0, .BEHIND. ) ;
#123 = PLANE ( 'NONE',  #311 ) ;
#124 = ORIENTED_EDGE ( 'NONE', *, *, #269, .F. ) ;
#125 = MECHANICAL_CONTEXT ( 'NONE', #43, 'mechanical' ) ;
#126 = APPLICATION_PROTOCOL_DEFINITION ( 'international standard', 'config_control_design', 1994, #95 ) ;
#127 = CARTESIAN_POINT ( 'NONE',  ( 0.0000000000000000000, 0.0000000000000000000, 0.0000000000000000000 ) ) ;
#128 = DATE_AND_TIME ( #189, #73 ) ;
#129 = ORIENTED_EDGE ( 'NONE', *, *, #111, .T. ) ;
#130 = AXIS2_PLACEMENT_3D ( 'NONE', #173, #16, #145 ) ;
#131 = FACE_OUTER_BOUND ( 'NONE', #107, .T. ) ;
#132 = PERSON_AND_ORGANIZATION ( #134, #137 ) ;
#133 = CARTESIAN_POINT ( 'NONE',  ( 0.0000000000000000000, 0.0000000000000000000, -2.500000000000000000 ) ) ;
#134 = PERSON ( 'UNSPECIFIED', 'UNSPECIFIED', 'UNSPECIFIED', ('UNSPECIFIED'), ('UNSPECIFIED'), ('UNSPECIFIED') ) ;
#135 = CARTESIAN_POINT ( 'NONE',  ( 0.0000000000000000000, 0.0000000000000000000, 0.0000000000000000000 ) ) ;
#136 = FACE_OUTER_BOUND ( 'NONE', #33, .T. ) ;
#137 = ORGANIZATION ( 'UNSPECIFIED', 'UNSPECIFIED', '' ) ;
#138 = EDGE_LOOP ( 'NONE', ( #190 ) ) ;
#139 = CARTESIAN_POINT ( 'NONE',  ( 0.0000000000000000000, 0.0000000000000000000, 0.0000000000000000000 ) ) ;
#140 = CONICAL_SURFACE ( 'NONE', #234, 1.863647619362185100, 1.308996938995750300 ) ;
#141 = DIRECTION ( 'NONE',  ( 1.000000000000000000, 0.0000000000000000000, 0.0000000000000000000 ) ) ;
#142 = EDGE_LOOP ( 'NONE', ( #99 ) ) ;
#143 = AXIS2_PLACEMENT_3D ( 'NONE', #283, #90, #263 ) ;
#144 = DIRECTION ( 'NONE',  ( -1.000000000000000000, 0.0000000000000000000, 0.0000000000000000000 ) ) ;
#145 = DIRECTION ( 'NONE',  ( 1.000000000000000000, 0.0000000000000000000, 0.0000000000000000000 ) ) ;
#146 = DIRECTION ( 'NONE',  ( -0.0000000000000000000, -0.0000000000000000000, 1.000000000000000000 ) ) ;
#147 =( CONVERSION_BASED_UNIT ( 'INCH', #116 ) LENGTH_UNIT ( ) NAMED_UNIT ( #105 ) );
#148 = FACE_OUTER_BOUND ( 'NONE', #45, .T. ) ;
#149 = ORIENTED_EDGE ( 'NONE', *, *, #205, .T. ) ;
#150 = DIRECTION ( 'NONE',  ( -0.0000000000000000000, -0.0000000000000000000, 1.000000000000000000 ) ) ;
#151 = DATE_TIME_ROLE ( 'creation_date' ) ;
#152 = AXIS2_PLACEMENT_3D ( 'NONE', #139, #306, #303 ) ;
#153 = PERSON_AND_ORGANIZATION ( #134, #137 ) ;
#154 = EDGE_LOOP ( 'NONE', ( #261 ) ) ;
#155 = CIRCLE ( 'NONE', #78, 3.933352380637814800 ) ;
#156 = FACE_OUTER_BOUND ( 'NONE', #210, .T. ) ;
#157 = ADVANCED_FACE ( 'NONE', ( #302, #117 ), #15, .F. ) ;
#158 = AXIS2_PLACEMENT_3D ( 'NONE', #295, #67, #144 ) ;
#159 = CARTESIAN_POINT ( 'NONE',  ( 0.0000000000000000000, 0.0000000000000000000, -1.703942824073085400 ) ) ;
#160 = CC_DESIGN_PERSON_AND_ORGANIZATION_ASSIGNMENT ( #106, #250, ( #162 ) ) ;
#161 = ORIENTED_EDGE ( 'NONE', *, *, #276, .T. ) ;
#162 = PRODUCT ( '581207626', '581207626', '', ( #125 ) ) ;
#163 = PRODUCT_DEFINITION ( 'UNKNOWN', '', #290, #293 ) ;
#164 = VERTEX_POINT ( 'NONE', #10 ) ;
#165 = LOCAL_TIME ( 15, 39, 31.00000000000000000, #309 ) ;
#166 = ORIENTED_EDGE ( 'NONE', *, *, #276, .F. ) ;
#167 = DIRECTION ( 'NONE',  ( 0.0000000000000000000, 0.0000000000000000000, -1.000000000000000000 ) ) ;
#168 = APPROVAL_STATUS ( 'not_yet_approved' ) ;
#169 = DIRECTION ( 'NONE',  ( 0.0000000000000000000, 0.0000000000000000000, -1.000000000000000000 ) ) ;
#170 = CC_DESIGN_SECURITY_CLASSIFICATION ( #108, ( #290 ) ) ;
#171 = DIRECTION ( 'NONE',  ( 1.000000000000000000, 0.0000000000000000000, 0.0000000000000000000 ) ) ;
#172 = DIRECTION ( 'NONE',  ( 1.000000000000000000, 0.0000000000000000000, 0.0000000000000000000 ) ) ;
#173 = CARTESIAN_POINT ( 'NONE',  ( 0.0000000000000000000, 4.919999999999999900, -3.000000000000000900 ) ) ;
#174 = FACE_OUTER_BOUND ( 'NONE', #100, .T. ) ;
#175 = VERTEX_POINT ( 'NONE', #180 ) ;
#176 = DIRECTION ( 'NONE',  ( -0.0000000000000000000, -0.0000000000000000000, 1.000000000000000000 ) ) ;
#177 = ORIENTED_EDGE ( 'NONE', *, *, #286, .T. ) ;
#178 = AXIS2_PLACEMENT_3D ( 'NONE', #19, #199, #172 ) ;
#179 = EDGE_CURVE ( 'NONE', #44, #44, #7, .T. ) ;
#180 = CARTESIAN_POINT ( 'NONE',  ( -2.294999999999999900, 0.0000000000000000000, -1.250000000000000000 ) ) ;
#181 = VERTEX_POINT ( 'NONE', #194 ) ;
#182 = CC_DESIGN_APPROVAL ( #11, ( #163 ) ) ;
#183 = DIRECTION ( 'NONE',  ( -0.0000000000000000000, -0.0000000000000000000, 1.000000000000000000 ) ) ;
#184 = DIRECTION ( 'NONE',  ( -0.0000000000000000000, -0.0000000000000000000, 1.000000000000000000 ) ) ;
#185 = AXIS2_PLACEMENT_3D ( 'NONE', #94, #39, #224 ) ;
#186 = LOCAL_TIME ( 15, 39, 31.00000000000000000, #292 ) ;
#187 = EDGE_LOOP ( 'NONE', ( #236 ) ) ;
#188 = AXIS2_PLACEMENT_3D ( 'NONE', #274, #183, #296 ) ;
#189 = CALENDAR_DATE ( 2017, 31, 7 ) ;
#190 = ORIENTED_EDGE ( 'NONE', *, *, #112, .T. ) ;
#191 = DIRECTION ( 'NONE',  ( -1.000000000000000000, 0.0000000000000000000, -0.0000000000000000000 ) ) ;
#192 = DIRECTION ( 'NONE',  ( 1.000000000000000000, 0.0000000000000000000, 0.0000000000000000000 ) ) ;
#193 = PERSON_AND_ORGANIZATION_ROLE ( 'creator' ) ;
#194 = CARTESIAN_POINT ( 'NONE',  ( 2.165000000000000000, 0.0000000000000000000, 0.0000000000000000000 ) ) ;
#195 = EDGE_LOOP ( 'NONE', ( #23 ) ) ;
#196 = CARTESIAN_POINT ( 'NONE',  ( 0.0000000000000000000, 1.770999999999999700, 0.0000000000000000000 ) ) ;
#197 = CARTESIAN_POINT ( 'NONE',  ( 3.933352380637814800, 0.0000000000000000000, -2.379259271713866300 ) ) ;
#198 =( NAMED_UNIT ( * ) PLANE_ANGLE_UNIT ( ) SI_UNIT ( $, .RADIAN. ) );
#199 = DIRECTION ( 'NONE',  ( -0.0000000000000000000, -0.0000000000000000000, 1.000000000000000000 ) ) ;
#200 = FACE_BOUND ( 'NONE', #142, .T. ) ;
#201 = PERSON_AND_ORGANIZATION ( #134, #137 ) ;
#202 = ORIENTED_EDGE ( 'NONE', *, *, #211, .F. ) ;
#203 = AXIS2_PLACEMENT_3D ( 'NONE', #135, #273, #216 ) ;
#204 = ADVANCED_FACE ( 'NONE', ( #246, #254 ), #123, .F. ) ;
#205 = EDGE_CURVE ( 'NONE', #181, #181, #308, .T. ) ;
#206 = DATE_AND_TIME ( #285, #186 ) ;
#207 = APPROVAL_DATE_TIME ( #69, #56 ) ;
#208 = EDGE_LOOP ( 'NONE', ( #149 ) ) ;
#209 = FACE_OUTER_BOUND ( 'NONE', #220, .T. ) ;
#210 = EDGE_LOOP ( 'NONE', ( #31 ) ) ;
#211 = EDGE_CURVE ( 'NONE', #41, #41, #86, .T. ) ;
#212 = PRODUCT_RELATED_PRODUCT_CATEGORY ( 'detail', '', ( #162 ) ) ;
#213 = CARTESIAN_POINT ( 'NONE',  ( 0.0000000000000000000, 0.0000000000000000000, -1.824683552359218600 ) ) ;
#214 = VERTEX_POINT ( 'NONE', #115 ) ;
#215 = VERTEX_POINT ( 'NONE', #197 ) ;
#216 = DIRECTION ( 'NONE',  ( 1.000000000000000000, 0.0000000000000000000, 0.0000000000000000000 ) ) ;
#217 = PRODUCT_DEFINITION_SHAPE ( 'NONE', 'NONE',  #163 ) ;
#218 = EDGE_CURVE ( 'NONE', #215, #215, #155, .T. ) ;
#219 = CIRCLE ( 'NONE', #104, 1.770999999999999700 ) ;
#220 = EDGE_LOOP ( 'NONE', ( #268 ) ) ;
#221 = CARTESIAN_POINT ( 'NONE',  ( 0.0000000000000000000, 0.0000000000000000000, -2.379259271713866300 ) ) ;
#222 = PLANE ( 'NONE',  #143 ) ;
#223 = CIRCLE ( 'NONE', #279, 1.771000000000000400 ) ;
#224 = DIRECTION ( 'NONE',  ( 1.000000000000000000, 0.0000000000000000000, 0.0000000000000000000 ) ) ;
#225 = ORIENTED_EDGE ( 'NONE', *, *, #179, .F. ) ;
#226 = DIRECTION ( 'NONE',  ( 1.000000000000000000, 0.0000000000000000000, 0.0000000000000000000 ) ) ;
#227 = ADVANCED_FACE ( 'NONE', ( #200, #136 ), #222, .F. ) ;
#228 = DIRECTION ( 'NONE',  ( -0.0000000000000000000, -0.0000000000000000000, 1.000000000000000000 ) ) ;
#229 = CYLINDRICAL_SURFACE ( 'NONE', #66, 4.919999999999999900 ) ;
#230 = EDGE_LOOP ( 'NONE', ( #166 ) ) ;
#231 = APPROVAL_ROLE ( '' ) ;
#232 = APPROVAL ( #62, 'UNSPECIFIED' ) ;
#233 = ADVANCED_FACE ( 'NONE', ( #77, #156 ), #49, .F. ) ;
#234 = AXIS2_PLACEMENT_3D ( 'NONE', #213, #280, #83 ) ;
#235 = ORIENTED_EDGE ( 'NONE', *, *, #48, .T. ) ;
#236 = ORIENTED_EDGE ( 'NONE', *, *, #111, .F. ) ;
#237 = COORDINATED_UNIVERSAL_TIME_OFFSET ( 5, 0, .BEHIND. ) ;
#238 = CARTESIAN_POINT ( 'NONE',  ( 4.919999999999999900, 0.0000000000000000000, -1.250000000000000000 ) ) ;
#239 = CALENDAR_DATE ( 2017, 31, 7 ) ;
#240 = UNCERTAINTY_MEASURE_WITH_UNIT (LENGTH_MEASURE( 1.000000000000000100E-005 ), #147, 'distance_accuracy_value', 'NONE');
#241 = PERSON_AND_ORGANIZATION ( #134, #137 ) ;
#242 = DIRECTION ( 'NONE',  ( 0.0000000000000000000, 0.0000000000000000000, -1.000000000000000000 ) ) ;
#243 = AXIS2_PLACEMENT_3D ( 'NONE', #60, #35, #32 ) ;
#244 = DIRECTION ( 'NONE',  ( 1.000000000000000000, 0.0000000000000000000, 0.0000000000000000000 ) ) ;
#245 = CIRCLE ( 'NONE', #158, 2.165000000000000000 ) ;
#246 = FACE_BOUND ( 'NONE', #195, .T. ) ;
#247 = DIRECTION ( 'NONE',  ( 1.000000000000000000, 0.0000000000000000000, 0.0000000000000000000 ) ) ;
#248 = ADVANCED_FACE ( 'NONE', ( #8, #148 ), #265, .F. ) ;
#249 =( NAMED_UNIT ( * ) SI_UNIT ( $, .STERADIAN. ) SOLID_ANGLE_UNIT ( ) );
#250 = PERSON_AND_ORGANIZATION_ROLE ( 'design_owner' ) ;
#251 = CARTESIAN_POINT ( 'NONE',  ( 0.0000000000000000000, 0.0000000000000000000, -1.824683552359218600 ) ) ;
#252 = CC_DESIGN_APPROVAL ( #232, ( #108 ) ) ;
#253 = VERTEX_POINT ( 'NONE', #256 ) ;
#254 = FACE_OUTER_BOUND ( 'NONE', #208, .T. ) ;
#255 = VERTEX_POINT ( 'NONE', #96 ) ;
#256 = CARTESIAN_POINT ( 'NONE',  ( 1.771000000000000400, 0.0000000000000000000, -1.703942824073085400 ) ) ;
#257 = CARTESIAN_POINT ( 'NONE',  ( 0.0000000000000000000, 0.0000000000000000000, -1.703942824073085400 ) ) ;
#258 = CIRCLE ( 'NONE', #262, 4.025999999999999800 ) ;
#259 = EDGE_LOOP ( 'NONE', ( #297 ) ) ;
#260 = ORIENTED_EDGE ( 'NONE', *, *, #9, .F. ) ;
#261 = ORIENTED_EDGE ( 'NONE', *, *, #179, .T. ) ;
#262 = AXIS2_PLACEMENT_3D ( 'NONE', #42, #228, #171 ) ;
#263 = DIRECTION ( 'NONE',  ( -1.000000000000000000, 0.0000000000000000000, -0.0000000000000000000 ) ) ;
#264 = PERSON_AND_ORGANIZATION_ROLE ( 'design_supplier' ) ;
#265 = CYLINDRICAL_SURFACE ( 'NONE', #243, 4.025999999999999800 ) ;
#266 = APPROVAL_ROLE ( '' ) ;
#267 = ORIENTED_EDGE ( 'NONE', *, *, #286, .F. ) ;
#268 = ORIENTED_EDGE ( 'NONE', *, *, #218, .F. ) ;
#269 = EDGE_CURVE ( 'NONE', #175, #175, #109, .T. ) ;
#270 = AXIS2_PLACEMENT_3D ( 'NONE', #61, #167, #103 ) ;
#271 = LOCAL_TIME ( 15, 39, 31.00000000000000000, #237 ) ;
#272 = CALENDAR_DATE ( 2017, 31, 7 ) ;
#273 = DIRECTION ( 'NONE',  ( -0.0000000000000000000, -0.0000000000000000000, 1.000000000000000000 ) ) ;
#274 = CARTESIAN_POINT ( 'NONE',  ( 0.0000000000000000000, 0.0000000000000000000, -2.500000000000000000 ) ) ;
#275 = PERSON_AND_ORGANIZATION ( #134, #137 ) ;
#276 = EDGE_CURVE ( 'NONE', #294, #294, #245, .T. ) ;
#277 = LOCAL_TIME ( 15, 39, 31.00000000000000000, #122 ) ;
#278 = EDGE_LOOP ( 'NONE', ( #202 ) ) ;
#279 = AXIS2_PLACEMENT_3D ( 'NONE', #159, #79, #27 ) ;
#280 = DIRECTION ( 'NONE',  ( 0.0000000000000000000, 0.0000000000000000000, -1.000000000000000000 ) ) ;
#281 = APPROVAL_PERSON_ORGANIZATION ( #275, #56, #307 ) ;
#282 = DIRECTION ( 'NONE',  ( -0.0000000000000000000, -0.0000000000000000000, 1.000000000000000000 ) ) ;
#283 = CARTESIAN_POINT ( 'NONE',  ( 0.0000000000000000000, 2.165000000000000000, -1.250000000000000000 ) ) ;
#284 = DATE_TIME_ROLE ( 'classification_date' ) ;
#285 = CALENDAR_DATE ( 2017, 31, 7 ) ;
#286 = EDGE_CURVE ( 'NONE', #253, #253, #223, .T. ) ;
#287 = DIRECTION ( 'NONE',  ( -0.0000000000000000000, -0.0000000000000000000, 1.000000000000000000 ) ) ;
#288 = VERTEX_POINT ( 'NONE', #238 ) ;
#289 = ADVANCED_FACE ( 'NONE', ( #209, #72 ), #140, .F. ) ;
#290 = PRODUCT_DEFINITION_FORMATION_WITH_SPECIFIED_SOURCE ( 'ANY', '', #162, .NOT_KNOWN. ) ;
#291 = ADVANCED_FACE ( 'NONE', ( #21, #131 ), #92, .T. ) ;
#292 = COORDINATED_UNIVERSAL_TIME_OFFSET ( 5, 0, .BEHIND. ) ;
#293 = DESIGN_CONTEXT ( 'detailed design', #95, 'design' ) ;
#294 = VERTEX_POINT ( 'NONE', #101 ) ;
#295 = CARTESIAN_POINT ( 'NONE',  ( 0.0000000000000000000, 0.0000000000000000000, -1.120000000000000100 ) ) ;
#296 = DIRECTION ( 'NONE',  ( 1.000000000000000000, 0.0000000000000000000, 0.0000000000000000000 ) ) ;
#297 = ORIENTED_EDGE ( 'NONE', *, *, #48, .F. ) ;
#298 = ADVANCED_FACE ( 'NONE', ( #80, #300 ), #29, .F. ) ;
#299 = DIRECTION ( 'NONE',  ( 1.000000000000000000, 0.0000000000000000000, 0.0000000000000000000 ) ) ;
#300 = FACE_OUTER_BOUND ( 'NONE', #138, .T. ) ;
#301 = CARTESIAN_POINT ( 'NONE',  ( 0.0000000000000000000, 0.0000000000000000000, 0.0000000000000000000 ) ) ;
#302 = FACE_OUTER_BOUND ( 'NONE', #3, .T. ) ;
#303 = DIRECTION ( 'NONE',  ( 1.000000000000000000, 0.0000000000000000000, 0.0000000000000000000 ) ) ;
#304 = AXIS2_PLACEMENT_3D ( 'NONE', #120, #282, #299 ) ;
#305 = ADVANCED_FACE ( 'NONE', ( #174, #54 ), #58, .T. ) ;
#306 = DIRECTION ( 'NONE',  ( 0.0000000000000000000, 0.0000000000000000000, 1.000000000000000000 ) ) ;
#307 = APPROVAL_ROLE ( '' ) ;
#308 = CIRCLE ( 'NONE', #185, 2.165000000000000000 ) ;
#309 = COORDINATED_UNIVERSAL_TIME_OFFSET ( 5, 0, .BEHIND. ) ;
#310 = ORIENTED_EDGE ( 'NONE', *, *, #211, .T. ) ;
#311 = AXIS2_PLACEMENT_3D ( 'NONE', #196, #169, #191 ) ;
#312 = CALENDAR_DATE ( 2017, 31, 7 ) ;
ENDSEC;
END-ISO-10303-21;
