ISO-10303-21;
HEADER;
FILE_DESCRIPTION (( 'STEP AP203' ),
    '1' );
FILE_NAME ('581207627.STEP',
    '2017-07-31T19:41:02',
    ( '' ),
    ( '' ),
    'SwSTEP 2.0',
    'SolidWorks 2017',
    '' );
FILE_SCHEMA (( 'CONFIG_CONTROL_DESIGN' ));
ENDSEC;

DATA;
#1 = CARTESIAN_POINT ( 'NONE',  ( 0.0000000000000000000, 0.0000000000000000000, -2.500000000000000000 ) ) ;
#2 = CC_DESIGN_APPROVAL ( #200, ( #90 ) ) ;
#3 = CARTESIAN_POINT ( 'NONE',  ( 0.0000000000000000000, 0.0000000000000000000, -3.000000000000000400 ) ) ;
#4 = FACE_OUTER_BOUND ( 'NONE', #12, .T. ) ;
#5 = FACE_OUTER_BOUND ( 'NONE', #54, .T. ) ;
#6 = DIRECTION ( 'NONE',  ( -1.000000000000000000, 0.0000000000000000000, 0.0000000000000000000 ) ) ;
#7 = LOCAL_TIME ( 15, 41, 2.000000000000000000, #35 ) ;
#8 = FACE_BOUND ( 'NONE', #105, .T. ) ;
#9 = ORIENTED_EDGE ( 'NONE', *, *, #220, .T. ) ;
#10 = PERSON_AND_ORGANIZATION ( #92, #156 ) ;
#11 = APPROVAL_ROLE ( '' ) ;
#12 = EDGE_LOOP ( 'NONE', ( #126 ) ) ;
#13 = CARTESIAN_POINT ( 'NONE',  ( 0.0000000000000000000, 0.0000000000000000000, 0.0000000000000000000 ) ) ;
#14 = DIRECTION ( 'NONE',  ( -0.0000000000000000000, -0.0000000000000000000, 1.000000000000000000 ) ) ;
#15 = FACE_OUTER_BOUND ( 'NONE', #48, .T. ) ;
#16 = CARTESIAN_POINT ( 'NONE',  ( 2.575000000000000200, 0.0000000000000000000, 0.0000000000000000000 ) ) ;
#17 = EDGE_CURVE ( 'NONE', #39, #39, #237, .T. ) ;
#18 = DIRECTION ( 'NONE',  ( 1.000000000000000000, 0.0000000000000000000, 0.0000000000000000000 ) ) ;
#19 = DIRECTION ( 'NONE',  ( -1.000000000000000000, 0.0000000000000000000, 0.0000000000000000000 ) ) ;
#20 = FACE_OUTER_BOUND ( 'NONE', #199, .T. ) ;
#21 = DIRECTION ( 'NONE',  ( 0.0000000000000000000, 0.0000000000000000000, -1.000000000000000000 ) ) ;
#22 = FACE_OUTER_BOUND ( 'NONE', #63, .T. ) ;
#23 = CC_DESIGN_PERSON_AND_ORGANIZATION_ASSIGNMENT ( #291, #312, ( #90 ) ) ;
#24 = CARTESIAN_POINT ( 'NONE',  ( 0.0000000000000000000, 0.0000000000000000000, -1.657749320207147200 ) ) ;
#25 = EDGE_CURVE ( 'NONE', #174, #174, #132, .T. ) ;
#26 = FACE_OUTER_BOUND ( 'NONE', #107, .T. ) ;
#27 = ADVANCED_FACE ( 'NONE', ( #26, #4 ), #207, .T. ) ;
#28 = FACE_OUTER_BOUND ( 'NONE', #191, .T. ) ;
#29 = FACE_OUTER_BOUND ( 'NONE', #123, .T. ) ;
#30 = AXIS2_PLACEMENT_3D ( 'NONE', #127, #99, #120 ) ;
#31 = AXIS2_PLACEMENT_3D ( 'NONE', #217, #323, #18 ) ;
#32 = EDGE_LOOP ( 'NONE', ( #238 ) ) ;
#33 = ORIENTED_EDGE ( 'NONE', *, *, #25, .T. ) ;
#34 = DATE_TIME_ROLE ( 'creation_date' ) ;
#35 = COORDINATED_UNIVERSAL_TIME_OFFSET ( 5, 0, .BEHIND. ) ;
#36 = APPLICATION_PROTOCOL_DEFINITION ( 'international standard', 'config_control_design', 1994, #162 ) ;
#37 = EDGE_LOOP ( 'NONE', ( #181 ) ) ;
#38 = CARTESIAN_POINT ( 'NONE',  ( -4.819999999999999400, 0.0000000000000000000, -1.250000000000000000 ) ) ;
#39 = VERTEX_POINT ( 'NONE', #111 ) ;
#40 = CARTESIAN_POINT ( 'NONE',  ( 0.0000000000000000000, 0.0000000000000000000, 0.0000000000000000000 ) ) ;
#41 = AXIS2_PLACEMENT_3D ( 'NONE', #82, #325, #242 ) ;
#42 = AXIS2_PLACEMENT_3D ( 'NONE', #93, #171, #302 ) ;
#43 = VERTEX_POINT ( 'NONE', #297 ) ;
#44 = ADVANCED_FACE ( 'NONE', ( #29, #251 ), #228, .T. ) ;
#45 = LOCAL_TIME ( 15, 41, 2.000000000000000000, #205 ) ;
#46 = FACE_BOUND ( 'NONE', #37, .T. ) ;
#47 = DIRECTION ( 'NONE',  ( 1.000000000000000000, 0.0000000000000000000, 0.0000000000000000000 ) ) ;
#48 = EDGE_LOOP ( 'NONE', ( #201 ) ) ;
#49 = FACE_BOUND ( 'NONE', #283, .T. ) ;
#50 = EDGE_CURVE ( 'NONE', #182, #182, #58, .T. ) ;
#51 = DIRECTION ( 'NONE',  ( -1.000000000000000000, 0.0000000000000000000, 0.0000000000000000000 ) ) ;
#52 = CARTESIAN_POINT ( 'NONE',  ( 0.0000000000000000000, 0.0000000000000000000, -2.500000000000000000 ) ) ;
#53 = ORIENTED_EDGE ( 'NONE', *, *, #101, .F. ) ;
#54 = EDGE_LOOP ( 'NONE', ( #122 ) ) ;
#55 = CC_DESIGN_DATE_AND_TIME_ASSIGNMENT ( #309, #34, ( #186 ) ) ;
#56 = APPROVAL_ROLE ( '' ) ;
#57 = ORIENTED_EDGE ( 'NONE', *, *, #211, .F. ) ;
#58 = CIRCLE ( 'NONE', #305, 4.025999999999999800 ) ;
#59 = PLANE ( 'NONE',  #41 ) ;
#60 = DIRECTION ( 'NONE',  ( 1.000000000000000000, 0.0000000000000000000, 0.0000000000000000000 ) ) ;
#61 = DIRECTION ( 'NONE',  ( 0.0000000000000000000, 0.0000000000000000000, -1.000000000000000000 ) ) ;
#62 = CIRCLE ( 'NONE', #179, 4.919999999999999900 ) ;
#63 = EDGE_LOOP ( 'NONE', ( #260 ) ) ;
#64 = VERTEX_POINT ( 'NONE', #319 ) ;
#65 = CALENDAR_DATE ( 2017, 31, 7 ) ;
#66 = COORDINATED_UNIVERSAL_TIME_OFFSET ( 5, 0, .BEHIND. ) ;
#67 = CC_DESIGN_PERSON_AND_ORGANIZATION_ASSIGNMENT ( #193, #161, ( #90 ) ) ;
#68 = CIRCLE ( 'NONE', #140, 4.919999999999999900 ) ;
#69 = TOROIDAL_SURFACE ( 'NONE', #255, 3.279999999999999800, 0.1300000000000000000 ) ;
#70 = AXIS2_PLACEMENT_3D ( 'NONE', #231, #225, #234 ) ;
#71 = CARTESIAN_POINT ( 'NONE',  ( 0.0000000000000000000, 2.575000000000000200, 0.0000000000000000000 ) ) ;
#72 = DIRECTION ( 'NONE',  ( 0.0000000000000000000, 0.0000000000000000000, -1.000000000000000000 ) ) ;
#73 = COORDINATED_UNIVERSAL_TIME_OFFSET ( 5, 0, .BEHIND. ) ;
#74 = ADVANCED_FACE ( 'NONE', ( #329, #49 ), #121, .T. ) ;
#75 = FACE_OUTER_BOUND ( 'NONE', #118, .T. ) ;
#76 = AXIS2_PLACEMENT_3D ( 'NONE', #149, #223, #51 ) ;
#77 = EDGE_CURVE ( 'NONE', #236, #236, #131, .T. ) ;
#78 = DATE_AND_TIME ( #204, #94 ) ;
#79 = APPROVAL_ROLE ( '' ) ;
#80 = APPROVAL_DATE_TIME ( #221, #212 ) ;
#81 = APPLICATION_PROTOCOL_DEFINITION ( 'international standard', 'config_control_design', 1994, #259 ) ;
#82 = CARTESIAN_POINT ( 'NONE',  ( 0.0000000000000000000, 3.149999999999999900, -1.250000000000000000 ) ) ;
#83 = ORIENTED_EDGE ( 'NONE', *, *, #211, .T. ) ;
#84 = PERSON_AND_ORGANIZATION ( #92, #156 ) ;
#85 = CARTESIAN_POINT ( 'NONE',  ( 0.0000000000000000000, 0.0000000000000000000, 0.0000000000000000000 ) ) ;
#86 = FACE_BOUND ( 'NONE', #32, .T. ) ;
#87 = CC_DESIGN_PERSON_AND_ORGANIZATION_ASSIGNMENT ( #10, #289, ( #288 ) ) ;
#88 = DIRECTION ( 'NONE',  ( 0.0000000000000000000, 0.0000000000000000000, -1.000000000000000000 ) ) ;
#89 = CARTESIAN_POINT ( 'NONE',  ( 4.025999999999999800, 0.0000000000000000000, -3.000000000000000400 ) ) ;
#90 = PRODUCT_DEFINITION_FORMATION_WITH_SPECIFIED_SOURCE ( 'ANY', '', #197, .NOT_KNOWN. ) ;
#91 = PERSON_AND_ORGANIZATION ( #92, #156 ) ;
#92 = PERSON ( 'UNSPECIFIED', 'UNSPECIFIED', 'UNSPECIFIED', ('UNSPECIFIED'), ('UNSPECIFIED'), ('UNSPECIFIED') ) ;
#93 = CARTESIAN_POINT ( 'NONE',  ( 0.0000000000000000000, 0.0000000000000000000, -1.775569332521911300 ) ) ;
#94 = LOCAL_TIME ( 15, 41, 2.000000000000000000, #66 ) ;
#95 = DIRECTION ( 'NONE',  ( 1.000000000000000000, 0.0000000000000000000, 0.0000000000000000000 ) ) ;
#96 = ORIENTED_EDGE ( 'NONE', *, *, #148, .F. ) ;
#97 = EDGE_LOOP ( 'NONE', ( #296 ) ) ;
#98 = CYLINDRICAL_SURFACE ( 'NONE', #294, 4.025999999999999800 ) ;
#99 = DIRECTION ( 'NONE',  ( -0.0000000000000000000, -0.0000000000000000000, 1.000000000000000000 ) ) ;
#100 = EDGE_LOOP ( 'NONE', ( #275 ) ) ;
#101 = EDGE_CURVE ( 'NONE', #320, #320, #287, .T. ) ;
#102 = ADVANCED_FACE ( 'NONE', ( #224, #20 ), #304, .F. ) ;
#103 = ADVANCED_FACE ( 'NONE', ( #196, #22 ), #98, .F. ) ;
#104 = APPROVAL_DATE_TIME ( #114, #200 ) ;
#105 = EDGE_LOOP ( 'NONE', ( #203 ) ) ;
#106 = FACE_OUTER_BOUND ( 'NONE', #267, .T. ) ;
#107 = EDGE_LOOP ( 'NONE', ( #9 ) ) ;
#108 = DATE_TIME_ROLE ( 'classification_date' ) ;
#109 = EDGE_CURVE ( 'NONE', #177, #177, #172, .T. ) ;
#110 = PERSON_AND_ORGANIZATION_ROLE ( 'design_owner' ) ;
#111 = CARTESIAN_POINT ( 'NONE',  ( -3.279999999999999800, 0.0000000000000000000, -1.250000000000000000 ) ) ;
#112 =( NAMED_UNIT ( * ) PLANE_ANGLE_UNIT ( ) SI_UNIT ( $, .RADIAN. ) );
#113 = ORIENTED_EDGE ( 'NONE', *, *, #50, .F. ) ;
#114 = DATE_AND_TIME ( #326, #145 ) ;
#115 = CARTESIAN_POINT ( 'NONE',  ( -3.149999999999999900, 0.0000000000000000000, -1.120000000000000100 ) ) ;
#116 = VERTEX_POINT ( 'NONE', #295 ) ;
#117 = ORIENTED_EDGE ( 'NONE', *, *, #148, .T. ) ;
#118 = EDGE_LOOP ( 'NONE', ( #227 ) ) ;
#119 = CARTESIAN_POINT ( 'NONE',  ( 0.0000000000000000000, 0.0000000000000000000, -1.250000000000000000 ) ) ;
#120 = DIRECTION ( 'NONE',  ( -1.000000000000000000, 0.0000000000000000000, 0.0000000000000000000 ) ) ;
#121 = CONICAL_SURFACE ( 'NONE', #151, 4.819999999999999400, 0.7853981633974482800 ) ;
#122 = ORIENTED_EDGE ( 'NONE', *, *, #77, .F. ) ;
#123 = EDGE_LOOP ( 'NONE', ( #244 ) ) ;
#124 = LOCAL_TIME ( 15, 41, 2.000000000000000000, #73 ) ;
#125 = DIRECTION ( 'NONE',  ( 1.000000000000000000, 0.0000000000000000000, 0.0000000000000000000 ) ) ;
#126 = ORIENTED_EDGE ( 'NONE', *, *, #144, .T. ) ;
#127 = CARTESIAN_POINT ( 'NONE',  ( 0.0000000000000000000, 0.0000000000000000000, -1.250000000000000000 ) ) ;
#128 = ADVANCED_FACE ( 'NONE', ( #216, #86 ), #331, .F. ) ;
#129 = DIRECTION ( 'NONE',  ( 0.0000000000000000000, -0.0000000000000000000, 1.000000000000000000 ) ) ;
#130 = DIRECTION ( 'NONE',  ( -0.0000000000000000000, -0.0000000000000000000, 1.000000000000000000 ) ) ;
#131 = CIRCLE ( 'NONE', #76, 3.149999999999999900 ) ;
#132 = CIRCLE ( 'NONE', #30, 4.819999999999999400 ) ;
#133 = ADVANCED_FACE ( 'NONE', ( #146, #157 ), #222, .F. ) ;
#134 = SECURITY_CLASSIFICATION_LEVEL ( 'unclassified' ) ;
#135 = DIRECTION ( 'NONE',  ( 1.000000000000000000, 0.0000000000000000000, 0.0000000000000000000 ) ) ;
#136 =( LENGTH_UNIT ( ) NAMED_UNIT ( * ) SI_UNIT ( $, .METRE. ) );
#137 = COORDINATED_UNIVERSAL_TIME_OFFSET ( 5, 0, .BEHIND. ) ;
#138 = EDGE_CURVE ( 'NONE', #116, #116, #240, .T. ) ;
#139 = DIRECTION ( 'NONE',  ( 1.000000000000000000, 0.0000000000000000000, 0.0000000000000000000 ) ) ;
#140 = AXIS2_PLACEMENT_3D ( 'NONE', #269, #321, #271 ) ;
#141 = DIRECTION ( 'NONE',  ( -1.000000000000000000, 0.0000000000000000000, 0.0000000000000000000 ) ) ;
#142 = APPROVAL_PERSON_ORGANIZATION ( #256, #200, #11 ) ;
#143 = DIRECTION ( 'NONE',  ( -1.000000000000000000, 0.0000000000000000000, 0.0000000000000000000 ) ) ;
#144 = EDGE_CURVE ( 'NONE', #324, #324, #68, .T. ) ;
#145 = LOCAL_TIME ( 15, 41, 2.000000000000000000, #137 ) ;
#146 = FACE_BOUND ( 'NONE', #176, .T. ) ;
#147 = APPROVAL_DATE_TIME ( #285, #243 ) ;
#148 = EDGE_CURVE ( 'NONE', #43, #43, #306, .T. ) ;
#149 = CARTESIAN_POINT ( 'NONE',  ( 0.0000000000000000000, 0.0000000000000000000, -1.120000000000000100 ) ) ;
#150 = AXIS2_PLACEMENT_3D ( 'NONE', #214, #245, #135 ) ;
#151 = AXIS2_PLACEMENT_3D ( 'NONE', #119, #183, #6 ) ;
#152 = CIRCLE ( 'NONE', #150, 3.950940374026291400 ) ;
#153 = CALENDAR_DATE ( 2017, 31, 7 ) ;
#154 = CYLINDRICAL_SURFACE ( 'NONE', #286, 2.574999999999999700 ) ;
#155 = DIRECTION ( 'NONE',  ( 1.000000000000000000, 0.0000000000000000000, 0.0000000000000000000 ) ) ;
#156 = ORGANIZATION ( 'UNSPECIFIED', 'UNSPECIFIED', '' ) ;
#157 = FACE_OUTER_BOUND ( 'NONE', #215, .T. ) ;
#158 = DIRECTION ( 'NONE',  ( 1.000000000000000000, 0.0000000000000000000, 0.0000000000000000000 ) ) ;
#159 = PRODUCT_RELATED_PRODUCT_CATEGORY ( 'detail', '', ( #197 ) ) ;
#160 = ORIENTED_EDGE ( 'NONE', *, *, #25, .F. ) ;
#161 = PERSON_AND_ORGANIZATION_ROLE ( 'creator' ) ;
#162 = APPLICATION_CONTEXT ( 'configuration controlled 3d designs of mechanical parts and assemblies' ) ;
#163 = DIRECTION ( 'NONE',  ( 0.0000000000000000000, 0.0000000000000000000, 1.000000000000000000 ) ) ;
#164 = CARTESIAN_POINT ( 'NONE',  ( 0.0000000000000000000, 0.0000000000000000000, -1.120000000000000100 ) ) ;
#165 = AXIS2_PLACEMENT_3D ( 'NONE', #24, #226, #155 ) ;
#166 =( GEOMETRIC_REPRESENTATION_CONTEXT ( 3 ) GLOBAL_UNCERTAINTY_ASSIGNED_CONTEXT ( ( #301 ) ) GLOBAL_UNIT_ASSIGNED_CONTEXT ( ( #292, #112, #264 ) ) REPRESENTATION_CONTEXT ( 'NONE', 'WORKASPACE' ) );
#167 = CARTESIAN_POINT ( 'NONE',  ( 0.0000000000000000000, 0.0000000000000000000, -1.775569332521911300 ) ) ;
#168 = ORIENTED_EDGE ( 'NONE', *, *, #144, .F. ) ;
#169 = CARTESIAN_POINT ( 'NONE',  ( -4.919999999999999900, 0.0000000000000000000, -1.350000000000000500 ) ) ;
#170 = AXIS2_PLACEMENT_3D ( 'NONE', #40, #163, #313 ) ;
#171 = DIRECTION ( 'NONE',  ( -0.0000000000000000000, -0.0000000000000000000, 1.000000000000000000 ) ) ;
#172 = CIRCLE ( 'NONE', #42, 2.650059625973709500 ) ;
#173 = DIRECTION ( 'NONE',  ( -0.0000000000000000000, -0.0000000000000000000, 1.000000000000000000 ) ) ;
#174 = VERTEX_POINT ( 'NONE', #38 ) ;
#175 = DIRECTION ( 'NONE',  ( -0.0000000000000000000, -0.0000000000000000000, 1.000000000000000000 ) ) ;
#176 = EDGE_LOOP ( 'NONE', ( #253 ) ) ;
#177 = VERTEX_POINT ( 'NONE', #247 ) ;
#178 = DIRECTION ( 'NONE',  ( 0.0000000000000000000, 0.0000000000000000000, -1.000000000000000000 ) ) ;
#179 = AXIS2_PLACEMENT_3D ( 'NONE', #195, #61, #19 ) ;
#180 = CC_DESIGN_APPROVAL ( #243, ( #288 ) ) ;
#181 = ORIENTED_EDGE ( 'NONE', *, *, #17, .T. ) ;
#182 = VERTEX_POINT ( 'NONE', #327 ) ;
#183 = DIRECTION ( 'NONE',  ( 0.0000000000000000000, 0.0000000000000000000, -1.000000000000000000 ) ) ;
#184 = DESIGN_CONTEXT ( 'detailed design', #259, 'design' ) ;
#185 = AXIS2_PLACEMENT_3D ( 'NONE', #167, #21, #143 ) ;
#186 = PRODUCT_DEFINITION ( 'UNKNOWN', '', #90, #184 ) ;
#187 = APPROVAL_STATUS ( 'not_yet_approved' ) ;
#188 = EDGE_LOOP ( 'NONE', ( #113 ) ) ;
#189 = CC_DESIGN_SECURITY_CLASSIFICATION ( #288, ( #90 ) ) ;
#190 = DIRECTION ( 'NONE',  ( -0.0000000000000000000, -0.0000000000000000000, 1.000000000000000000 ) ) ;
#191 = EDGE_LOOP ( 'NONE', ( #96 ) ) ;
#192 = VERTEX_POINT ( 'NONE', #16 ) ;
#193 = PERSON_AND_ORGANIZATION ( #92, #156 ) ;
#194 = ADVANCED_FACE ( 'NONE', ( #15, #28 ), #266, .T. ) ;
#195 = CARTESIAN_POINT ( 'NONE',  ( 0.0000000000000000000, 0.0000000000000000000, -1.350000000000000500 ) ) ;
#196 = FACE_OUTER_BOUND ( 'NONE', #317, .T. ) ;
#197 = PRODUCT ( '581207627', '581207627', '', ( #290 ) ) ;
#198 = EDGE_LOOP ( 'NONE', ( #33 ) ) ;
#199 = EDGE_LOOP ( 'NONE', ( #83 ) ) ;
#200 = APPROVAL ( #187, 'UNSPECIFIED' ) ;
#201 = ORIENTED_EDGE ( 'NONE', *, *, #77, .T. ) ;
#202 = PERSON_AND_ORGANIZATION ( #92, #156 ) ;
#203 = ORIENTED_EDGE ( 'NONE', *, *, #109, .T. ) ;
#204 = CALENDAR_DATE ( 2017, 31, 7 ) ;
#205 = COORDINATED_UNIVERSAL_TIME_OFFSET ( 5, 0, .BEHIND. ) ;
#206 = CC_DESIGN_PERSON_AND_ORGANIZATION_ASSIGNMENT ( #284, #110, ( #197 ) ) ;
#207 = CYLINDRICAL_SURFACE ( 'NONE', #70, 4.919999999999999900 ) ;
#208 = ADVANCED_FACE ( 'NONE', ( #316, #8 ), #261, .F. ) ;
#209 = EDGE_LOOP ( 'NONE', ( #280 ) ) ;
#210 = PERSON_AND_ORGANIZATION_ROLE ( 'creator' ) ;
#211 = EDGE_CURVE ( 'NONE', #64, #64, #152, .T. ) ;
#212 = APPROVAL ( #239, 'UNSPECIFIED' ) ;
#213 = ADVANCED_BREP_SHAPE_REPRESENTATION ( '581207627', ( #230, #170 ), #166 ) ;
#214 = CARTESIAN_POINT ( 'NONE',  ( 0.0000000000000000000, 0.0000000000000000000, -2.382179987685235600 ) ) ;
#215 = EDGE_LOOP ( 'NONE', ( #117 ) ) ;
#216 = FACE_OUTER_BOUND ( 'NONE', #328, .T. ) ;
#217 = CARTESIAN_POINT ( 'NONE',  ( 0.0000000000000000000, 0.0000000000000000000, 0.0000000000000000000 ) ) ;
#218 = DIMENSIONAL_EXPONENTS ( 1.000000000000000000, 0.0000000000000000000, 0.0000000000000000000, 0.0000000000000000000, 0.0000000000000000000, 0.0000000000000000000, 0.0000000000000000000 ) ;
#219 = DIRECTION ( 'NONE',  ( -1.000000000000000000, 0.0000000000000000000, 0.0000000000000000000 ) ) ;
#220 = EDGE_CURVE ( 'NONE', #252, #252, #62, .T. ) ;
#221 = DATE_AND_TIME ( #153, #45 ) ;
#222 = PLANE ( 'NONE',  #262 ) ;
#223 = DIRECTION ( 'NONE',  ( -0.0000000000000000000, -0.0000000000000000000, 1.000000000000000000 ) ) ;
#224 = FACE_OUTER_BOUND ( 'NONE', #188, .T. ) ;
#225 = DIRECTION ( 'NONE',  ( -0.0000000000000000000, -0.0000000000000000000, 1.000000000000000000 ) ) ;
#226 = DIRECTION ( 'NONE',  ( -0.0000000000000000000, -0.0000000000000000000, 1.000000000000000000 ) ) ;
#227 = ORIENTED_EDGE ( 'NONE', *, *, #17, .F. ) ;
#228 = TOROIDAL_SURFACE ( 'NONE', #165, 2.705000000000000100, 0.1300000000000000900 ) ;
#229 = CARTESIAN_POINT ( 'NONE',  ( 0.0000000000000000000, 4.919999999999999900, -3.000000000000000900 ) ) ;
#230 = MANIFOLD_SOLID_BREP ( 'Fillet1', #315 ) ;
#231 = CARTESIAN_POINT ( 'NONE',  ( 0.0000000000000000000, 0.0000000000000000000, 0.0000000000000000000 ) ) ;
#232 = CALENDAR_DATE ( 2017, 31, 7 ) ;
#233 = AXIS2_PLACEMENT_3D ( 'NONE', #282, #72, #219 ) ;
#234 = DIRECTION ( 'NONE',  ( 1.000000000000000000, 0.0000000000000000000, 0.0000000000000000000 ) ) ;
#235 = CIRCLE ( 'NONE', #279, 2.575000000000000200 ) ;
#236 = VERTEX_POINT ( 'NONE', #115 ) ;
#237 = CIRCLE ( 'NONE', #233, 3.279999999999999800 ) ;
#238 = ORIENTED_EDGE ( 'NONE', *, *, #101, .T. ) ;
#239 = APPROVAL_STATUS ( 'not_yet_approved' ) ;
#240 = CIRCLE ( 'NONE', #310, 2.574999999999999700 ) ;
#241 = CARTESIAN_POINT ( 'NONE',  ( 0.0000000000000000000, 0.0000000000000000000, -1.657749320207147200 ) ) ;
#242 = DIRECTION ( 'NONE',  ( -1.000000000000000000, 0.0000000000000000000, -0.0000000000000000000 ) ) ;
#243 = APPROVAL ( #258, 'UNSPECIFIED' ) ;
#244 = ORIENTED_EDGE ( 'NONE', *, *, #109, .F. ) ;
#245 = DIRECTION ( 'NONE',  ( -0.0000000000000000000, -0.0000000000000000000, 1.000000000000000000 ) ) ;
#246 = CC_DESIGN_PERSON_AND_ORGANIZATION_ASSIGNMENT ( #84, #210, ( #186 ) ) ;
#247 = CARTESIAN_POINT ( 'NONE',  ( 2.650059625973709500, 0.0000000000000000000, -1.775569332521911300 ) ) ;
#248 = AXIS2_PLACEMENT_3D ( 'NONE', #273, #14, #60 ) ;
#249 = AXIS2_PLACEMENT_3D ( 'NONE', #229, #129, #47 ) ;
#250 = ORIENTED_EDGE ( 'NONE', *, *, #272, .T. ) ;
#251 = FACE_OUTER_BOUND ( 'NONE', #209, .T. ) ;
#252 = VERTEX_POINT ( 'NONE', #169 ) ;
#253 = ORIENTED_EDGE ( 'NONE', *, *, #272, .F. ) ;
#254 = APPROVAL_PERSON_ORGANIZATION ( #202, #243, #79 ) ;
#255 = AXIS2_PLACEMENT_3D ( 'NONE', #164, #88, #141 ) ;
#256 = PERSON_AND_ORGANIZATION ( #92, #156 ) ;
#257 = LENGTH_MEASURE_WITH_UNIT ( LENGTH_MEASURE( 0.02539999999999999900 ), #136 );
#258 = APPROVAL_STATUS ( 'not_yet_approved' ) ;
#259 = APPLICATION_CONTEXT ( 'configuration controlled 3d designs of mechanical parts and assemblies' ) ;
#260 = ORIENTED_EDGE ( 'NONE', *, *, #50, .T. ) ;
#261 = CONICAL_SURFACE ( 'NONE', #185, 2.650059625973709500, 1.134464013796312900 ) ;
#262 = AXIS2_PLACEMENT_3D ( 'NONE', #71, #178, #293 ) ;
#263 = DIRECTION ( 'NONE',  ( 1.000000000000000000, 0.0000000000000000000, 0.0000000000000000000 ) ) ;
#264 =( NAMED_UNIT ( * ) SI_UNIT ( $, .STERADIAN. ) SOLID_ANGLE_UNIT ( ) );
#265 = DIRECTION ( 'NONE',  ( -0.0000000000000000000, -0.0000000000000000000, 1.000000000000000000 ) ) ;
#266 = CYLINDRICAL_SURFACE ( 'NONE', #31, 3.149999999999999900 ) ;
#267 = EDGE_LOOP ( 'NONE', ( #250 ) ) ;
#268 = DIRECTION ( 'NONE',  ( -0.0000000000000000000, -0.0000000000000000000, 1.000000000000000000 ) ) ;
#269 = CARTESIAN_POINT ( 'NONE',  ( 0.0000000000000000000, 0.0000000000000000000, -3.000000000000000900 ) ) ;
#270 = ADVANCED_FACE ( 'NONE', ( #75, #5 ), #69, .F. ) ;
#271 = DIRECTION ( 'NONE',  ( 1.000000000000000000, 0.0000000000000000000, 0.0000000000000000000 ) ) ;
#272 = EDGE_CURVE ( 'NONE', #192, #192, #235, .T. ) ;
#273 = CARTESIAN_POINT ( 'NONE',  ( 0.0000000000000000000, 0.0000000000000000000, 0.0000000000000000000 ) ) ;
#274 = CC_DESIGN_DATE_AND_TIME_ASSIGNMENT ( #78, #108, ( #288 ) ) ;
#275 = ORIENTED_EDGE ( 'NONE', *, *, #138, .F. ) ;
#276 = FACE_OUTER_BOUND ( 'NONE', #198, .T. ) ;
#277 = FACE_OUTER_BOUND ( 'NONE', #100, .T. ) ;
#278 = DIRECTION ( 'NONE',  ( -0.0000000000000000000, -0.0000000000000000000, 1.000000000000000000 ) ) ;
#279 = AXIS2_PLACEMENT_3D ( 'NONE', #85, #268, #139 ) ;
#280 = ORIENTED_EDGE ( 'NONE', *, *, #138, .T. ) ;
#281 = CC_DESIGN_APPROVAL ( #212, ( #186 ) ) ;
#282 = CARTESIAN_POINT ( 'NONE',  ( 0.0000000000000000000, 0.0000000000000000000, -1.250000000000000000 ) ) ;
#283 = EDGE_LOOP ( 'NONE', ( #160 ) ) ;
#284 = PERSON_AND_ORGANIZATION ( #92, #156 ) ;
#285 = DATE_AND_TIME ( #65, #124 ) ;
#286 = AXIS2_PLACEMENT_3D ( 'NONE', #13, #190, #263 ) ;
#287 = CIRCLE ( 'NONE', #303, 4.025999999999999800 ) ;
#288 = SECURITY_CLASSIFICATION ( '', '', #134 ) ;
#289 = PERSON_AND_ORGANIZATION_ROLE ( 'classification_officer' ) ;
#290 = MECHANICAL_CONTEXT ( 'NONE', #162, 'mechanical' ) ;
#291 = PERSON_AND_ORGANIZATION ( #92, #156 ) ;
#292 =( CONVERSION_BASED_UNIT ( 'INCH', #257 ) LENGTH_UNIT ( ) NAMED_UNIT ( #218 ) );
#293 = DIRECTION ( 'NONE',  ( -1.000000000000000000, 0.0000000000000000000, -0.0000000000000000000 ) ) ;
#294 = AXIS2_PLACEMENT_3D ( 'NONE', #330, #175, #95 ) ;
#295 = CARTESIAN_POINT ( 'NONE',  ( 2.574999999999999700, 0.0000000000000000000, -1.657749320207147200 ) ) ;
#296 = ORIENTED_EDGE ( 'NONE', *, *, #220, .F. ) ;
#297 = CARTESIAN_POINT ( 'NONE',  ( 3.149999999999999900, 0.0000000000000000000, 0.0000000000000000000 ) ) ;
#298 = CARTESIAN_POINT ( 'NONE',  ( 4.919999999999999900, 0.0000000000000000000, -3.000000000000000900 ) ) ;
#299 = APPROVAL_PERSON_ORGANIZATION ( #91, #212, #56 ) ;
#300 = PRODUCT_DEFINITION_SHAPE ( 'NONE', 'NONE',  #186 ) ;
#301 = UNCERTAINTY_MEASURE_WITH_UNIT (LENGTH_MEASURE( 1.000000000000000100E-005 ), #292, 'distance_accuracy_value', 'NONE');
#302 = DIRECTION ( 'NONE',  ( 1.000000000000000000, 0.0000000000000000000, 0.0000000000000000000 ) ) ;
#303 = AXIS2_PLACEMENT_3D ( 'NONE', #3, #130, #308 ) ;
#304 = TOROIDAL_SURFACE ( 'NONE', #322, 3.896000000000000400, 0.1300000000000001700 ) ;
#305 = AXIS2_PLACEMENT_3D ( 'NONE', #52, #278, #125 ) ;
#306 = CIRCLE ( 'NONE', #248, 3.149999999999999900 ) ;
#307 = SHAPE_DEFINITION_REPRESENTATION ( #300, #213 ) ;
#308 = DIRECTION ( 'NONE',  ( 1.000000000000000000, 0.0000000000000000000, 0.0000000000000000000 ) ) ;
#309 = DATE_AND_TIME ( #232, #7 ) ;
#310 = AXIS2_PLACEMENT_3D ( 'NONE', #241, #265, #318 ) ;
#311 = ADVANCED_FACE ( 'NONE', ( #277, #106 ), #154, .F. ) ;
#312 = PERSON_AND_ORGANIZATION_ROLE ( 'design_supplier' ) ;
#313 = DIRECTION ( 'NONE',  ( 1.000000000000000000, 0.0000000000000000000, 0.0000000000000000000 ) ) ;
#314 = ADVANCED_FACE ( 'NONE', ( #46, #276 ), #59, .F. ) ;
#315 = CLOSED_SHELL ( 'NONE', ( #44, #208, #102, #103, #128, #27, #314, #194, #133, #311, #74, #270 ) ) ;
#316 = FACE_OUTER_BOUND ( 'NONE', #332, .T. ) ;
#317 = EDGE_LOOP ( 'NONE', ( #53 ) ) ;
#318 = DIRECTION ( 'NONE',  ( 1.000000000000000000, 0.0000000000000000000, 0.0000000000000000000 ) ) ;
#319 = CARTESIAN_POINT ( 'NONE',  ( 3.950940374026291400, 0.0000000000000000000, -2.382179987685235600 ) ) ;
#320 = VERTEX_POINT ( 'NONE', #89 ) ;
#321 = DIRECTION ( 'NONE',  ( -0.0000000000000000000, -0.0000000000000000000, 1.000000000000000000 ) ) ;
#322 = AXIS2_PLACEMENT_3D ( 'NONE', #1, #173, #158 ) ;
#323 = DIRECTION ( 'NONE',  ( -0.0000000000000000000, -0.0000000000000000000, 1.000000000000000000 ) ) ;
#324 = VERTEX_POINT ( 'NONE', #298 ) ;
#325 = DIRECTION ( 'NONE',  ( 0.0000000000000000000, 0.0000000000000000000, -1.000000000000000000 ) ) ;
#326 = CALENDAR_DATE ( 2017, 31, 7 ) ;
#327 = CARTESIAN_POINT ( 'NONE',  ( 4.025999999999999800, 0.0000000000000000000, -2.500000000000000000 ) ) ;
#328 = EDGE_LOOP ( 'NONE', ( #168 ) ) ;
#329 = FACE_OUTER_BOUND ( 'NONE', #97, .T. ) ;
#330 = CARTESIAN_POINT ( 'NONE',  ( 0.0000000000000000000, 0.0000000000000000000, 0.0000000000000000000 ) ) ;
#331 = PLANE ( 'NONE',  #249 ) ;
#332 = EDGE_LOOP ( 'NONE', ( #57 ) ) ;
ENDSEC;
END-ISO-10303-21;
