ISO-10303-21;
HEADER;
FILE_DESCRIPTION (( 'STEP AP203' ),
    '1' );
FILE_NAME ('581207628.STEP',
    '2017-07-31T19:47:13',
    ( '' ),
    ( '' ),
    'SwSTEP 2.0',
    'SolidWorks 2017',
    '' );
FILE_SCHEMA (( 'CONFIG_CONTROL_DESIGN' ));
ENDSEC;

DATA;
#1 = CARTESIAN_POINT ( 'NONE',  ( 0.0000000000000000000, 0.0000000000000000000, 0.0000000000000000000 ) ) ;
#2 = COORDINATED_UNIVERSAL_TIME_OFFSET ( 5, 0, .BEHIND. ) ;
#3 = AXIS2_PLACEMENT_3D ( 'NONE', #261, #290, #108 ) ;
#4 = DIRECTION ( 'NONE',  ( -1.000000000000000000, 0.0000000000000000000, 0.0000000000000000000 ) ) ;
#5 = CARTESIAN_POINT ( 'NONE',  ( 0.0000000000000000000, 0.0000000000000000000, -1.250000000000000000 ) ) ;
#6 = EDGE_CURVE ( 'NONE', #266, #266, #198, .T. ) ;
#7 = DIRECTION ( 'NONE',  ( -0.0000000000000000000, -0.0000000000000000000, 1.000000000000000000 ) ) ;
#8 = SHAPE_DEFINITION_REPRESENTATION ( #179, #133 ) ;
#9 = VERTEX_POINT ( 'NONE', #220 ) ;
#10 = FACE_BOUND ( 'NONE', #11, .T. ) ;
#11 = EDGE_LOOP ( 'NONE', ( #139 ) ) ;
#12 = ADVANCED_FACE ( 'NONE', ( #10, #172 ), #280, .F. ) ;
#13 = EDGE_LOOP ( 'NONE', ( #114 ) ) ;
#14 = AXIS2_PLACEMENT_3D ( 'NONE', #75, #203, #175 ) ;
#15 = EDGE_LOOP ( 'NONE', ( #302 ) ) ;
#16 = EDGE_LOOP ( 'NONE', ( #26 ) ) ;
#17 = CARTESIAN_POINT ( 'NONE',  ( 0.0000000000000000000, 0.0000000000000000000, -1.398848736687824600 ) ) ;
#18 = AXIS2_PLACEMENT_3D ( 'NONE', #160, #307, #192 ) ;
#19 = EDGE_LOOP ( 'NONE', ( #154 ) ) ;
#20 = CARTESIAN_POINT ( 'NONE',  ( 3.972858292301908000, 0.0000000000000000000, -2.351151263312176300 ) ) ;
#21 = PERSON_AND_ORGANIZATION_ROLE ( 'creator' ) ;
#22 = APPROVAL_DATE_TIME ( #228, #207 ) ;
#23 = DATE_AND_TIME ( #183, #292 ) ;
#24 = DIRECTION ( 'NONE',  ( -1.000000000000000000, 0.0000000000000000000, 0.0000000000000000000 ) ) ;
#25 = APPLICATION_PROTOCOL_DEFINITION ( 'international standard', 'config_control_design', 1994, #168 ) ;
#26 = ORIENTED_EDGE ( 'NONE', *, *, #83, .T. ) ;
#27 = TOROIDAL_SURFACE ( 'NONE', #121, 4.064999999999999500, 0.1300000000000000000 ) ;
#28 = DIRECTION ( 'NONE',  ( 0.0000000000000000000, 0.0000000000000000000, -1.000000000000000000 ) ) ;
#29 = DIRECTION ( 'NONE',  ( -0.0000000000000000000, -0.0000000000000000000, 1.000000000000000000 ) ) ;
#30 = EDGE_LOOP ( 'NONE', ( #216 ) ) ;
#31 = AXIS2_PLACEMENT_3D ( 'NONE', #273, #297, #205 ) ;
#32 = CYLINDRICAL_SURFACE ( 'NONE', #281, 3.218000000000000000 ) ;
#33 = TOROIDAL_SURFACE ( 'NONE', #300, 3.772000000000000200, 0.2499999999999995300 ) ;
#34 = EDGE_CURVE ( 'NONE', #131, #131, #165, .T. ) ;
#35 = EDGE_LOOP ( 'NONE', ( #293 ) ) ;
#36 = AXIS2_PLACEMENT_3D ( 'NONE', #46, #54, #237 ) ;
#37 = ADVANCED_FACE ( 'NONE', ( #64, #42 ), #101, .T. ) ;
#38 = PERSON_AND_ORGANIZATION ( #115, #79 ) ;
#39 = PERSON_AND_ORGANIZATION ( #115, #79 ) ;
#40 = CC_DESIGN_SECURITY_CLASSIFICATION ( #147, ( #161 ) ) ;
#41 = EDGE_LOOP ( 'NONE', ( #245 ) ) ;
#42 = FACE_OUTER_BOUND ( 'NONE', #125, .T. ) ;
#43 = DIRECTION ( 'NONE',  ( 0.0000000000000000000, -0.0000000000000000000, 1.000000000000000000 ) ) ;
#44 = AXIS2_PLACEMENT_3D ( 'NONE', #204, #29, #218 ) ;
#45 = EDGE_LOOP ( 'NONE', ( #140 ) ) ;
#46 = CARTESIAN_POINT ( 'NONE',  ( 0.0000000000000000000, 0.0000000000000000000, -2.351151263312176300 ) ) ;
#47 = PERSON_AND_ORGANIZATION ( #115, #79 ) ;
#48 = AXIS2_PLACEMENT_3D ( 'NONE', #66, #305, #132 ) ;
#49 =( CONVERSION_BASED_UNIT ( 'INCH', #124 ) LENGTH_UNIT ( ) NAMED_UNIT ( #186 ) );
#50 = CARTESIAN_POINT ( 'NONE',  ( 3.218000000000000000, 0.0000000000000000000, -1.250000000000000000 ) ) ;
#51 = EDGE_CURVE ( 'NONE', #9, #9, #107, .T. ) ;
#52 = SECURITY_CLASSIFICATION_LEVEL ( 'unclassified' ) ;
#53 = FACE_OUTER_BOUND ( 'NONE', #210, .T. ) ;
#54 = DIRECTION ( 'NONE',  ( -0.0000000000000000000, -0.0000000000000000000, 1.000000000000000000 ) ) ;
#55 = DIRECTION ( 'NONE',  ( -0.0000000000000000000, -0.0000000000000000000, 1.000000000000000000 ) ) ;
#56 =( GEOMETRIC_REPRESENTATION_CONTEXT ( 3 ) GLOBAL_UNCERTAINTY_ASSIGNED_CONTEXT ( ( #219 ) ) GLOBAL_UNIT_ASSIGNED_CONTEXT ( ( #49, #194, #193 ) ) REPRESENTATION_CONTEXT ( 'NONE', 'WORKASPACE' ) );
#57 = LOCAL_TIME ( 15, 47, 13.00000000000000000, #2 ) ;
#58 = CIRCLE ( 'NONE', #309, 4.022000000000000200 ) ;
#59 = EDGE_CURVE ( 'NONE', #274, #274, #298, .T. ) ;
#60 = ADVANCED_FACE ( 'NONE', ( #53, #119 ), #27, .F. ) ;
#61 = APPROVAL_DATE_TIME ( #253, #129 ) ;
#62 = EDGE_LOOP ( 'NONE', ( #310 ) ) ;
#63 = ORIENTED_EDGE ( 'NONE', *, *, #59, .T. ) ;
#64 = FACE_OUTER_BOUND ( 'NONE', #109, .T. ) ;
#65 = FACE_OUTER_BOUND ( 'NONE', #289, .T. ) ;
#66 = CARTESIAN_POINT ( 'NONE',  ( 0.0000000000000000000, 0.0000000000000000000, -3.000000000000000900 ) ) ;
#67 = APPROVAL_PERSON_ORGANIZATION ( #235, #207, #113 ) ;
#68 = ORIENTED_EDGE ( 'NONE', *, *, #137, .F. ) ;
#69 =( LENGTH_UNIT ( ) NAMED_UNIT ( * ) SI_UNIT ( $, .METRE. ) );
#70 = CIRCLE ( 'NONE', #48, 4.919999999999999900 ) ;
#71 = CARTESIAN_POINT ( 'NONE',  ( 4.919999999999999900, 0.0000000000000000000, -1.250000000000000000 ) ) ;
#72 = CARTESIAN_POINT ( 'NONE',  ( 0.0000000000000000000, 0.0000000000000000000, 0.0000000000000000000 ) ) ;
#73 = DIRECTION ( 'NONE',  ( 1.000000000000000000, 0.0000000000000000000, 0.0000000000000000000 ) ) ;
#74 = DIRECTION ( 'NONE',  ( 1.000000000000000000, 0.0000000000000000000, 0.0000000000000000000 ) ) ;
#75 = CARTESIAN_POINT ( 'NONE',  ( 0.0000000000000000000, 0.0000000000000000000, -1.250000000000000000 ) ) ;
#76 = ORIENTED_EDGE ( 'NONE', *, *, #145, .F. ) ;
#77 = DIRECTION ( 'NONE',  ( 0.0000000000000000000, 0.0000000000000000000, -1.000000000000000000 ) ) ;
#78 = AXIS2_PLACEMENT_3D ( 'NONE', #94, #268, #177 ) ;
#79 = ORGANIZATION ( 'UNSPECIFIED', 'UNSPECIFIED', '' ) ;
#80 = CYLINDRICAL_SURFACE ( 'NONE', #252, 4.919999999999999900 ) ;
#81 = FACE_OUTER_BOUND ( 'NONE', #206, .T. ) ;
#82 = AXIS2_PLACEMENT_3D ( 'NONE', #5, #146, #295 ) ;
#83 = EDGE_CURVE ( 'NONE', #209, #209, #304, .T. ) ;
#84 = APPROVAL_PERSON_ORGANIZATION ( #47, #129, #195 ) ;
#85 = CARTESIAN_POINT ( 'NONE',  ( 0.0000000000000000000, 3.218000000000000000, 0.0000000000000000000 ) ) ;
#86 = AXIS2_PLACEMENT_3D ( 'NONE', #159, #43, #191 ) ;
#87 = COORDINATED_UNIVERSAL_TIME_OFFSET ( 5, 0, .BEHIND. ) ;
#88 = EDGE_CURVE ( 'NONE', #130, #130, #58, .T. ) ;
#89 = DIRECTION ( 'NONE',  ( -0.0000000000000000000, -0.0000000000000000000, 1.000000000000000000 ) ) ;
#90 = DATE_TIME_ROLE ( 'creation_date' ) ;
#91 = TOROIDAL_SURFACE ( 'NONE', #270, 3.467999999999999500, 0.2500000000000002200 ) ;
#92 = COORDINATED_UNIVERSAL_TIME_OFFSET ( 5, 0, .BEHIND. ) ;
#93 = DIRECTION ( 'NONE',  ( -0.0000000000000000000, -0.0000000000000000000, 1.000000000000000000 ) ) ;
#94 = CARTESIAN_POINT ( 'NONE',  ( 0.0000000000000000000, 0.0000000000000000000, -2.500000000000000000 ) ) ;
#95 = DIRECTION ( 'NONE',  ( 1.000000000000000000, 0.0000000000000000000, 0.0000000000000000000 ) ) ;
#96 = DIRECTION ( 'NONE',  ( -0.0000000000000000000, -0.0000000000000000000, 1.000000000000000000 ) ) ;
#97 = CC_DESIGN_PERSON_AND_ORGANIZATION_ASSIGNMENT ( #38, #142, ( #286 ) ) ;
#98 = DIRECTION ( 'NONE',  ( 0.0000000000000000000, 0.0000000000000000000, -1.000000000000000000 ) ) ;
#99 = CALENDAR_DATE ( 2017, 31, 7 ) ;
#100 = EDGE_LOOP ( 'NONE', ( #251 ) ) ;
#101 = CYLINDRICAL_SURFACE ( 'NONE', #31, 3.935000000000000100 ) ;
#102 = AXIS2_PLACEMENT_3D ( 'NONE', #110, #242, #116 ) ;
#103 = EDGE_CURVE ( 'NONE', #164, #164, #250, .T. ) ;
#104 = ADVANCED_FACE ( 'NONE', ( #182, #126 ), #271, .F. ) ;
#105 = ADVANCED_FACE ( 'NONE', ( #244, #199 ), #80, .T. ) ;
#106 = VERTEX_POINT ( 'NONE', #166 ) ;
#107 = CIRCLE ( 'NONE', #44, 3.935000000000000100 ) ;
#108 = DIRECTION ( 'NONE',  ( 1.000000000000000000, 0.0000000000000000000, 0.0000000000000000000 ) ) ;
#109 = EDGE_LOOP ( 'NONE', ( #180 ) ) ;
#110 = CARTESIAN_POINT ( 'NONE',  ( 0.0000000000000000000, 0.0000000000000000000, 0.0000000000000000000 ) ) ;
#111 = LOCAL_TIME ( 15, 47, 13.00000000000000000, #87 ) ;
#112 = PRODUCT_DEFINITION ( 'UNKNOWN', '', #161, #143 ) ;
#113 = APPROVAL_ROLE ( '' ) ;
#114 = ORIENTED_EDGE ( 'NONE', *, *, #88, .F. ) ;
#115 = PERSON ( 'UNSPECIFIED', 'UNSPECIFIED', 'UNSPECIFIED', ('UNSPECIFIED'), ('UNSPECIFIED'), ('UNSPECIFIED') ) ;
#116 = DIRECTION ( 'NONE',  ( 1.000000000000000000, 0.0000000000000000000, 0.0000000000000000000 ) ) ;
#117 = ORIENTED_EDGE ( 'NONE', *, *, #276, .F. ) ;
#118 = PERSON_AND_ORGANIZATION ( #115, #79 ) ;
#119 = FACE_OUTER_BOUND ( 'NONE', #62, .T. ) ;
#120 = DIRECTION ( 'NONE',  ( 1.000000000000000000, 0.0000000000000000000, 0.0000000000000000000 ) ) ;
#121 = AXIS2_PLACEMENT_3D ( 'NONE', #272, #98, #4 ) ;
#122 = CC_DESIGN_DATE_AND_TIME_ASSIGNMENT ( #301, #215, ( #147 ) ) ;
#123 = CARTESIAN_POINT ( 'NONE',  ( 0.0000000000000000000, 0.0000000000000000000, -3.000000000000000400 ) ) ;
#124 = LENGTH_MEASURE_WITH_UNIT ( LENGTH_MEASURE( 0.02539999999999999900 ), #69 );
#125 = EDGE_LOOP ( 'NONE', ( #68 ) ) ;
#126 = FACE_OUTER_BOUND ( 'NONE', #45, .T. ) ;
#127 = EDGE_LOOP ( 'NONE', ( #201 ) ) ;
#128 = CC_DESIGN_APPROVAL ( #207, ( #112 ) ) ;
#129 = APPROVAL ( #136, 'UNSPECIFIED' ) ;
#130 = VERTEX_POINT ( 'NONE', #226 ) ;
#131 = VERTEX_POINT ( 'NONE', #221 ) ;
#132 = DIRECTION ( 'NONE',  ( 1.000000000000000000, 0.0000000000000000000, 0.0000000000000000000 ) ) ;
#133 = ADVANCED_BREP_SHAPE_REPRESENTATION ( '581207628', ( #234, #102 ), #56 ) ;
#134 = CC_DESIGN_PERSON_AND_ORGANIZATION_ASSIGNMENT ( #178, #169, ( #147 ) ) ;
#135 = CARTESIAN_POINT ( 'NONE',  ( 3.218000000000000000, 0.0000000000000000000, 0.0000000000000000000 ) ) ;
#136 = APPROVAL_STATUS ( 'not_yet_approved' ) ;
#137 = EDGE_CURVE ( 'NONE', #241, #241, #312, .T. ) ;
#138 = APPROVAL_STATUS ( 'not_yet_approved' ) ;
#139 = ORIENTED_EDGE ( 'NONE', *, *, #34, .T. ) ;
#140 = ORIENTED_EDGE ( 'NONE', *, *, #137, .T. ) ;
#141 = LOCAL_TIME ( 15, 47, 13.00000000000000000, #265 ) ;
#142 = PERSON_AND_ORGANIZATION_ROLE ( 'design_owner' ) ;
#143 = DESIGN_CONTEXT ( 'detailed design', #264, 'design' ) ;
#144 = CARTESIAN_POINT ( 'NONE',  ( 3.935000000000000100, 0.0000000000000000000, 0.0000000000000000000 ) ) ;
#145 = EDGE_CURVE ( 'NONE', #163, #163, #70, .T. ) ;
#146 = DIRECTION ( 'NONE',  ( 0.0000000000000000000, 0.0000000000000000000, -1.000000000000000000 ) ) ;
#147 = SECURITY_CLASSIFICATION ( '', '', #52 ) ;
#148 = CARTESIAN_POINT ( 'NONE',  ( 0.0000000000000000000, 3.935000000000000100, -1.250000000000000000 ) ) ;
#149 = FACE_OUTER_BOUND ( 'NONE', #185, .T. ) ;
#150 = ORIENTED_EDGE ( 'NONE', *, *, #34, .F. ) ;
#151 = AXIS2_PLACEMENT_3D ( 'NONE', #200, #93, #267 ) ;
#152 = AXIS2_PLACEMENT_3D ( 'NONE', #72, #7, #246 ) ;
#153 = ADVANCED_FACE ( 'NONE', ( #171, #214 ), #32, .F. ) ;
#154 = ORIENTED_EDGE ( 'NONE', *, *, #103, .T. ) ;
#155 = FACE_OUTER_BOUND ( 'NONE', #13, .T. ) ;
#156 = APPROVAL_DATE_TIME ( #278, #230 ) ;
#157 = ORIENTED_EDGE ( 'NONE', *, *, #263, .F. ) ;
#158 = ORIENTED_EDGE ( 'NONE', *, *, #6, .T. ) ;
#159 = CARTESIAN_POINT ( 'NONE',  ( 0.0000000000000000000, 4.919999999999999900, -3.000000000000000900 ) ) ;
#160 = CARTESIAN_POINT ( 'NONE',  ( 0.0000000000000000000, 0.0000000000000000000, -1.398848736687824600 ) ) ;
#161 = PRODUCT_DEFINITION_FORMATION_WITH_SPECIFIED_SOURCE ( 'ANY', '', #286, .NOT_KNOWN. ) ;
#162 = PERSON_AND_ORGANIZATION_ROLE ( 'design_supplier' ) ;
#163 = VERTEX_POINT ( 'NONE', #224 ) ;
#164 = VERTEX_POINT ( 'NONE', #71 ) ;
#165 = CIRCLE ( 'NONE', #82, 4.064999999999999500 ) ;
#166 = CARTESIAN_POINT ( 'NONE',  ( 3.267141707698090900, 0.0000000000000000000, -1.398848736687824600 ) ) ;
#167 = CC_DESIGN_APPROVAL ( #230, ( #161 ) ) ;
#168 = APPLICATION_CONTEXT ( 'configuration controlled 3d designs of mechanical parts and assemblies' ) ;
#169 = PERSON_AND_ORGANIZATION_ROLE ( 'classification_officer' ) ;
#170 = ORIENTED_EDGE ( 'NONE', *, *, #59, .F. ) ;
#171 = FACE_OUTER_BOUND ( 'NONE', #35, .T. ) ;
#172 = FACE_OUTER_BOUND ( 'NONE', #19, .T. ) ;
#173 = DIRECTION ( 'NONE',  ( -1.000000000000000000, 0.0000000000000000000, -0.0000000000000000000 ) ) ;
#174 = AXIS2_PLACEMENT_3D ( 'NONE', #17, #282, #24 ) ;
#175 = DIRECTION ( 'NONE',  ( 1.000000000000000000, 0.0000000000000000000, 0.0000000000000000000 ) ) ;
#176 = PRODUCT_RELATED_PRODUCT_CATEGORY ( 'detail', '', ( #286 ) ) ;
#177 = DIRECTION ( 'NONE',  ( 1.000000000000000000, 0.0000000000000000000, 0.0000000000000000000 ) ) ;
#178 = PERSON_AND_ORGANIZATION ( #115, #79 ) ;
#179 = PRODUCT_DEFINITION_SHAPE ( 'NONE', 'NONE',  #112 ) ;
#180 = ORIENTED_EDGE ( 'NONE', *, *, #51, .T. ) ;
#181 = VERTEX_POINT ( 'NONE', #20 ) ;
#182 = FACE_BOUND ( 'NONE', #127, .T. ) ;
#183 = CALENDAR_DATE ( 2017, 31, 7 ) ;
#184 = CC_DESIGN_DATE_AND_TIME_ASSIGNMENT ( #23, #90, ( #112 ) ) ;
#185 = EDGE_LOOP ( 'NONE', ( #157 ) ) ;
#186 = DIMENSIONAL_EXPONENTS ( 1.000000000000000000, 0.0000000000000000000, 0.0000000000000000000, 0.0000000000000000000, 0.0000000000000000000, 0.0000000000000000000, 0.0000000000000000000 ) ;
#187 = CIRCLE ( 'NONE', #18, 3.267141707698090900 ) ;
#188 = ADVANCED_FACE ( 'NONE', ( #149, #223 ), #91, .T. ) ;
#189 = CARTESIAN_POINT ( 'NONE',  ( 0.0000000000000000000, 0.0000000000000000000, -1.250000000000000000 ) ) ;
#190 = CC_DESIGN_PERSON_AND_ORGANIZATION_ASSIGNMENT ( #39, #162, ( #161 ) ) ;
#191 = DIRECTION ( 'NONE',  ( 1.000000000000000000, 0.0000000000000000000, 0.0000000000000000000 ) ) ;
#192 = DIRECTION ( 'NONE',  ( 1.000000000000000000, 0.0000000000000000000, 0.0000000000000000000 ) ) ;
#193 =( NAMED_UNIT ( * ) SI_UNIT ( $, .STERADIAN. ) SOLID_ANGLE_UNIT ( ) );
#194 =( NAMED_UNIT ( * ) PLANE_ANGLE_UNIT ( ) SI_UNIT ( $, .RADIAN. ) );
#195 = APPROVAL_ROLE ( '' ) ;
#196 = CLOSED_SHELL ( 'NONE', ( #188, #211, #256, #254, #260, #105, #12, #37, #104, #153, #60 ) ) ;
#197 = CARTESIAN_POINT ( 'NONE',  ( 4.022000000000000200, 0.0000000000000000000, -2.500000000000000000 ) ) ;
#198 = CIRCLE ( 'NONE', #152, 3.218000000000000000 ) ;
#199 = FACE_OUTER_BOUND ( 'NONE', #15, .T. ) ;
#200 = CARTESIAN_POINT ( 'NONE',  ( 0.0000000000000000000, 0.0000000000000000000, 0.0000000000000000000 ) ) ;
#201 = ORIENTED_EDGE ( 'NONE', *, *, #6, .F. ) ;
#202 = DIRECTION ( 'NONE',  ( 1.000000000000000000, 0.0000000000000000000, 0.0000000000000000000 ) ) ;
#203 = DIRECTION ( 'NONE',  ( -0.0000000000000000000, -0.0000000000000000000, 1.000000000000000000 ) ) ;
#204 = CARTESIAN_POINT ( 'NONE',  ( 0.0000000000000000000, 0.0000000000000000000, -1.120000000000000100 ) ) ;
#205 = DIRECTION ( 'NONE',  ( 1.000000000000000000, 0.0000000000000000000, 0.0000000000000000000 ) ) ;
#206 = EDGE_LOOP ( 'NONE', ( #170 ) ) ;
#207 = APPROVAL ( #138, 'UNSPECIFIED' ) ;
#208 = AXIS2_PLACEMENT_3D ( 'NONE', #148, #77, #231 ) ;
#209 = VERTEX_POINT ( 'NONE', #50 ) ;
#210 = EDGE_LOOP ( 'NONE', ( #150 ) ) ;
#211 = ADVANCED_FACE ( 'NONE', ( #65, #232 ), #249, .F. ) ;
#212 = CC_DESIGN_PERSON_AND_ORGANIZATION_ASSIGNMENT ( #287, #21, ( #161 ) ) ;
#213 = FACE_OUTER_BOUND ( 'NONE', #41, .T. ) ;
#214 = FACE_OUTER_BOUND ( 'NONE', #259, .T. ) ;
#215 = DATE_TIME_ROLE ( 'classification_date' ) ;
#216 = ORIENTED_EDGE ( 'NONE', *, *, #88, .T. ) ;
#217 = PLANE ( 'NONE',  #86 ) ;
#218 = DIRECTION ( 'NONE',  ( -1.000000000000000000, 0.0000000000000000000, 0.0000000000000000000 ) ) ;
#219 = UNCERTAINTY_MEASURE_WITH_UNIT (LENGTH_MEASURE( 1.000000000000000100E-005 ), #49, 'distance_accuracy_value', 'NONE');
#220 = CARTESIAN_POINT ( 'NONE',  ( -3.935000000000000100, 0.0000000000000000000, -1.120000000000000100 ) ) ;
#221 = CARTESIAN_POINT ( 'NONE',  ( -4.064999999999999500, 0.0000000000000000000, -1.250000000000000000 ) ) ;
#222 = CALENDAR_DATE ( 2017, 31, 7 ) ;
#223 = FACE_OUTER_BOUND ( 'NONE', #16, .T. ) ;
#224 = CARTESIAN_POINT ( 'NONE',  ( 4.919999999999999900, 0.0000000000000000000, -3.000000000000000900 ) ) ;
#225 = APPROVAL_PERSON_ORGANIZATION ( #118, #230, #308 ) ;
#226 = CARTESIAN_POINT ( 'NONE',  ( 4.022000000000000200, 0.0000000000000000000, -3.000000000000000400 ) ) ;
#227 = CARTESIAN_POINT ( 'NONE',  ( 0.0000000000000000000, 0.0000000000000000000, 0.0000000000000000000 ) ) ;
#228 = DATE_AND_TIME ( #303, #57 ) ;
#229 = CARTESIAN_POINT ( 'NONE',  ( 0.0000000000000000000, 0.0000000000000000000, -1.250000000000000000 ) ) ;
#230 = APPROVAL ( #291, 'UNSPECIFIED' ) ;
#231 = DIRECTION ( 'NONE',  ( -1.000000000000000000, 0.0000000000000000000, -0.0000000000000000000 ) ) ;
#232 = FACE_BOUND ( 'NONE', #100, .T. ) ;
#233 = FACE_OUTER_BOUND ( 'NONE', #248, .T. ) ;
#234 = MANIFOLD_SOLID_BREP ( 'Fillet1', #196 ) ;
#235 = PERSON_AND_ORGANIZATION ( #115, #79 ) ;
#236 = COORDINATED_UNIVERSAL_TIME_OFFSET ( 5, 0, .BEHIND. ) ;
#237 = DIRECTION ( 'NONE',  ( 1.000000000000000000, 0.0000000000000000000, 0.0000000000000000000 ) ) ;
#238 = DIRECTION ( 'NONE',  ( 1.000000000000000000, 0.0000000000000000000, 0.0000000000000000000 ) ) ;
#239 = AXIS2_PLACEMENT_3D ( 'NONE', #85, #28, #173 ) ;
#240 = DIRECTION ( 'NONE',  ( -0.0000000000000000000, -0.0000000000000000000, 1.000000000000000000 ) ) ;
#241 = VERTEX_POINT ( 'NONE', #144 ) ;
#242 = DIRECTION ( 'NONE',  ( 0.0000000000000000000, 0.0000000000000000000, 1.000000000000000000 ) ) ;
#243 = PERSON_AND_ORGANIZATION ( #115, #79 ) ;
#244 = FACE_OUTER_BOUND ( 'NONE', #283, .T. ) ;
#245 = ORIENTED_EDGE ( 'NONE', *, *, #276, .T. ) ;
#246 = DIRECTION ( 'NONE',  ( 1.000000000000000000, 0.0000000000000000000, 0.0000000000000000000 ) ) ;
#247 = CC_DESIGN_APPROVAL ( #129, ( #147 ) ) ;
#248 = EDGE_LOOP ( 'NONE', ( #76 ) ) ;
#249 = CONICAL_SURFACE ( 'NONE', #174, 3.267141707698090900, 0.6377571330843830900 ) ;
#250 = CIRCLE ( 'NONE', #296, 4.919999999999999900 ) ;
#251 = ORIENTED_EDGE ( 'NONE', *, *, #263, .T. ) ;
#252 = AXIS2_PLACEMENT_3D ( 'NONE', #1, #96, #74 ) ;
#253 = DATE_AND_TIME ( #222, #111 ) ;
#254 = ADVANCED_FACE ( 'NONE', ( #155, #294 ), #285, .F. ) ;
#255 = ORIENTED_EDGE ( 'NONE', *, *, #103, .F. ) ;
#256 = ADVANCED_FACE ( 'NONE', ( #81, #213 ), #33, .F. ) ;
#257 = CIRCLE ( 'NONE', #36, 3.972858292301908000 ) ;
#258 = DIRECTION ( 'NONE',  ( -0.0000000000000000000, -0.0000000000000000000, 1.000000000000000000 ) ) ;
#259 = EDGE_LOOP ( 'NONE', ( #158 ) ) ;
#260 = ADVANCED_FACE ( 'NONE', ( #233, #277 ), #217, .F. ) ;
#261 = CARTESIAN_POINT ( 'NONE',  ( 0.0000000000000000000, 0.0000000000000000000, 0.0000000000000000000 ) ) ;
#262 = PERSON_AND_ORGANIZATION_ROLE ( 'creator' ) ;
#263 = EDGE_CURVE ( 'NONE', #106, #106, #187, .T. ) ;
#264 = APPLICATION_CONTEXT ( 'configuration controlled 3d designs of mechanical parts and assemblies' ) ;
#265 = COORDINATED_UNIVERSAL_TIME_OFFSET ( 5, 0, .BEHIND. ) ;
#266 = VERTEX_POINT ( 'NONE', #135 ) ;
#267 = DIRECTION ( 'NONE',  ( 1.000000000000000000, 0.0000000000000000000, 0.0000000000000000000 ) ) ;
#268 = DIRECTION ( 'NONE',  ( -0.0000000000000000000, -0.0000000000000000000, 1.000000000000000000 ) ) ;
#269 = DIRECTION ( 'NONE',  ( -0.0000000000000000000, -0.0000000000000000000, 1.000000000000000000 ) ) ;
#270 = AXIS2_PLACEMENT_3D ( 'NONE', #189, #89, #120 ) ;
#271 = PLANE ( 'NONE',  #239 ) ;
#272 = CARTESIAN_POINT ( 'NONE',  ( 0.0000000000000000000, 0.0000000000000000000, -1.120000000000000100 ) ) ;
#273 = CARTESIAN_POINT ( 'NONE',  ( 0.0000000000000000000, 0.0000000000000000000, 0.0000000000000000000 ) ) ;
#274 = VERTEX_POINT ( 'NONE', #197 ) ;
#275 = CALENDAR_DATE ( 2017, 31, 7 ) ;
#276 = EDGE_CURVE ( 'NONE', #181, #181, #257, .T. ) ;
#277 = FACE_BOUND ( 'NONE', #30, .T. ) ;
#278 = DATE_AND_TIME ( #275, #311 ) ;
#279 = CC_DESIGN_PERSON_AND_ORGANIZATION_ASSIGNMENT ( #243, #262, ( #112 ) ) ;
#280 = PLANE ( 'NONE',  #208 ) ;
#281 = AXIS2_PLACEMENT_3D ( 'NONE', #227, #258, #73 ) ;
#282 = DIRECTION ( 'NONE',  ( 0.0000000000000000000, 0.0000000000000000000, -1.000000000000000000 ) ) ;
#283 = EDGE_LOOP ( 'NONE', ( #255 ) ) ;
#284 = APPLICATION_PROTOCOL_DEFINITION ( 'international standard', 'config_control_design', 1994, #264 ) ;
#285 = CYLINDRICAL_SURFACE ( 'NONE', #3, 4.022000000000000200 ) ;
#286 = PRODUCT ( '581207628', '581207628', '', ( #288 ) ) ;
#287 = PERSON_AND_ORGANIZATION ( #115, #79 ) ;
#288 = MECHANICAL_CONTEXT ( 'NONE', #168, 'mechanical' ) ;
#289 = EDGE_LOOP ( 'NONE', ( #117 ) ) ;
#290 = DIRECTION ( 'NONE',  ( -0.0000000000000000000, -0.0000000000000000000, 1.000000000000000000 ) ) ;
#291 = APPROVAL_STATUS ( 'not_yet_approved' ) ;
#292 = LOCAL_TIME ( 15, 47, 13.00000000000000000, #236 ) ;
#293 = ORIENTED_EDGE ( 'NONE', *, *, #83, .F. ) ;
#294 = FACE_OUTER_BOUND ( 'NONE', #299, .T. ) ;
#295 = DIRECTION ( 'NONE',  ( -1.000000000000000000, 0.0000000000000000000, 0.0000000000000000000 ) ) ;
#296 = AXIS2_PLACEMENT_3D ( 'NONE', #229, #55, #202 ) ;
#297 = DIRECTION ( 'NONE',  ( -0.0000000000000000000, -0.0000000000000000000, 1.000000000000000000 ) ) ;
#298 = CIRCLE ( 'NONE', #78, 4.022000000000000200 ) ;
#299 = EDGE_LOOP ( 'NONE', ( #63 ) ) ;
#300 = AXIS2_PLACEMENT_3D ( 'NONE', #306, #240, #238 ) ;
#301 = DATE_AND_TIME ( #99, #141 ) ;
#302 = ORIENTED_EDGE ( 'NONE', *, *, #145, .T. ) ;
#303 = CALENDAR_DATE ( 2017, 31, 7 ) ;
#304 = CIRCLE ( 'NONE', #14, 3.218000000000000000 ) ;
#305 = DIRECTION ( 'NONE',  ( -0.0000000000000000000, -0.0000000000000000000, 1.000000000000000000 ) ) ;
#306 = CARTESIAN_POINT ( 'NONE',  ( 0.0000000000000000000, 0.0000000000000000000, -2.500000000000000000 ) ) ;
#307 = DIRECTION ( 'NONE',  ( -0.0000000000000000000, -0.0000000000000000000, 1.000000000000000000 ) ) ;
#308 = APPROVAL_ROLE ( '' ) ;
#309 = AXIS2_PLACEMENT_3D ( 'NONE', #123, #269, #95 ) ;
#310 = ORIENTED_EDGE ( 'NONE', *, *, #51, .F. ) ;
#311 = LOCAL_TIME ( 15, 47, 13.00000000000000000, #92 ) ;
#312 = CIRCLE ( 'NONE', #151, 3.935000000000000100 ) ;
ENDSEC;
END-ISO-10303-21;
