ISO-10303-21;
HEADER;
FILE_DESCRIPTION (( 'STEP AP203' ),
    '1' );
FILE_NAME ('581207656.STEP',
    '2017-07-31T19:48:30',
    ( '' ),
    ( '' ),
    'SwSTEP 2.0',
    'SolidWorks 2017',
    '' );
FILE_SCHEMA (( 'CONFIG_CONTROL_DESIGN' ));
ENDSEC;

DATA;
#1 = LOCAL_TIME ( 15, 48, 30.00000000000000000, #115 ) ;
#2 = CARTESIAN_POINT ( 'NONE',  ( 0.0000000000000000000, 0.0000000000000000000, -1.770742682784853600 ) ) ;
#3 = AXIS2_PLACEMENT_3D ( 'NONE', #148, #245, #40 ) ;
#4 = DIRECTION ( 'NONE',  ( 1.000000000000000000, 0.0000000000000000000, 0.0000000000000000000 ) ) ;
#5 = DIRECTION ( 'NONE',  ( -0.0000000000000000000, -0.0000000000000000000, 1.000000000000000000 ) ) ;
#6 = PERSON_AND_ORGANIZATION ( #210, #186 ) ;
#7 = DIRECTION ( 'NONE',  ( 1.000000000000000000, 0.0000000000000000000, 0.0000000000000000000 ) ) ;
#8 = FACE_OUTER_BOUND ( 'NONE', #251, .T. ) ;
#9 = AXIS2_PLACEMENT_3D ( 'NONE', #280, #119, #259 ) ;
#10 = CYLINDRICAL_SURFACE ( 'NONE', #24, 5.070000000000000300 ) ;
#11 = EDGE_LOOP ( 'NONE', ( #52 ) ) ;
#12 = AXIS2_PLACEMENT_3D ( 'NONE', #307, #142, #208 ) ;
#13 = DIRECTION ( 'NONE',  ( 1.000000000000000000, 0.0000000000000000000, 0.0000000000000000000 ) ) ;
#14 = PRODUCT_RELATED_PRODUCT_CATEGORY ( 'detail', '', ( #144 ) ) ;
#15 = APPLICATION_CONTEXT ( 'configuration controlled 3d designs of mechanical parts and assemblies' ) ;
#16 = EDGE_LOOP ( 'NONE', ( #228 ) ) ;
#17 = LOCAL_TIME ( 15, 48, 30.00000000000000000, #270 ) ;
#18 = AXIS2_PLACEMENT_3D ( 'NONE', #247, #73, #195 ) ;
#19 = FACE_OUTER_BOUND ( 'NONE', #103, .T. ) ;
#20 = EDGE_LOOP ( 'NONE', ( #253 ) ) ;
#21 =( NAMED_UNIT ( * ) SI_UNIT ( $, .STERADIAN. ) SOLID_ANGLE_UNIT ( ) );
#22 = CALENDAR_DATE ( 2017, 31, 7 ) ;
#23 = CARTESIAN_POINT ( 'NONE',  ( 0.0000000000000000000, 0.0000000000000000000, -3.000000000000000400 ) ) ;
#24 = AXIS2_PLACEMENT_3D ( 'NONE', #238, #48, #66 ) ;
#25 = EDGE_LOOP ( 'NONE', ( #61 ) ) ;
#26 = APPROVAL_ROLE ( '' ) ;
#27 = VERTEX_POINT ( 'NONE', #229 ) ;
#28 = FACE_BOUND ( 'NONE', #110, .T. ) ;
#29 = ADVANCED_FACE ( 'NONE', ( #325, #28 ), #250, .F. ) ;
#30 = ORIENTED_EDGE ( 'NONE', *, *, #254, .T. ) ;
#31 = EDGE_LOOP ( 'NONE', ( #301 ) ) ;
#32 = DATE_AND_TIME ( #107, #17 ) ;
#33 = DIRECTION ( 'NONE',  ( -0.0000000000000000000, -0.0000000000000000000, 1.000000000000000000 ) ) ;
#34 = CC_DESIGN_APPROVAL ( #310, ( #297 ) ) ;
#35 = DIRECTION ( 'NONE',  ( -1.000000000000000000, 0.0000000000000000000, 0.0000000000000000000 ) ) ;
#36 = VERTEX_POINT ( 'NONE', #237 ) ;
#37 = CIRCLE ( 'NONE', #189, 1.126156985357331000 ) ;
#38 = CARTESIAN_POINT ( 'NONE',  ( 0.0000000000000000000, 1.240000000000000000, -1.250000000000000000 ) ) ;
#39 = DATE_AND_TIME ( #232, #1 ) ;
#40 = DIRECTION ( 'NONE',  ( 1.000000000000000000, 0.0000000000000000000, 0.0000000000000000000 ) ) ;
#41 = EDGE_CURVE ( 'NONE', #150, #150, #109, .T. ) ;
#42 = FACE_OUTER_BOUND ( 'NONE', #298, .T. ) ;
#43 = DATE_TIME_ROLE ( 'creation_date' ) ;
#44 = DIRECTION ( 'NONE',  ( 0.0000000000000000000, 0.0000000000000000000, -1.000000000000000000 ) ) ;
#45 = CALENDAR_DATE ( 2017, 31, 7 ) ;
#46 = DIRECTION ( 'NONE',  ( -1.000000000000000000, 0.0000000000000000000, -0.0000000000000000000 ) ) ;
#47 = DIRECTION ( 'NONE',  ( -0.0000000000000000000, -0.0000000000000000000, 1.000000000000000000 ) ) ;
#48 = DIRECTION ( 'NONE',  ( -0.0000000000000000000, -0.0000000000000000000, 1.000000000000000000 ) ) ;
#49 = CONICAL_SURFACE ( 'NONE', #74, 1.126156985357331000, 1.448623279155297100 ) ;
#50 = AXIS2_PLACEMENT_3D ( 'NONE', #129, #149, #13 ) ;
#51 = AXIS2_PLACEMENT_3D ( 'NONE', #68, #5, #193 ) ;
#52 = ORIENTED_EDGE ( 'NONE', *, *, #183, .F. ) ;
#53 =( NAMED_UNIT ( * ) PLANE_ANGLE_UNIT ( ) SI_UNIT ( $, .RADIAN. ) );
#54 = DIRECTION ( 'NONE',  ( 0.0000000000000000000, 0.0000000000000000000, -1.000000000000000000 ) ) ;
#55 = FACE_OUTER_BOUND ( 'NONE', #293, .T. ) ;
#56 = AXIS2_PLACEMENT_3D ( 'NONE', #266, #169, #126 ) ;
#57 = PERSON_AND_ORGANIZATION_ROLE ( 'design_supplier' ) ;
#58 = PERSON_AND_ORGANIZATION ( #210, #186 ) ;
#59 = APPROVAL_STATUS ( 'not_yet_approved' ) ;
#60 = ADVANCED_FACE ( 'NONE', ( #170, #190 ), #10, .F. ) ;
#61 = ORIENTED_EDGE ( 'NONE', *, *, #69, .T. ) ;
#62 = LOCAL_TIME ( 15, 48, 30.00000000000000000, #86 ) ;
#63 = AXIS2_PLACEMENT_3D ( 'NONE', #311, #281, #98 ) ;
#64 = CYLINDRICAL_SURFACE ( 'NONE', #323, 6.200000000000000200 ) ;
#65 = CARTESIAN_POINT ( 'NONE',  ( 0.0000000000000000000, 0.0000000000000000000, 0.0000000000000000000 ) ) ;
#66 = DIRECTION ( 'NONE',  ( 1.000000000000000000, 0.0000000000000000000, 0.0000000000000000000 ) ) ;
#67 = PERSON_AND_ORGANIZATION ( #210, #186 ) ;
#68 = CARTESIAN_POINT ( 'NONE',  ( 0.0000000000000000000, 0.0000000000000000000, 0.0000000000000000000 ) ) ;
#69 = EDGE_CURVE ( 'NONE', #226, #226, #146, .T. ) ;
#70 = CARTESIAN_POINT ( 'NONE',  ( 0.0000000000000000000, 1.011999999999999800, 0.0000000000000000000 ) ) ;
#71 = VERTEX_POINT ( 'NONE', #120 ) ;
#72 = EDGE_CURVE ( 'NONE', #239, #239, #231, .T. ) ;
#73 = DIRECTION ( 'NONE',  ( -0.0000000000000000000, -0.0000000000000000000, 1.000000000000000000 ) ) ;
#74 = AXIS2_PLACEMENT_3D ( 'NONE', #2, #165, #35 ) ;
#75 = LOCAL_TIME ( 15, 48, 30.00000000000000000, #261 ) ;
#76 =( GEOMETRIC_REPRESENTATION_CONTEXT ( 3 ) GLOBAL_UNCERTAINTY_ASSIGNED_CONTEXT ( ( #265 ) ) GLOBAL_UNIT_ASSIGNED_CONTEXT ( ( #296, #53, #21 ) ) REPRESENTATION_CONTEXT ( 'NONE', 'WORKASPACE' ) );
#77 = APPLICATION_CONTEXT ( 'configuration controlled 3d designs of mechanical parts and assemblies' ) ;
#78 = FACE_OUTER_BOUND ( 'NONE', #204, .T. ) ;
#79 = APPROVAL_PERSON_ORGANIZATION ( #275, #220, #128 ) ;
#80 = EDGE_LOOP ( 'NONE', ( #249 ) ) ;
#81 = CARTESIAN_POINT ( 'NONE',  ( 0.0000000000000000000, 0.0000000000000000000, -2.370000000000000600 ) ) ;
#82 = DESIGN_CONTEXT ( 'detailed design', #77, 'design' ) ;
#83 = DIRECTION ( 'NONE',  ( 1.000000000000000000, 0.0000000000000000000, 0.0000000000000000000 ) ) ;
#84 = PERSON_AND_ORGANIZATION_ROLE ( 'creator' ) ;
#85 = ADVANCED_FACE ( 'NONE', ( #184, #106 ), #151, .F. ) ;
#86 = COORDINATED_UNIVERSAL_TIME_OFFSET ( 5, 0, .BEHIND. ) ;
#87 = CARTESIAN_POINT ( 'NONE',  ( -6.200000000000000200, 0.0000000000000000000, -1.349999999999999000 ) ) ;
#88 = ADVANCED_FACE ( 'NONE', ( #300, #287 ), #218, .F. ) ;
#89 = CC_DESIGN_SECURITY_CLASSIFICATION ( #321, ( #297 ) ) ;
#90 = CARTESIAN_POINT ( 'NONE',  ( 0.0000000000000000000, 0.0000000000000000000, -1.250000000000000000 ) ) ;
#91 = ORIENTED_EDGE ( 'NONE', *, *, #41, .F. ) ;
#92 = ORIENTED_EDGE ( 'NONE', *, *, #291, .T. ) ;
#93 = AXIS2_PLACEMENT_3D ( 'NONE', #145, #312, #4 ) ;
#94 = DIRECTION ( 'NONE',  ( -1.000000000000000000, 0.0000000000000000000, 0.0000000000000000000 ) ) ;
#95 = LOCAL_TIME ( 15, 48, 30.00000000000000000, #191 ) ;
#96 = AXIS2_PLACEMENT_3D ( 'NONE', #70, #221, #292 ) ;
#97 = DIRECTION ( 'NONE',  ( 0.0000000000000000000, -0.0000000000000000000, 1.000000000000000000 ) ) ;
#98 = DIRECTION ( 'NONE',  ( 1.000000000000000000, 0.0000000000000000000, 0.0000000000000000000 ) ) ;
#99 = ORIENTED_EDGE ( 'NONE', *, *, #225, .T. ) ;
#100 = AXIS2_PLACEMENT_3D ( 'NONE', #90, #54, #94 ) ;
#101 = PERSON_AND_ORGANIZATION_ROLE ( 'creator' ) ;
#102 = ORIENTED_EDGE ( 'NONE', *, *, #267, .F. ) ;
#103 = EDGE_LOOP ( 'NONE', ( #234 ) ) ;
#104 = DIRECTION ( 'NONE',  ( -0.0000000000000000000, -0.0000000000000000000, 1.000000000000000000 ) ) ;
#105 = CARTESIAN_POINT ( 'NONE',  ( 0.0000000000000000000, 6.200000000000000200, -3.000000000000000400 ) ) ;
#106 = FACE_OUTER_BOUND ( 'NONE', #31, .T. ) ;
#107 = CALENDAR_DATE ( 2017, 31, 7 ) ;
#108 = AXIS2_PLACEMENT_3D ( 'NONE', #23, #273, #329 ) ;
#109 = CIRCLE ( 'NONE', #303, 1.369999999999999900 ) ;
#110 = EDGE_LOOP ( 'NONE', ( #92 ) ) ;
#111 = DIRECTION ( 'NONE',  ( 1.000000000000000000, 0.0000000000000000000, 0.0000000000000000000 ) ) ;
#112 = ORIENTED_EDGE ( 'NONE', *, *, #69, .F. ) ;
#113 = ADVANCED_FACE ( 'NONE', ( #290, #285 ), #313, .F. ) ;
#114 = FACE_OUTER_BOUND ( 'NONE', #121, .T. ) ;
#115 = COORDINATED_UNIVERSAL_TIME_OFFSET ( 5, 0, .BEHIND. ) ;
#116 = ADVANCED_FACE ( 'NONE', ( #55, #19 ), #306, .F. ) ;
#117 = CIRCLE ( 'NONE', #9, 1.240000000000000000 ) ;
#118 = CARTESIAN_POINT ( 'NONE',  ( 1.011999999999999800, 0.0000000000000000000, -1.641711683071481300 ) ) ;
#119 = DIRECTION ( 'NONE',  ( -0.0000000000000000000, -0.0000000000000000000, 1.000000000000000000 ) ) ;
#120 = CARTESIAN_POINT ( 'NONE',  ( 5.070000000000001200, 0.0000000000000000000, -2.370000000000000600 ) ) ;
#121 = EDGE_LOOP ( 'NONE', ( #243 ) ) ;
#122 = FACE_OUTER_BOUND ( 'NONE', #185, .T. ) ;
#123 = AXIS2_PLACEMENT_3D ( 'NONE', #286, #47, #263 ) ;
#124 = AXIS2_PLACEMENT_3D ( 'NONE', #105, #97, #283 ) ;
#125 = CIRCLE ( 'NONE', #18, 6.099999999999999600 ) ;
#126 = DIRECTION ( 'NONE',  ( 1.000000000000000000, 0.0000000000000000000, 0.0000000000000000000 ) ) ;
#127 = CARTESIAN_POINT ( 'NONE',  ( 0.0000000000000000000, 0.0000000000000000000, -1.120000000000000100 ) ) ;
#128 = APPROVAL_ROLE ( '' ) ;
#129 = CARTESIAN_POINT ( 'NONE',  ( 0.0000000000000000000, 0.0000000000000000000, -2.370000000000000600 ) ) ;
#130 = CIRCLE ( 'NONE', #93, 1.011999999999999800 ) ;
#131 = DATE_AND_TIME ( #45, #75 ) ;
#132 = PERSON_AND_ORGANIZATION_ROLE ( 'design_owner' ) ;
#133 = ORIENTED_EDGE ( 'NONE', *, *, #291, .F. ) ;
#134 = CIRCLE ( 'NONE', #56, 6.200000000000000200 ) ;
#135 = EDGE_LOOP ( 'NONE', ( #274 ) ) ;
#136 = DIRECTION ( 'NONE',  ( -0.0000000000000000000, -0.0000000000000000000, 1.000000000000000000 ) ) ;
#137 = PERSON_AND_ORGANIZATION ( #210, #186 ) ;
#138 = EDGE_CURVE ( 'NONE', #27, #27, #125, .T. ) ;
#139 = TOROIDAL_SURFACE ( 'NONE', #223, 1.369999999999999900, 0.1300000000000000000 ) ;
#140 = DATE_TIME_ROLE ( 'classification_date' ) ;
#141 = EDGE_LOOP ( 'NONE', ( #224 ) ) ;
#142 = DIRECTION ( 'NONE',  ( 0.0000000000000000000, 0.0000000000000000000, -1.000000000000000000 ) ) ;
#143 = EDGE_LOOP ( 'NONE', ( #200 ) ) ;
#144 = PRODUCT ( '581207656', '581207656', '', ( #152 ) ) ;
#145 = CARTESIAN_POINT ( 'NONE',  ( 0.0000000000000000000, 0.0000000000000000000, -1.641711683071481300 ) ) ;
#146 = CIRCLE ( 'NONE', #211, 1.240000000000000000 ) ;
#147 = PERSON_AND_ORGANIZATION ( #210, #186 ) ;
#148 = CARTESIAN_POINT ( 'NONE',  ( 0.0000000000000000000, 0.0000000000000000000, -1.641711683071481300 ) ) ;
#149 = DIRECTION ( 'NONE',  ( -0.0000000000000000000, -0.0000000000000000000, 1.000000000000000000 ) ) ;
#150 = VERTEX_POINT ( 'NONE', #230 ) ;
#151 = PLANE ( 'NONE',  #255 ) ;
#152 = MECHANICAL_CONTEXT ( 'NONE', #15, 'mechanical' ) ;
#153 = VERTEX_POINT ( 'NONE', #276 ) ;
#154 = APPLICATION_PROTOCOL_DEFINITION ( 'international standard', 'config_control_design', 1994, #15 ) ;
#155 = APPROVAL_DATE_TIME ( #209, #268 ) ;
#156 = DIRECTION ( 'NONE',  ( -0.0000000000000000000, -0.0000000000000000000, 1.000000000000000000 ) ) ;
#157 = ORIENTED_EDGE ( 'NONE', *, *, #267, .T. ) ;
#158 = CARTESIAN_POINT ( 'NONE',  ( 1.011999999999999800, 0.0000000000000000000, 0.0000000000000000000 ) ) ;
#159 = EDGE_LOOP ( 'NONE', ( #198 ) ) ;
#160 = ADVANCED_FACE ( 'NONE', ( #42, #78 ), #139, .F. ) ;
#161 = VERTEX_POINT ( 'NONE', #278 ) ;
#162 = CC_DESIGN_APPROVAL ( #268, ( #321 ) ) ;
#163 = VERTEX_POINT ( 'NONE', #158 ) ;
#164 = DIRECTION ( 'NONE',  ( 1.000000000000000000, 0.0000000000000000000, 0.0000000000000000000 ) ) ;
#165 = DIRECTION ( 'NONE',  ( 0.0000000000000000000, 0.0000000000000000000, -1.000000000000000000 ) ) ;
#166 = CIRCLE ( 'NONE', #277, 5.070000000000001200 ) ;
#167 = DIRECTION ( 'NONE',  ( 0.0000000000000000000, 0.0000000000000000000, -1.000000000000000000 ) ) ;
#168 = CC_DESIGN_PERSON_AND_ORGANIZATION_ASSIGNMENT ( #330, #84, ( #297 ) ) ;
#169 = DIRECTION ( 'NONE',  ( -0.0000000000000000000, -0.0000000000000000000, 1.000000000000000000 ) ) ;
#170 = FACE_OUTER_BOUND ( 'NONE', #176, .T. ) ;
#171 = EDGE_CURVE ( 'NONE', #309, #309, #134, .T. ) ;
#172 = EDGE_LOOP ( 'NONE', ( #99 ) ) ;
#173 = FACE_BOUND ( 'NONE', #236, .T. ) ;
#174 = CALENDAR_DATE ( 2017, 31, 7 ) ;
#175 = CC_DESIGN_DATE_AND_TIME_ASSIGNMENT ( #131, #140, ( #321 ) ) ;
#176 = EDGE_LOOP ( 'NONE', ( #133 ) ) ;
#177 = ORIENTED_EDGE ( 'NONE', *, *, #254, .F. ) ;
#178 = CARTESIAN_POINT ( 'NONE',  ( 4.955843014642669100, 0.0000000000000000000, -2.240969000286627800 ) ) ;
#179 = ORIENTED_EDGE ( 'NONE', *, *, #282, .T. ) ;
#180 = SECURITY_CLASSIFICATION_LEVEL ( 'unclassified' ) ;
#181 = ADVANCED_FACE ( 'NONE', ( #284, #324 ), #258, .T. ) ;
#182 = PRODUCT_DEFINITION ( 'UNKNOWN', '', #297, #82 ) ;
#183 = EDGE_CURVE ( 'NONE', #197, #197, #130, .T. ) ;
#184 = FACE_BOUND ( 'NONE', #135, .T. ) ;
#185 = EDGE_LOOP ( 'NONE', ( #102 ) ) ;
#186 = ORGANIZATION ( 'UNSPECIFIED', 'UNSPECIFIED', '' ) ;
#187 = AXIS2_PLACEMENT_3D ( 'NONE', #272, #188, #322 ) ;
#188 = DIRECTION ( 'NONE',  ( 0.0000000000000000000, 0.0000000000000000000, 1.000000000000000000 ) ) ;
#189 = AXIS2_PLACEMENT_3D ( 'NONE', #235, #136, #83 ) ;
#190 = FACE_OUTER_BOUND ( 'NONE', #294, .T. ) ;
#191 = COORDINATED_UNIVERSAL_TIME_OFFSET ( 5, 0, .BEHIND. ) ;
#192 = CC_DESIGN_PERSON_AND_ORGANIZATION_ASSIGNMENT ( #137, #57, ( #297 ) ) ;
#193 = DIRECTION ( 'NONE',  ( 1.000000000000000000, 0.0000000000000000000, 0.0000000000000000000 ) ) ;
#194 = CARTESIAN_POINT ( 'NONE',  ( 0.0000000000000000000, 0.0000000000000000000, -2.240969000286627800 ) ) ;
#195 = DIRECTION ( 'NONE',  ( -1.000000000000000000, 0.0000000000000000000, 0.0000000000000000000 ) ) ;
#196 = FACE_OUTER_BOUND ( 'NONE', #143, .T. ) ;
#197 = VERTEX_POINT ( 'NONE', #118 ) ;
#198 = ORIENTED_EDGE ( 'NONE', *, *, #138, .F. ) ;
#199 = CARTESIAN_POINT ( 'NONE',  ( 6.200000000000000200, 0.0000000000000000000, -3.000000000000000400 ) ) ;
#200 = ORIENTED_EDGE ( 'NONE', *, *, #72, .F. ) ;
#201 = ADVANCED_FACE ( 'NONE', ( #227, #114 ), #260, .T. ) ;
#202 = PRODUCT_DEFINITION_SHAPE ( 'NONE', 'NONE',  #182 ) ;
#203 = EDGE_LOOP ( 'NONE', ( #30 ) ) ;
#204 = EDGE_LOOP ( 'NONE', ( #112 ) ) ;
#205 = APPROVAL_ROLE ( '' ) ;
#206 = CC_DESIGN_PERSON_AND_ORGANIZATION_ASSIGNMENT ( #6, #132, ( #144 ) ) ;
#207 = CIRCLE ( 'NONE', #12, 6.200000000000000200 ) ;
#208 = DIRECTION ( 'NONE',  ( -1.000000000000000000, 0.0000000000000000000, 0.0000000000000000000 ) ) ;
#209 = DATE_AND_TIME ( #22, #95 ) ;
#210 = PERSON ( 'UNSPECIFIED', 'UNSPECIFIED', 'UNSPECIFIED', ('UNSPECIFIED'), ('UNSPECIFIED'), ('UNSPECIFIED') ) ;
#211 = AXIS2_PLACEMENT_3D ( 'NONE', #318, #242, #288 ) ;
#212 = FACE_OUTER_BOUND ( 'NONE', #16, .T. ) ;
#213 = CONICAL_SURFACE ( 'NONE', #100, 6.099999999999999600, 0.7853981633974566100 ) ;
#214 = CLOSED_SHELL ( 'NONE', ( #201, #233, #116, #60, #29, #257, #85, #181, #113, #88, #304, #160 ) ) ;
#215 = APPROVAL_DATE_TIME ( #32, #220 ) ;
#216 = CC_DESIGN_PERSON_AND_ORGANIZATION_ASSIGNMENT ( #147, #101, ( #182 ) ) ;
#217 = CC_DESIGN_DATE_AND_TIME_ASSIGNMENT ( #295, #43, ( #182 ) ) ;
#218 = CYLINDRICAL_SURFACE ( 'NONE', #51, 1.011999999999999800 ) ;
#219 = CIRCLE ( 'NONE', #108, 5.070000000000000300 ) ;
#220 = APPROVAL ( #289, 'UNSPECIFIED' ) ;
#221 = DIRECTION ( 'NONE',  ( 0.0000000000000000000, 0.0000000000000000000, -1.000000000000000000 ) ) ;
#222 = ADVANCED_BREP_SHAPE_REPRESENTATION ( '581207656', ( #327, #187 ), #76 ) ;
#223 = AXIS2_PLACEMENT_3D ( 'NONE', #127, #317, #241 ) ;
#224 = ORIENTED_EDGE ( 'NONE', *, *, #282, .F. ) ;
#225 = EDGE_CURVE ( 'NONE', #163, #163, #256, .T. ) ;
#226 = VERTEX_POINT ( 'NONE', #252 ) ;
#227 = FACE_OUTER_BOUND ( 'NONE', #141, .T. ) ;
#228 = ORIENTED_EDGE ( 'NONE', *, *, #171, .T. ) ;
#229 = CARTESIAN_POINT ( 'NONE',  ( -6.099999999999999600, 0.0000000000000000000, -1.250000000000000000 ) ) ;
#230 = CARTESIAN_POINT ( 'NONE',  ( -1.369999999999999900, 0.0000000000000000000, -1.250000000000000000 ) ) ;
#231 = CIRCLE ( 'NONE', #308, 4.955843014642669100 ) ;
#232 = CALENDAR_DATE ( 2017, 31, 7 ) ;
#233 = ADVANCED_FACE ( 'NONE', ( #196, #173 ), #49, .F. ) ;
#234 = ORIENTED_EDGE ( 'NONE', *, *, #72, .T. ) ;
#235 = CARTESIAN_POINT ( 'NONE',  ( 0.0000000000000000000, 0.0000000000000000000, -1.770742682784853600 ) ) ;
#236 = EDGE_LOOP ( 'NONE', ( #179 ) ) ;
#237 = CARTESIAN_POINT ( 'NONE',  ( 5.070000000000000300, 0.0000000000000000000, -3.000000000000000400 ) ) ;
#238 = CARTESIAN_POINT ( 'NONE',  ( 0.0000000000000000000, 0.0000000000000000000, 0.0000000000000000000 ) ) ;
#239 = VERTEX_POINT ( 'NONE', #178 ) ;
#240 = APPROVAL_DATE_TIME ( #39, #310 ) ;
#241 = DIRECTION ( 'NONE',  ( -1.000000000000000000, 0.0000000000000000000, 0.0000000000000000000 ) ) ;
#242 = DIRECTION ( 'NONE',  ( -0.0000000000000000000, -0.0000000000000000000, 1.000000000000000000 ) ) ;
#243 = ORIENTED_EDGE ( 'NONE', *, *, #183, .T. ) ;
#244 = SHAPE_DEFINITION_REPRESENTATION ( #202, #222 ) ;
#245 = DIRECTION ( 'NONE',  ( -0.0000000000000000000, -0.0000000000000000000, 1.000000000000000000 ) ) ;
#246 = LENGTH_MEASURE_WITH_UNIT ( LENGTH_MEASURE( 0.02539999999999999900 ), #328 );
#247 = CARTESIAN_POINT ( 'NONE',  ( 0.0000000000000000000, 0.0000000000000000000, -1.250000000000000000 ) ) ;
#248 = DIRECTION ( 'NONE',  ( -1.000000000000000000, 0.0000000000000000000, 0.0000000000000000000 ) ) ;
#249 = ORIENTED_EDGE ( 'NONE', *, *, #225, .F. ) ;
#250 = PLANE ( 'NONE',  #124 ) ;
#251 = EDGE_LOOP ( 'NONE', ( #157 ) ) ;
#252 = CARTESIAN_POINT ( 'NONE',  ( -1.240000000000000000, 0.0000000000000000000, -1.120000000000000100 ) ) ;
#253 = ORIENTED_EDGE ( 'NONE', *, *, #171, .F. ) ;
#254 = EDGE_CURVE ( 'NONE', #153, #153, #117, .T. ) ;
#255 = AXIS2_PLACEMENT_3D ( 'NONE', #38, #167, #46 ) ;
#256 = CIRCLE ( 'NONE', #63, 1.011999999999999800 ) ;
#257 = ADVANCED_FACE ( 'NONE', ( #8, #212 ), #64, .T. ) ;
#258 = CYLINDRICAL_SURFACE ( 'NONE', #123, 1.240000000000000000 ) ;
#259 = DIRECTION ( 'NONE',  ( 1.000000000000000000, 0.0000000000000000000, 0.0000000000000000000 ) ) ;
#260 = TOROIDAL_SURFACE ( 'NONE', #3, 1.141999999999999900, 0.1300000000000002300 ) ;
#261 = COORDINATED_UNIVERSAL_TIME_OFFSET ( 5, 0, .BEHIND. ) ;
#262 = CARTESIAN_POINT ( 'NONE',  ( 0.0000000000000000000, 0.0000000000000000000, -1.250000000000000000 ) ) ;
#263 = DIRECTION ( 'NONE',  ( 1.000000000000000000, 0.0000000000000000000, 0.0000000000000000000 ) ) ;
#264 = EDGE_LOOP ( 'NONE', ( #177 ) ) ;
#265 = UNCERTAINTY_MEASURE_WITH_UNIT (LENGTH_MEASURE( 1.000000000000000100E-005 ), #296, 'distance_accuracy_value', 'NONE');
#266 = CARTESIAN_POINT ( 'NONE',  ( 0.0000000000000000000, 0.0000000000000000000, -3.000000000000000400 ) ) ;
#267 = EDGE_CURVE ( 'NONE', #315, #315, #207, .T. ) ;
#268 = APPROVAL ( #331, 'UNSPECIFIED' ) ;
#269 = ORIENTED_EDGE ( 'NONE', *, *, #326, .F. ) ;
#270 = COORDINATED_UNIVERSAL_TIME_OFFSET ( 5, 0, .BEHIND. ) ;
#271 = FACE_BOUND ( 'NONE', #159, .T. ) ;
#272 = CARTESIAN_POINT ( 'NONE',  ( 0.0000000000000000000, 0.0000000000000000000, 0.0000000000000000000 ) ) ;
#273 = DIRECTION ( 'NONE',  ( -0.0000000000000000000, -0.0000000000000000000, 1.000000000000000000 ) ) ;
#274 = ORIENTED_EDGE ( 'NONE', *, *, #41, .T. ) ;
#275 = PERSON_AND_ORGANIZATION ( #210, #186 ) ;
#276 = CARTESIAN_POINT ( 'NONE',  ( 1.240000000000000000, 0.0000000000000000000, 0.0000000000000000000 ) ) ;
#277 = AXIS2_PLACEMENT_3D ( 'NONE', #81, #156, #111 ) ;
#278 = CARTESIAN_POINT ( 'NONE',  ( 1.126156985357331000, 0.0000000000000000000, -1.770742682784853600 ) ) ;
#279 = APPROVAL_PERSON_ORGANIZATION ( #67, #268, #205 ) ;
#280 = CARTESIAN_POINT ( 'NONE',  ( 0.0000000000000000000, 0.0000000000000000000, 0.0000000000000000000 ) ) ;
#281 = DIRECTION ( 'NONE',  ( -0.0000000000000000000, -0.0000000000000000000, 1.000000000000000000 ) ) ;
#282 = EDGE_CURVE ( 'NONE', #161, #161, #37, .T. ) ;
#283 = DIRECTION ( 'NONE',  ( 1.000000000000000000, 0.0000000000000000000, 0.0000000000000000000 ) ) ;
#284 = FACE_OUTER_BOUND ( 'NONE', #25, .T. ) ;
#285 = FACE_OUTER_BOUND ( 'NONE', #203, .T. ) ;
#286 = CARTESIAN_POINT ( 'NONE',  ( 0.0000000000000000000, 0.0000000000000000000, 0.0000000000000000000 ) ) ;
#287 = FACE_OUTER_BOUND ( 'NONE', #172, .T. ) ;
#288 = DIRECTION ( 'NONE',  ( -1.000000000000000000, 0.0000000000000000000, 0.0000000000000000000 ) ) ;
#289 = APPROVAL_STATUS ( 'not_yet_approved' ) ;
#290 = FACE_BOUND ( 'NONE', #80, .T. ) ;
#291 = EDGE_CURVE ( 'NONE', #36, #36, #219, .T. ) ;
#292 = DIRECTION ( 'NONE',  ( -1.000000000000000000, 0.0000000000000000000, -0.0000000000000000000 ) ) ;
#293 = EDGE_LOOP ( 'NONE', ( #269 ) ) ;
#294 = EDGE_LOOP ( 'NONE', ( #314 ) ) ;
#295 = DATE_AND_TIME ( #174, #62 ) ;
#296 =( CONVERSION_BASED_UNIT ( 'INCH', #246 ) LENGTH_UNIT ( ) NAMED_UNIT ( #299 ) );
#297 = PRODUCT_DEFINITION_FORMATION_WITH_SPECIFIED_SOURCE ( 'ANY', '', #144, .NOT_KNOWN. ) ;
#298 = EDGE_LOOP ( 'NONE', ( #91 ) ) ;
#299 = DIMENSIONAL_EXPONENTS ( 1.000000000000000000, 0.0000000000000000000, 0.0000000000000000000, 0.0000000000000000000, 0.0000000000000000000, 0.0000000000000000000, 0.0000000000000000000 ) ;
#300 = FACE_OUTER_BOUND ( 'NONE', #11, .T. ) ;
#301 = ORIENTED_EDGE ( 'NONE', *, *, #138, .T. ) ;
#302 = APPROVAL_PERSON_ORGANIZATION ( #58, #310, #26 ) ;
#303 = AXIS2_PLACEMENT_3D ( 'NONE', #262, #44, #248 ) ;
#304 = ADVANCED_FACE ( 'NONE', ( #122, #271 ), #213, .T. ) ;
#305 = PERSON_AND_ORGANIZATION_ROLE ( 'classification_officer' ) ;
#306 = TOROIDAL_SURFACE ( 'NONE', #50, 4.940000000000000400, 0.1300000000000006700 ) ;
#307 = CARTESIAN_POINT ( 'NONE',  ( 0.0000000000000000000, 0.0000000000000000000, -1.349999999999999000 ) ) ;
#308 = AXIS2_PLACEMENT_3D ( 'NONE', #194, #104, #7 ) ;
#309 = VERTEX_POINT ( 'NONE', #199 ) ;
#310 = APPROVAL ( #59, 'UNSPECIFIED' ) ;
#311 = CARTESIAN_POINT ( 'NONE',  ( 0.0000000000000000000, 0.0000000000000000000, 0.0000000000000000000 ) ) ;
#312 = DIRECTION ( 'NONE',  ( -0.0000000000000000000, -0.0000000000000000000, 1.000000000000000000 ) ) ;
#313 = PLANE ( 'NONE',  #96 ) ;
#314 = ORIENTED_EDGE ( 'NONE', *, *, #326, .T. ) ;
#315 = VERTEX_POINT ( 'NONE', #87 ) ;
#316 = CC_DESIGN_APPROVAL ( #220, ( #182 ) ) ;
#317 = DIRECTION ( 'NONE',  ( 0.0000000000000000000, 0.0000000000000000000, -1.000000000000000000 ) ) ;
#318 = CARTESIAN_POINT ( 'NONE',  ( 0.0000000000000000000, 0.0000000000000000000, -1.120000000000000100 ) ) ;
#319 = APPLICATION_PROTOCOL_DEFINITION ( 'international standard', 'config_control_design', 1994, #77 ) ;
#320 = PERSON_AND_ORGANIZATION ( #210, #186 ) ;
#321 = SECURITY_CLASSIFICATION ( '', '', #180 ) ;
#322 = DIRECTION ( 'NONE',  ( 1.000000000000000000, 0.0000000000000000000, 0.0000000000000000000 ) ) ;
#323 = AXIS2_PLACEMENT_3D ( 'NONE', #65, #33, #164 ) ;
#324 = FACE_OUTER_BOUND ( 'NONE', #264, .T. ) ;
#325 = FACE_OUTER_BOUND ( 'NONE', #20, .T. ) ;
#326 = EDGE_CURVE ( 'NONE', #71, #71, #166, .T. ) ;
#327 = MANIFOLD_SOLID_BREP ( 'Fillet1', #214 ) ;
#328 =( LENGTH_UNIT ( ) NAMED_UNIT ( * ) SI_UNIT ( $, .METRE. ) );
#329 = DIRECTION ( 'NONE',  ( 1.000000000000000000, 0.0000000000000000000, 0.0000000000000000000 ) ) ;
#330 = PERSON_AND_ORGANIZATION ( #210, #186 ) ;
#331 = APPROVAL_STATUS ( 'not_yet_approved' ) ;
#332 = CC_DESIGN_PERSON_AND_ORGANIZATION_ASSIGNMENT ( #320, #305, ( #321 ) ) ;
ENDSEC;
END-ISO-10303-21;
