ISO-10303-21;
HEADER;
FILE_DESCRIPTION (( 'STEP AP203' ),
    '1' );
FILE_NAME ('581207657.STEP',
    '2017-07-31T19:55:23',
    ( '' ),
    ( '' ),
    'SwSTEP 2.0',
    'SolidWorks 2017',
    '' );
FILE_SCHEMA (( 'CONFIG_CONTROL_DESIGN' ));
ENDSEC;

DATA;
#1 = CARTESIAN_POINT ( 'NONE',  ( 0.0000000000000000000, 0.0000000000000000000, 0.0000000000000000000 ) ) ;
#2 = VERTEX_POINT ( 'NONE', #126 ) ;
#3 = ADVANCED_FACE ( 'NONE', ( #265, #197 ), #109, .F. ) ;
#4 = CIRCLE ( 'NONE', #8, 6.200000000000000200 ) ;
#5 = CARTESIAN_POINT ( 'NONE',  ( 0.0000000000000000000, 1.446999999999999400, 0.0000000000000000000 ) ) ;
#6 = VERTEX_POINT ( 'NONE', #48 ) ;
#7 = ORIENTED_EDGE ( 'NONE', *, *, #297, .F. ) ;
#8 = AXIS2_PLACEMENT_3D ( 'NONE', #62, #64, #132 ) ;
#9 = CIRCLE ( 'NONE', #37, 1.770000000000000000 ) ;
#10 = PERSON_AND_ORGANIZATION ( #305, #56 ) ;
#11 = ORIENTED_EDGE ( 'NONE', *, *, #34, .F. ) ;
#12 = AXIS2_PLACEMENT_3D ( 'NONE', #50, #217, #322 ) ;
#13 = EDGE_CURVE ( 'NONE', #123, #123, #144, .T. ) ;
#14 = EDGE_LOOP ( 'NONE', ( #104 ) ) ;
#15 = APPROVAL_DATE_TIME ( #171, #223 ) ;
#16 =( LENGTH_UNIT ( ) NAMED_UNIT ( * ) SI_UNIT ( $, .METRE. ) );
#17 = FACE_OUTER_BOUND ( 'NONE', #96, .T. ) ;
#18 = EDGE_LOOP ( 'NONE', ( #306 ) ) ;
#19 = APPROVAL_DATE_TIME ( #40, #89 ) ;
#20 = CARTESIAN_POINT ( 'NONE',  ( 0.0000000000000000000, 0.0000000000000000000, 0.0000000000000000000 ) ) ;
#21 = ORIENTED_EDGE ( 'NONE', *, *, #65, .T. ) ;
#22 = DIRECTION ( 'NONE',  ( 1.000000000000000000, 0.0000000000000000000, 0.0000000000000000000 ) ) ;
#23 = DIRECTION ( 'NONE',  ( 1.000000000000000000, 0.0000000000000000000, 0.0000000000000000000 ) ) ;
#24 = EDGE_LOOP ( 'NONE', ( #283 ) ) ;
#25 = COORDINATED_UNIVERSAL_TIME_OFFSET ( 5, 0, .BEHIND. ) ;
#26 = ORIENTED_EDGE ( 'NONE', *, *, #184, .T. ) ;
#27 = AXIS2_PLACEMENT_3D ( 'NONE', #203, #179, #150 ) ;
#28 = CONICAL_SURFACE ( 'NONE', #267, 1.556880294924293700, 1.415404757807317000 ) ;
#29 = CARTESIAN_POINT ( 'NONE',  ( -1.899999999999999900, 0.0000000000000000000, -1.250000000000000000 ) ) ;
#30 = ORIENTED_EDGE ( 'NONE', *, *, #316, .T. ) ;
#31 = ORIENTED_EDGE ( 'NONE', *, *, #303, .F. ) ;
#32 = PERSON_AND_ORGANIZATION_ROLE ( 'design_owner' ) ;
#33 = ORIENTED_EDGE ( 'NONE', *, *, #34, .T. ) ;
#34 = EDGE_CURVE ( 'NONE', #6, #6, #127, .T. ) ;
#35 = VERTEX_POINT ( 'NONE', #114 ) ;
#36 = ORIENTED_EDGE ( 'NONE', *, *, #247, .F. ) ;
#37 = AXIS2_PLACEMENT_3D ( 'NONE', #172, #266, #259 ) ;
#38 = DIRECTION ( 'NONE',  ( -0.0000000000000000000, -0.0000000000000000000, 1.000000000000000000 ) ) ;
#39 = EDGE_LOOP ( 'NONE', ( #26 ) ) ;
#40 = DATE_AND_TIME ( #60, #236 ) ;
#41 = DIRECTION ( 'NONE',  ( 1.000000000000000000, 0.0000000000000000000, 0.0000000000000000000 ) ) ;
#42 = DIRECTION ( 'NONE',  ( -0.0000000000000000000, -0.0000000000000000000, 1.000000000000000000 ) ) ;
#43 = CARTESIAN_POINT ( 'NONE',  ( 0.0000000000000000000, 0.0000000000000000000, -1.250000000000000000 ) ) ;
#44 = AXIS2_PLACEMENT_3D ( 'NONE', #191, #69, #22 ) ;
#45 = DIRECTION ( 'NONE',  ( 1.000000000000000000, 0.0000000000000000000, 0.0000000000000000000 ) ) ;
#46 = CARTESIAN_POINT ( 'NONE',  ( 0.0000000000000000000, 0.0000000000000000000, -2.370000000000000100 ) ) ;
#47 = DIRECTION ( 'NONE',  ( -0.0000000000000000000, -0.0000000000000000000, 1.000000000000000000 ) ) ;
#48 = CARTESIAN_POINT ( 'NONE',  ( -6.200000000000000200, 0.0000000000000000000, -1.349999999999999000 ) ) ;
#49 = EDGE_LOOP ( 'NONE', ( #33 ) ) ;
#50 = CARTESIAN_POINT ( 'NONE',  ( 0.0000000000000000000, 0.0000000000000000000, -3.000000000000000400 ) ) ;
#51 = APPROVAL_STATUS ( 'not_yet_approved' ) ;
#52 = EDGE_CURVE ( 'NONE', #309, #309, #9, .T. ) ;
#53 = CYLINDRICAL_SURFACE ( 'NONE', #79, 1.446999999999999600 ) ;
#54 = EDGE_LOOP ( 'NONE', ( #225 ) ) ;
#55 = CIRCLE ( 'NONE', #326, 1.446999999999999400 ) ;
#56 = ORGANIZATION ( 'UNSPECIFIED', 'UNSPECIFIED', '' ) ;
#57 = CARTESIAN_POINT ( 'NONE',  ( 0.0000000000000000000, 0.0000000000000000000, -1.120000000000000100 ) ) ;
#58 = ORIENTED_EDGE ( 'NONE', *, *, #247, .T. ) ;
#59 = CARTESIAN_POINT ( 'NONE',  ( 1.447000000000000100, 0.0000000000000000000, -1.580000000000000100 ) ) ;
#60 = CALENDAR_DATE ( 2017, 31, 7 ) ;
#61 = AXIS2_PLACEMENT_3D ( 'NONE', #216, #42, #159 ) ;
#62 = CARTESIAN_POINT ( 'NONE',  ( 0.0000000000000000000, 0.0000000000000000000, -3.000000000000000400 ) ) ;
#63 = VERTEX_POINT ( 'NONE', #289 ) ;
#64 = DIRECTION ( 'NONE',  ( -0.0000000000000000000, -0.0000000000000000000, 1.000000000000000000 ) ) ;
#65 = EDGE_CURVE ( 'NONE', #264, #264, #108, .T. ) ;
#66 = CIRCLE ( 'NONE', #278, 1.447000000000000100 ) ;
#67 = EDGE_CURVE ( 'NONE', #63, #63, #211, .T. ) ;
#68 = ORIENTED_EDGE ( 'NONE', *, *, #320, .T. ) ;
#69 = DIRECTION ( 'NONE',  ( -0.0000000000000000000, -0.0000000000000000000, 1.000000000000000000 ) ) ;
#70 = DIRECTION ( 'NONE',  ( -0.0000000000000000000, -0.0000000000000000000, 1.000000000000000000 ) ) ;
#71 = DIRECTION ( 'NONE',  ( 0.0000000000000000000, -0.0000000000000000000, 1.000000000000000000 ) ) ;
#72 = COORDINATED_UNIVERSAL_TIME_OFFSET ( 5, 0, .BEHIND. ) ;
#73 = CC_DESIGN_PERSON_AND_ORGANIZATION_ASSIGNMENT ( #138, #110, ( #112 ) ) ;
#74 = PLANE ( 'NONE',  #252 ) ;
#75 = EDGE_LOOP ( 'NONE', ( #30 ) ) ;
#76 = CALENDAR_DATE ( 2017, 31, 7 ) ;
#77 = EDGE_LOOP ( 'NONE', ( #58 ) ) ;
#78 = DIRECTION ( 'NONE',  ( 1.000000000000000000, 0.0000000000000000000, 0.0000000000000000000 ) ) ;
#79 = AXIS2_PLACEMENT_3D ( 'NONE', #193, #47, #118 ) ;
#80 = CIRCLE ( 'NONE', #160, 1.556880294924293700 ) ;
#81 = CC_DESIGN_PERSON_AND_ORGANIZATION_ASSIGNMENT ( #204, #269, ( #112 ) ) ;
#82 = COORDINATED_UNIVERSAL_TIME_OFFSET ( 5, 0, .BEHIND. ) ;
#83 = EDGE_LOOP ( 'NONE', ( #11 ) ) ;
#84 = PERSON_AND_ORGANIZATION ( #305, #56 ) ;
#85 = APPLICATION_CONTEXT ( 'configuration controlled 3d designs of mechanical parts and assemblies' ) ;
#86 = FACE_OUTER_BOUND ( 'NONE', #18, .T. ) ;
#87 = CARTESIAN_POINT ( 'NONE',  ( 0.0000000000000000000, 0.0000000000000000000, -1.708433630594430300 ) ) ;
#88 = ORIENTED_EDGE ( 'NONE', *, *, #52, .F. ) ;
#89 = APPROVAL ( #51, 'UNSPECIFIED' ) ;
#90 = ORIENTED_EDGE ( 'NONE', *, *, #13, .F. ) ;
#91 = DIRECTION ( 'NONE',  ( -1.000000000000000000, 0.0000000000000000000, -0.0000000000000000000 ) ) ;
#92 = TOROIDAL_SURFACE ( 'NONE', #210, 1.899999999999999900, 0.1300000000000000000 ) ;
#93 = CARTESIAN_POINT ( 'NONE',  ( 0.0000000000000000000, 0.0000000000000000000, -1.708433630594430300 ) ) ;
#94 = VERTEX_POINT ( 'NONE', #255 ) ;
#95 = CARTESIAN_POINT ( 'NONE',  ( 1.556880294924293700, 0.0000000000000000000, -1.708433630594430300 ) ) ;
#96 = EDGE_LOOP ( 'NONE', ( #90 ) ) ;
#97 = DIRECTION ( 'NONE',  ( -0.0000000000000000000, -0.0000000000000000000, 1.000000000000000000 ) ) ;
#98 = AXIS2_PLACEMENT_3D ( 'NONE', #46, #243, #302 ) ;
#99 = EDGE_LOOP ( 'NONE', ( #235 ) ) ;
#100 = EDGE_LOOP ( 'NONE', ( #116 ) ) ;
#101 = FACE_BOUND ( 'NONE', #39, .T. ) ;
#102 = AXIS2_PLACEMENT_3D ( 'NONE', #186, #38, #242 ) ;
#103 = SECURITY_CLASSIFICATION ( '', '', #192 ) ;
#104 = ORIENTED_EDGE ( 'NONE', *, *, #320, .F. ) ;
#105 = DIRECTION ( 'NONE',  ( 0.0000000000000000000, 0.0000000000000000000, 1.000000000000000000 ) ) ;
#106 = ORIENTED_EDGE ( 'NONE', *, *, #13, .T. ) ;
#107 = CARTESIAN_POINT ( 'NONE',  ( 0.0000000000000000000, 0.0000000000000000000, -1.349999999999999000 ) ) ;
#108 = CIRCLE ( 'NONE', #180, 1.770000000000000000 ) ;
#109 = PLANE ( 'NONE',  #147 ) ;
#110 = PERSON_AND_ORGANIZATION_ROLE ( 'design_supplier' ) ;
#111 = EDGE_LOOP ( 'NONE', ( #124 ) ) ;
#112 = PRODUCT_DEFINITION_FORMATION_WITH_SPECIFIED_SOURCE ( 'ANY', '', #263, .NOT_KNOWN. ) ;
#113 = CYLINDRICAL_SURFACE ( 'NONE', #102, 5.070000000000000300 ) ;
#114 = CARTESIAN_POINT ( 'NONE',  ( -6.099999999999999600, 0.0000000000000000000, -1.250000000000000000 ) ) ;
#115 = ORIENTED_EDGE ( 'NONE', *, *, #65, .F. ) ;
#116 = ORIENTED_EDGE ( 'NONE', *, *, #316, .F. ) ;
#117 = CC_DESIGN_DATE_AND_TIME_ASSIGNMENT ( #146, #166, ( #103 ) ) ;
#118 = DIRECTION ( 'NONE',  ( 1.000000000000000000, 0.0000000000000000000, 0.0000000000000000000 ) ) ;
#119 = FACE_OUTER_BOUND ( 'NONE', #83, .T. ) ;
#120 = DIRECTION ( 'NONE',  ( -1.000000000000000000, 0.0000000000000000000, 0.0000000000000000000 ) ) ;
#121 = AXIS2_PLACEMENT_3D ( 'NONE', #240, #71, #78 ) ;
#122 = ORIENTED_EDGE ( 'NONE', *, *, #282, .T. ) ;
#123 = VERTEX_POINT ( 'NONE', #232 ) ;
#124 = ORIENTED_EDGE ( 'NONE', *, *, #297, .T. ) ;
#125 = LOCAL_TIME ( 15, 55, 23.00000000000000000, #72 ) ;
#126 = CARTESIAN_POINT ( 'NONE',  ( 1.446999999999999400, 0.0000000000000000000, 0.0000000000000000000 ) ) ;
#127 = CIRCLE ( 'NONE', #162, 6.200000000000000200 ) ;
#128 = EDGE_LOOP ( 'NONE', ( #115 ) ) ;
#129 = DIRECTION ( 'NONE',  ( -1.000000000000000000, 0.0000000000000000000, 0.0000000000000000000 ) ) ;
#130 = EDGE_LOOP ( 'NONE', ( #36 ) ) ;
#131 = DIRECTION ( 'NONE',  ( -1.000000000000000000, 0.0000000000000000000, 0.0000000000000000000 ) ) ;
#132 = DIRECTION ( 'NONE',  ( 1.000000000000000000, 0.0000000000000000000, 0.0000000000000000000 ) ) ;
#133 = CC_DESIGN_PERSON_AND_ORGANIZATION_ASSIGNMENT ( #177, #145, ( #220 ) ) ;
#134 = TOROIDAL_SURFACE ( 'NONE', #176, 4.940000000000000400, 0.1300000000000001700 ) ;
#135 = ADVANCED_FACE ( 'NONE', ( #143, #149 ), #92, .F. ) ;
#136 = FACE_OUTER_BOUND ( 'NONE', #130, .T. ) ;
#137 = FACE_BOUND ( 'NONE', #241, .T. ) ;
#138 = PERSON_AND_ORGANIZATION ( #305, #56 ) ;
#139 = DIRECTION ( 'NONE',  ( -1.000000000000000000, 0.0000000000000000000, 0.0000000000000000000 ) ) ;
#140 = COORDINATED_UNIVERSAL_TIME_OFFSET ( 5, 0, .BEHIND. ) ;
#141 = AXIS2_PLACEMENT_3D ( 'NONE', #239, #183, #230 ) ;
#142 = APPROVAL_ROLE ( '' ) ;
#143 = FACE_OUTER_BOUND ( 'NONE', #54, .T. ) ;
#144 = CIRCLE ( 'NONE', #12, 5.070000000000000300 ) ;
#145 = PERSON_AND_ORGANIZATION_ROLE ( 'creator' ) ;
#146 = DATE_AND_TIME ( #201, #125 ) ;
#147 = AXIS2_PLACEMENT_3D ( 'NONE', #5, #314, #151 ) ;
#148 = FACE_OUTER_BOUND ( 'NONE', #164, .T. ) ;
#149 = FACE_OUTER_BOUND ( 'NONE', #128, .T. ) ;
#150 = DIRECTION ( 'NONE',  ( -1.000000000000000000, 0.0000000000000000000, 0.0000000000000000000 ) ) ;
#151 = DIRECTION ( 'NONE',  ( -1.000000000000000000, 0.0000000000000000000, -0.0000000000000000000 ) ) ;
#152 = ADVANCED_FACE ( 'NONE', ( #136, #137 ), #213, .F. ) ;
#153 = DIRECTION ( 'NONE',  ( -0.0000000000000000000, -0.0000000000000000000, 1.000000000000000000 ) ) ;
#154 = FACE_OUTER_BOUND ( 'NONE', #256, .T. ) ;
#155 =( GEOMETRIC_REPRESENTATION_CONTEXT ( 3 ) GLOBAL_UNCERTAINTY_ASSIGNED_CONTEXT ( ( #281 ) ) GLOBAL_UNIT_ASSIGNED_CONTEXT ( ( #304, #298, #277 ) ) REPRESENTATION_CONTEXT ( 'NONE', 'WORKASPACE' ) );
#156 = DESIGN_CONTEXT ( 'detailed design', #85, 'design' ) ;
#157 = CYLINDRICAL_SURFACE ( 'NONE', #61, 6.200000000000000200 ) ;
#158 = VERTEX_POINT ( 'NONE', #95 ) ;
#159 = DIRECTION ( 'NONE',  ( 1.000000000000000000, 0.0000000000000000000, 0.0000000000000000000 ) ) ;
#160 = AXIS2_PLACEMENT_3D ( 'NONE', #93, #332, #23 ) ;
#161 = CIRCLE ( 'NONE', #308, 6.099999999999999600 ) ;
#162 = AXIS2_PLACEMENT_3D ( 'NONE', #107, #215, #139 ) ;
#163 = DIRECTION ( 'NONE',  ( -0.0000000000000000000, -0.0000000000000000000, 1.000000000000000000 ) ) ;
#164 = EDGE_LOOP ( 'NONE', ( #122 ) ) ;
#165 = APPROVAL_PERSON_ORGANIZATION ( #10, #285, #173 ) ;
#166 = DATE_TIME_ROLE ( 'classification_date' ) ;
#167 = DIRECTION ( 'NONE',  ( -0.0000000000000000000, -0.0000000000000000000, 1.000000000000000000 ) ) ;
#168 = DIRECTION ( 'NONE',  ( 0.0000000000000000000, 0.0000000000000000000, -1.000000000000000000 ) ) ;
#169 = CARTESIAN_POINT ( 'NONE',  ( 0.0000000000000000000, 0.0000000000000000000, -2.241566369405569900 ) ) ;
#170 = CC_DESIGN_PERSON_AND_ORGANIZATION_ASSIGNMENT ( #221, #244, ( #103 ) ) ;
#171 = DATE_AND_TIME ( #331, #226 ) ;
#172 = CARTESIAN_POINT ( 'NONE',  ( 0.0000000000000000000, 0.0000000000000000000, 0.0000000000000000000 ) ) ;
#173 = APPROVAL_ROLE ( '' ) ;
#174 = CARTESIAN_POINT ( 'NONE',  ( 1.770000000000000000, 0.0000000000000000000, 0.0000000000000000000 ) ) ;
#175 = FACE_BOUND ( 'NONE', #100, .T. ) ;
#176 = AXIS2_PLACEMENT_3D ( 'NONE', #206, #163, #41 ) ;
#177 = PERSON_AND_ORGANIZATION ( #305, #56 ) ;
#178 = ADVANCED_FACE ( 'NONE', ( #154, #330 ), #284, .T. ) ;
#179 = DIRECTION ( 'NONE',  ( 0.0000000000000000000, 0.0000000000000000000, -1.000000000000000000 ) ) ;
#180 = AXIS2_PLACEMENT_3D ( 'NONE', #212, #97, #120 ) ;
#181 = DIRECTION ( 'NONE',  ( -1.000000000000000000, 0.0000000000000000000, 0.0000000000000000000 ) ) ;
#182 = CARTESIAN_POINT ( 'NONE',  ( 5.070000000000000300, 0.0000000000000000000, -2.370000000000000100 ) ) ;
#183 = DIRECTION ( 'NONE',  ( -0.0000000000000000000, -0.0000000000000000000, 1.000000000000000000 ) ) ;
#184 = EDGE_CURVE ( 'NONE', #185, #185, #202, .T. ) ;
#185 = VERTEX_POINT ( 'NONE', #29 ) ;
#186 = CARTESIAN_POINT ( 'NONE',  ( 0.0000000000000000000, 0.0000000000000000000, 0.0000000000000000000 ) ) ;
#187 = CONICAL_SURFACE ( 'NONE', #291, 6.099999999999999600, 0.7853981633974566100 ) ;
#188 = APPROVAL_STATUS ( 'not_yet_approved' ) ;
#189 = MECHANICAL_CONTEXT ( 'NONE', #190, 'mechanical' ) ;
#190 = APPLICATION_CONTEXT ( 'configuration controlled 3d designs of mechanical parts and assemblies' ) ;
#191 = CARTESIAN_POINT ( 'NONE',  ( 0.0000000000000000000, 0.0000000000000000000, 0.0000000000000000000 ) ) ;
#192 = SECURITY_CLASSIFICATION_LEVEL ( 'unclassified' ) ;
#193 = CARTESIAN_POINT ( 'NONE',  ( 0.0000000000000000000, 0.0000000000000000000, 0.0000000000000000000 ) ) ;
#194 = AXIS2_PLACEMENT_3D ( 'NONE', #169, #153, #195 ) ;
#195 = DIRECTION ( 'NONE',  ( 1.000000000000000000, 0.0000000000000000000, 0.0000000000000000000 ) ) ;
#196 = FACE_OUTER_BOUND ( 'NONE', #75, .T. ) ;
#197 = FACE_OUTER_BOUND ( 'NONE', #251, .T. ) ;
#198 = DIRECTION ( 'NONE',  ( 1.000000000000000000, 0.0000000000000000000, 0.0000000000000000000 ) ) ;
#199 = CC_DESIGN_PERSON_AND_ORGANIZATION_ASSIGNMENT ( #318, #32, ( #263 ) ) ;
#200 = MANIFOLD_SOLID_BREP ( 'Fillet1', #294 ) ;
#201 = CALENDAR_DATE ( 2017, 31, 7 ) ;
#202 = CIRCLE ( 'NONE', #27, 1.899999999999999900 ) ;
#203 = CARTESIAN_POINT ( 'NONE',  ( 0.0000000000000000000, 0.0000000000000000000, -1.250000000000000000 ) ) ;
#204 = PERSON_AND_ORGANIZATION ( #305, #56 ) ;
#205 = AXIS2_PLACEMENT_3D ( 'NONE', #20, #105, #198 ) ;
#206 = CARTESIAN_POINT ( 'NONE',  ( 0.0000000000000000000, 0.0000000000000000000, -2.370000000000000100 ) ) ;
#207 = COORDINATED_UNIVERSAL_TIME_OFFSET ( 5, 0, .BEHIND. ) ;
#208 = CARTESIAN_POINT ( 'NONE',  ( -1.770000000000000000, 0.0000000000000000000, -1.120000000000000100 ) ) ;
#209 = CARTESIAN_POINT ( 'NONE',  ( 0.0000000000000000000, 0.0000000000000000000, -1.580000000000000100 ) ) ;
#210 = AXIS2_PLACEMENT_3D ( 'NONE', #57, #262, #317 ) ;
#211 = CIRCLE ( 'NONE', #194, 4.960119705075706900 ) ;
#212 = CARTESIAN_POINT ( 'NONE',  ( 0.0000000000000000000, 0.0000000000000000000, -1.120000000000000100 ) ) ;
#213 = PLANE ( 'NONE',  #121 ) ;
#214 = ADVANCED_FACE ( 'NONE', ( #300, #288 ), #157, .T. ) ;
#215 = DIRECTION ( 'NONE',  ( 0.0000000000000000000, 0.0000000000000000000, -1.000000000000000000 ) ) ;
#216 = CARTESIAN_POINT ( 'NONE',  ( 0.0000000000000000000, 0.0000000000000000000, 0.0000000000000000000 ) ) ;
#217 = DIRECTION ( 'NONE',  ( -0.0000000000000000000, -0.0000000000000000000, 1.000000000000000000 ) ) ;
#218 = FACE_OUTER_BOUND ( 'NONE', #231, .T. ) ;
#219 = APPLICATION_PROTOCOL_DEFINITION ( 'international standard', 'config_control_design', 1994, #190 ) ;
#220 = PRODUCT_DEFINITION ( 'UNKNOWN', '', #112, #156 ) ;
#221 = PERSON_AND_ORGANIZATION ( #305, #56 ) ;
#222 = ORIENTED_EDGE ( 'NONE', *, *, #303, .T. ) ;
#223 = APPROVAL ( #188, 'UNSPECIFIED' ) ;
#224 = ADVANCED_BREP_SHAPE_REPRESENTATION ( '581207657', ( #200, #205 ), #155 ) ;
#225 = ORIENTED_EDGE ( 'NONE', *, *, #184, .F. ) ;
#226 = LOCAL_TIME ( 15, 55, 23.00000000000000000, #140 ) ;
#227 = ADVANCED_FACE ( 'NONE', ( #229, #218 ), #53, .F. ) ;
#228 = EDGE_LOOP ( 'NONE', ( #7 ) ) ;
#229 = FACE_OUTER_BOUND ( 'NONE', #228, .T. ) ;
#230 = DIRECTION ( 'NONE',  ( 1.000000000000000000, 0.0000000000000000000, 0.0000000000000000000 ) ) ;
#231 = EDGE_LOOP ( 'NONE', ( #68 ) ) ;
#232 = CARTESIAN_POINT ( 'NONE',  ( 5.070000000000000300, 0.0000000000000000000, -3.000000000000000400 ) ) ;
#233 = FACE_OUTER_BOUND ( 'NONE', #111, .T. ) ;
#234 = ORIENTED_EDGE ( 'NONE', *, *, #52, .T. ) ;
#235 = ORIENTED_EDGE ( 'NONE', *, *, #67, .T. ) ;
#236 = LOCAL_TIME ( 15, 55, 23.00000000000000000, #207 ) ;
#237 = CC_DESIGN_APPROVAL ( #223, ( #220 ) ) ;
#238 = TOROIDAL_SURFACE ( 'NONE', #141, 1.577000000000000000, 0.1299999999999997300 ) ;
#239 = CARTESIAN_POINT ( 'NONE',  ( 0.0000000000000000000, 0.0000000000000000000, -1.580000000000000100 ) ) ;
#240 = CARTESIAN_POINT ( 'NONE',  ( 0.0000000000000000000, 6.200000000000000200, -3.000000000000000400 ) ) ;
#241 = EDGE_LOOP ( 'NONE', ( #106 ) ) ;
#242 = DIRECTION ( 'NONE',  ( 1.000000000000000000, 0.0000000000000000000, 0.0000000000000000000 ) ) ;
#243 = DIRECTION ( 'NONE',  ( -0.0000000000000000000, -0.0000000000000000000, 1.000000000000000000 ) ) ;
#244 = PERSON_AND_ORGANIZATION_ROLE ( 'classification_officer' ) ;
#245 = CC_DESIGN_DATE_AND_TIME_ASSIGNMENT ( #276, #271, ( #220 ) ) ;
#246 = APPLICATION_PROTOCOL_DEFINITION ( 'international standard', 'config_control_design', 1994, #85 ) ;
#247 = EDGE_CURVE ( 'NONE', #94, #94, #4, .T. ) ;
#248 = FACE_OUTER_BOUND ( 'NONE', #324, .T. ) ;
#249 = CC_DESIGN_APPROVAL ( #285, ( #103 ) ) ;
#250 = ADVANCED_FACE ( 'NONE', ( #17, #148 ), #113, .F. ) ;
#251 = EDGE_LOOP ( 'NONE', ( #234 ) ) ;
#252 = AXIS2_PLACEMENT_3D ( 'NONE', #253, #279, #91 ) ;
#253 = CARTESIAN_POINT ( 'NONE',  ( 0.0000000000000000000, 1.770000000000000000, -1.250000000000000000 ) ) ;
#254 = EDGE_LOOP ( 'NONE', ( #222 ) ) ;
#255 = CARTESIAN_POINT ( 'NONE',  ( 6.200000000000000200, 0.0000000000000000000, -3.000000000000000400 ) ) ;
#256 = EDGE_LOOP ( 'NONE', ( #21 ) ) ;
#257 = CC_DESIGN_APPROVAL ( #89, ( #112 ) ) ;
#258 = PERSON_AND_ORGANIZATION ( #305, #56 ) ;
#259 = DIRECTION ( 'NONE',  ( 1.000000000000000000, 0.0000000000000000000, 0.0000000000000000000 ) ) ;
#260 = ADVANCED_FACE ( 'NONE', ( #101, #196 ), #74, .F. ) ;
#261 = APPROVAL_STATUS ( 'not_yet_approved' ) ;
#262 = DIRECTION ( 'NONE',  ( 0.0000000000000000000, 0.0000000000000000000, -1.000000000000000000 ) ) ;
#263 = PRODUCT ( '581207657', '581207657', '', ( #189 ) ) ;
#264 = VERTEX_POINT ( 'NONE', #208 ) ;
#265 = FACE_BOUND ( 'NONE', #14, .T. ) ;
#266 = DIRECTION ( 'NONE',  ( -0.0000000000000000000, -0.0000000000000000000, 1.000000000000000000 ) ) ;
#267 = AXIS2_PLACEMENT_3D ( 'NONE', #87, #168, #181 ) ;
#268 = LOCAL_TIME ( 15, 55, 23.00000000000000000, #25 ) ;
#269 = PERSON_AND_ORGANIZATION_ROLE ( 'creator' ) ;
#270 = PRODUCT_RELATED_PRODUCT_CATEGORY ( 'detail', '', ( #263 ) ) ;
#271 = DATE_TIME_ROLE ( 'creation_date' ) ;
#272 = DIRECTION ( 'NONE',  ( 0.0000000000000000000, 0.0000000000000000000, -1.000000000000000000 ) ) ;
#273 = ADVANCED_FACE ( 'NONE', ( #248, #233 ), #238, .T. ) ;
#274 = APPROVAL_PERSON_ORGANIZATION ( #258, #223, #323 ) ;
#275 = CC_DESIGN_SECURITY_CLASSIFICATION ( #103, ( #112 ) ) ;
#276 = DATE_AND_TIME ( #76, #268 ) ;
#277 =( NAMED_UNIT ( * ) SI_UNIT ( $, .STERADIAN. ) SOLID_ANGLE_UNIT ( ) );
#278 = AXIS2_PLACEMENT_3D ( 'NONE', #209, #70, #45 ) ;
#279 = DIRECTION ( 'NONE',  ( 0.0000000000000000000, 0.0000000000000000000, -1.000000000000000000 ) ) ;
#280 = SHAPE_DEFINITION_REPRESENTATION ( #329, #224 ) ;
#281 = UNCERTAINTY_MEASURE_WITH_UNIT (LENGTH_MEASURE( 1.000000000000000100E-005 ), #304, 'distance_accuracy_value', 'NONE');
#282 = EDGE_CURVE ( 'NONE', #286, #286, #292, .T. ) ;
#283 = ORIENTED_EDGE ( 'NONE', *, *, #67, .F. ) ;
#284 = CYLINDRICAL_SURFACE ( 'NONE', #44, 1.770000000000000000 ) ;
#285 = APPROVAL ( #261, 'UNSPECIFIED' ) ;
#286 = VERTEX_POINT ( 'NONE', #182 ) ;
#287 = DATE_AND_TIME ( #293, #301 ) ;
#288 = FACE_OUTER_BOUND ( 'NONE', #77, .T. ) ;
#289 = CARTESIAN_POINT ( 'NONE',  ( 4.960119705075706900, 0.0000000000000000000, -2.241566369405569900 ) ) ;
#290 = ADVANCED_FACE ( 'NONE', ( #299, #321 ), #28, .F. ) ;
#291 = AXIS2_PLACEMENT_3D ( 'NONE', #328, #272, #129 ) ;
#292 = CIRCLE ( 'NONE', #98, 5.070000000000000300 ) ;
#293 = CALENDAR_DATE ( 2017, 31, 7 ) ;
#294 = CLOSED_SHELL ( 'NONE', ( #273, #290, #313, #250, #152, #214, #260, #178, #3, #227, #310, #135 ) ) ;
#295 = VERTEX_POINT ( 'NONE', #59 ) ;
#296 = EDGE_LOOP ( 'NONE', ( #88 ) ) ;
#297 = EDGE_CURVE ( 'NONE', #295, #295, #66, .T. ) ;
#298 =( NAMED_UNIT ( * ) PLANE_ANGLE_UNIT ( ) SI_UNIT ( $, .RADIAN. ) );
#299 = FACE_OUTER_BOUND ( 'NONE', #24, .T. ) ;
#300 = FACE_OUTER_BOUND ( 'NONE', #49, .T. ) ;
#301 = LOCAL_TIME ( 15, 55, 23.00000000000000000, #82 ) ;
#302 = DIRECTION ( 'NONE',  ( 1.000000000000000000, 0.0000000000000000000, 0.0000000000000000000 ) ) ;
#303 = EDGE_CURVE ( 'NONE', #158, #158, #80, .T. ) ;
#304 =( CONVERSION_BASED_UNIT ( 'INCH', #325 ) LENGTH_UNIT ( ) NAMED_UNIT ( #319 ) );
#305 = PERSON ( 'UNSPECIFIED', 'UNSPECIFIED', 'UNSPECIFIED', ('UNSPECIFIED'), ('UNSPECIFIED'), ('UNSPECIFIED') ) ;
#306 = ORIENTED_EDGE ( 'NONE', *, *, #282, .F. ) ;
#307 = DIRECTION ( 'NONE',  ( 1.000000000000000000, 0.0000000000000000000, 0.0000000000000000000 ) ) ;
#308 = AXIS2_PLACEMENT_3D ( 'NONE', #43, #167, #131 ) ;
#309 = VERTEX_POINT ( 'NONE', #174 ) ;
#310 = ADVANCED_FACE ( 'NONE', ( #119, #175 ), #187, .T. ) ;
#311 = FACE_OUTER_BOUND ( 'NONE', #99, .T. ) ;
#312 = DIRECTION ( 'NONE',  ( -0.0000000000000000000, -0.0000000000000000000, 1.000000000000000000 ) ) ;
#313 = ADVANCED_FACE ( 'NONE', ( #86, #311 ), #134, .F. ) ;
#314 = DIRECTION ( 'NONE',  ( 0.0000000000000000000, 0.0000000000000000000, -1.000000000000000000 ) ) ;
#315 = APPROVAL_PERSON_ORGANIZATION ( #84, #89, #142 ) ;
#316 = EDGE_CURVE ( 'NONE', #35, #35, #161, .T. ) ;
#317 = DIRECTION ( 'NONE',  ( -1.000000000000000000, 0.0000000000000000000, 0.0000000000000000000 ) ) ;
#318 = PERSON_AND_ORGANIZATION ( #305, #56 ) ;
#319 = DIMENSIONAL_EXPONENTS ( 1.000000000000000000, 0.0000000000000000000, 0.0000000000000000000, 0.0000000000000000000, 0.0000000000000000000, 0.0000000000000000000, 0.0000000000000000000 ) ;
#320 = EDGE_CURVE ( 'NONE', #2, #2, #55, .T. ) ;
#321 = FACE_BOUND ( 'NONE', #254, .T. ) ;
#322 = DIRECTION ( 'NONE',  ( 1.000000000000000000, 0.0000000000000000000, 0.0000000000000000000 ) ) ;
#323 = APPROVAL_ROLE ( '' ) ;
#324 = EDGE_LOOP ( 'NONE', ( #31 ) ) ;
#325 = LENGTH_MEASURE_WITH_UNIT ( LENGTH_MEASURE( 0.02539999999999999900 ), #16 );
#326 = AXIS2_PLACEMENT_3D ( 'NONE', #1, #312, #307 ) ;
#327 = APPROVAL_DATE_TIME ( #287, #285 ) ;
#328 = CARTESIAN_POINT ( 'NONE',  ( 0.0000000000000000000, 0.0000000000000000000, -1.250000000000000000 ) ) ;
#329 = PRODUCT_DEFINITION_SHAPE ( 'NONE', 'NONE',  #220 ) ;
#330 = FACE_OUTER_BOUND ( 'NONE', #296, .T. ) ;
#331 = CALENDAR_DATE ( 2017, 31, 7 ) ;
#332 = DIRECTION ( 'NONE',  ( -0.0000000000000000000, -0.0000000000000000000, 1.000000000000000000 ) ) ;
ENDSEC;
END-ISO-10303-21;
