ISO-10303-21;
HEADER;
FILE_DESCRIPTION (( 'STEP AP203' ),
    '1' );
FILE_NAME ('581207660.STEP',
    '2017-07-31T20:01:49',
    ( '' ),
    ( '' ),
    'SwSTEP 2.0',
    'SolidWorks 2017',
    '' );
FILE_SCHEMA (( 'CONFIG_CONTROL_DESIGN' ));
ENDSEC;

DATA;
#1 = COORDINATED_UNIVERSAL_TIME_OFFSET ( 5, 0, .BEHIND. ) ;
#2 = PERSON_AND_ORGANIZATION ( #48, #294 ) ;
#3 = ADVANCED_BREP_SHAPE_REPRESENTATION ( '581207660', ( #172, #221 ), #308 ) ;
#4 = LENGTH_MEASURE_WITH_UNIT ( LENGTH_MEASURE( 0.02539999999999999900 ), #323 );
#5 = PERSON_AND_ORGANIZATION_ROLE ( 'creator' ) ;
#6 = ORIENTED_EDGE ( 'NONE', *, *, #32, .F. ) ;
#7 = EDGE_LOOP ( 'NONE', ( #157 ) ) ;
#8 = DIRECTION ( 'NONE',  ( 1.000000000000000000, 0.0000000000000000000, 0.0000000000000000000 ) ) ;
#9 = CIRCLE ( 'NONE', #129, 6.200000000000000200 ) ;
#10 = EDGE_LOOP ( 'NONE', ( #291 ) ) ;
#11 = EDGE_LOOP ( 'NONE', ( #193 ) ) ;
#12 = EDGE_LOOP ( 'NONE', ( #297 ) ) ;
#13 = CALENDAR_DATE ( 2017, 31, 7 ) ;
#14 = CARTESIAN_POINT ( 'NONE',  ( 0.0000000000000000000, 0.0000000000000000000, -1.636033206906644600 ) ) ;
#15 = DIMENSIONAL_EXPONENTS ( 1.000000000000000000, 0.0000000000000000000, 0.0000000000000000000, 0.0000000000000000000, 0.0000000000000000000, 0.0000000000000000000, 0.0000000000000000000 ) ;
#16 = CARTESIAN_POINT ( 'NONE',  ( 3.303537381367663200, 0.0000000000000000000, -1.636033206906644600 ) ) ;
#17 = ORIENTED_EDGE ( 'NONE', *, *, #275, .F. ) ;
#18 = CARTESIAN_POINT ( 'NONE',  ( 0.0000000000000000000, 0.0000000000000000000, 0.0000000000000000000 ) ) ;
#19 = CARTESIAN_POINT ( 'NONE',  ( 0.0000000000000000000, 0.0000000000000000000, 0.0000000000000000000 ) ) ;
#20 = ORIENTED_EDGE ( 'NONE', *, *, #243, .T. ) ;
#21 = DIRECTION ( 'NONE',  ( -0.0000000000000000000, -0.0000000000000000000, 1.000000000000000000 ) ) ;
#22 = CARTESIAN_POINT ( 'NONE',  ( 4.984462618632337100, 0.0000000000000000000, -2.247839959297833100 ) ) ;
#23 = DIRECTION ( 'NONE',  ( 1.000000000000000000, 0.0000000000000000000, 0.0000000000000000000 ) ) ;
#24 = SHAPE_DEFINITION_REPRESENTATION ( #201, #3 ) ;
#25 = APPROVAL_STATUS ( 'not_yet_approved' ) ;
#26 = DIRECTION ( 'NONE',  ( -0.0000000000000000000, -0.0000000000000000000, 1.000000000000000000 ) ) ;
#27 = AXIS2_PLACEMENT_3D ( 'NONE', #120, #208, #213 ) ;
#28 = ADVANCED_FACE ( 'NONE', ( #162, #209 ), #44, .F. ) ;
#29 = VERTEX_POINT ( 'NONE', #40 ) ;
#30 = CIRCLE ( 'NONE', #89, 3.217999999999999500 ) ;
#31 = PRODUCT_DEFINITION_FORMATION_WITH_SPECIFIED_SOURCE ( 'ANY', '', #100, .NOT_KNOWN. ) ;
#32 = EDGE_CURVE ( 'NONE', #86, #86, #168, .T. ) ;
#33 = COORDINATED_UNIVERSAL_TIME_OFFSET ( 5, 0, .BEHIND. ) ;
#34 = AXIS2_PLACEMENT_3D ( 'NONE', #180, #61, #238 ) ;
#35 = APPROVAL ( #75, 'UNSPECIFIED' ) ;
#36 = DIRECTION ( 'NONE',  ( -1.000000000000000000, 0.0000000000000000000, 0.0000000000000000000 ) ) ;
#37 = PERSON_AND_ORGANIZATION ( #48, #294 ) ;
#38 = ORIENTED_EDGE ( 'NONE', *, *, #133, .F. ) ;
#39 = ORIENTED_EDGE ( 'NONE', *, *, #263, .F. ) ;
#40 = CARTESIAN_POINT ( 'NONE',  ( -6.099999999999999600, 0.0000000000000000000, -1.250000000000000000 ) ) ;
#41 = CARTESIAN_POINT ( 'NONE',  ( 0.0000000000000000000, 0.0000000000000000000, -3.000000000000000400 ) ) ;
#42 = DIRECTION ( 'NONE',  ( 1.000000000000000000, 0.0000000000000000000, 0.0000000000000000000 ) ) ;
#43 = DIRECTION ( 'NONE',  ( 0.0000000000000000000, 0.0000000000000000000, -1.000000000000000000 ) ) ;
#44 = CONICAL_SURFACE ( 'NONE', #298, 3.303537381367663200, 1.221730476396034200 ) ;
#45 = DIRECTION ( 'NONE',  ( -0.0000000000000000000, -0.0000000000000000000, 1.000000000000000000 ) ) ;
#46 = CARTESIAN_POINT ( 'NONE',  ( 0.0000000000000000000, 6.200000000000000200, -3.000000000000000400 ) ) ;
#47 = PERSON_AND_ORGANIZATION_ROLE ( 'creator' ) ;
#48 = PERSON ( 'UNSPECIFIED', 'UNSPECIFIED', 'UNSPECIFIED', ('UNSPECIFIED'), ('UNSPECIFIED'), ('UNSPECIFIED') ) ;
#49 = VERTEX_POINT ( 'NONE', #153 ) ;
#50 = ADVANCED_FACE ( 'NONE', ( #206, #165 ), #181, .T. ) ;
#51 = CC_DESIGN_PERSON_AND_ORGANIZATION_ASSIGNMENT ( #2, #5, ( #31 ) ) ;
#52 =( CONVERSION_BASED_UNIT ( 'INCH', #4 ) LENGTH_UNIT ( ) NAMED_UNIT ( #15 ) );
#53 = EDGE_CURVE ( 'NONE', #49, #49, #9, .T. ) ;
#54 = FACE_OUTER_BOUND ( 'NONE', #317, .T. ) ;
#55 = AXIS2_PLACEMENT_3D ( 'NONE', #124, #94, #42 ) ;
#56 = FACE_BOUND ( 'NONE', #270, .T. ) ;
#57 = CC_DESIGN_PERSON_AND_ORGANIZATION_ASSIGNMENT ( #37, #158, ( #31 ) ) ;
#58 = DIRECTION ( 'NONE',  ( 0.0000000000000000000, 0.0000000000000000000, -1.000000000000000000 ) ) ;
#59 = DIRECTION ( 'NONE',  ( 0.0000000000000000000, 0.0000000000000000000, 1.000000000000000000 ) ) ;
#60 = FACE_OUTER_BOUND ( 'NONE', #10, .T. ) ;
#61 = DIRECTION ( 'NONE',  ( -0.0000000000000000000, -0.0000000000000000000, 1.000000000000000000 ) ) ;
#62 = ORIENTED_EDGE ( 'NONE', *, *, #53, .T. ) ;
#63 = AXIS2_PLACEMENT_3D ( 'NONE', #302, #87, #136 ) ;
#64 = EDGE_LOOP ( 'NONE', ( #274 ) ) ;
#65 = AXIS2_PLACEMENT_3D ( 'NONE', #176, #148, #228 ) ;
#66 = CARTESIAN_POINT ( 'NONE',  ( 0.0000000000000000000, 0.0000000000000000000, -1.120000000000000100 ) ) ;
#67 = AXIS2_PLACEMENT_3D ( 'NONE', #239, #101, #229 ) ;
#68 = DATE_AND_TIME ( #135, #84 ) ;
#69 = FACE_BOUND ( 'NONE', #11, .T. ) ;
#70 = EDGE_LOOP ( 'NONE', ( #6 ) ) ;
#71 = DIRECTION ( 'NONE',  ( 1.000000000000000000, 0.0000000000000000000, 0.0000000000000000000 ) ) ;
#72 = EDGE_CURVE ( 'NONE', #29, #29, #316, .T. ) ;
#73 = CARTESIAN_POINT ( 'NONE',  ( 0.0000000000000000000, 0.0000000000000000000, -1.349999999999999000 ) ) ;
#74 = DIRECTION ( 'NONE',  ( 1.000000000000000000, 0.0000000000000000000, 0.0000000000000000000 ) ) ;
#75 = APPROVAL_STATUS ( 'not_yet_approved' ) ;
#76 = APPLICATION_PROTOCOL_DEFINITION ( 'international standard', 'config_control_design', 1994, #218 ) ;
#77 = AXIS2_PLACEMENT_3D ( 'NONE', #18, #45, #235 ) ;
#78 = APPROVAL ( #103, 'UNSPECIFIED' ) ;
#79 = APPROVAL_DATE_TIME ( #141, #78 ) ;
#80 = VERTEX_POINT ( 'NONE', #154 ) ;
#81 = TOROIDAL_SURFACE ( 'NONE', #55, 4.940000000000000400, 0.1299999999999994200 ) ;
#82 = ADVANCED_FACE ( 'NONE', ( #174, #200 ), #123, .T. ) ;
#83 = FACE_OUTER_BOUND ( 'NONE', #252, .T. ) ;
#84 = LOCAL_TIME ( 16, 1, 49.00000000000000000, #33 ) ;
#85 = FACE_OUTER_BOUND ( 'NONE', #233, .T. ) ;
#86 = VERTEX_POINT ( 'NONE', #16 ) ;
#87 = DIRECTION ( 'NONE',  ( 0.0000000000000000000, 0.0000000000000000000, -1.000000000000000000 ) ) ;
#88 = DIRECTION ( 'NONE',  ( -1.000000000000000000, 0.0000000000000000000, 0.0000000000000000000 ) ) ;
#89 = AXIS2_PLACEMENT_3D ( 'NONE', #304, #173, #74 ) ;
#90 = AXIS2_PLACEMENT_3D ( 'NONE', #314, #300, #71 ) ;
#91 = DIRECTION ( 'NONE',  ( 1.000000000000000000, 0.0000000000000000000, 0.0000000000000000000 ) ) ;
#92 = APPROVAL_DATE_TIME ( #109, #318 ) ;
#93 = ADVANCED_FACE ( 'NONE', ( #220, #116 ), #169, .T. ) ;
#94 = DIRECTION ( 'NONE',  ( -0.0000000000000000000, -0.0000000000000000000, 1.000000000000000000 ) ) ;
#95 = CIRCLE ( 'NONE', #27, 4.064999999999999500 ) ;
#96 = DIRECTION ( 'NONE',  ( -0.0000000000000000000, -0.0000000000000000000, 1.000000000000000000 ) ) ;
#97 = CARTESIAN_POINT ( 'NONE',  ( 5.070000000000000300, 0.0000000000000000000, -2.370000000000000100 ) ) ;
#98 = CIRCLE ( 'NONE', #146, 6.200000000000000200 ) ;
#99 = CARTESIAN_POINT ( 'NONE',  ( 0.0000000000000000000, 0.0000000000000000000, 0.0000000000000000000 ) ) ;
#100 = PRODUCT ( '581207660', '581207660', '', ( #315 ) ) ;
#101 = DIRECTION ( 'NONE',  ( -0.0000000000000000000, -0.0000000000000000000, 1.000000000000000000 ) ) ;
#102 = FACE_BOUND ( 'NONE', #64, .T. ) ;
#103 = APPROVAL_STATUS ( 'not_yet_approved' ) ;
#104 = CARTESIAN_POINT ( 'NONE',  ( 3.935000000000000100, 0.0000000000000000000, 0.0000000000000000000 ) ) ;
#105 =( NAMED_UNIT ( * ) SI_UNIT ( $, .STERADIAN. ) SOLID_ANGLE_UNIT ( ) );
#106 = ADVANCED_FACE ( 'NONE', ( #185, #54 ), #138, .F. ) ;
#107 = FACE_OUTER_BOUND ( 'NONE', #215, .T. ) ;
#108 = TOROIDAL_SURFACE ( 'NONE', #175, 4.064999999999999500, 0.1300000000000000000 ) ;
#109 = DATE_AND_TIME ( #13, #196 ) ;
#110 = EDGE_CURVE ( 'NONE', #163, #163, #282, .T. ) ;
#111 = CC_DESIGN_DATE_AND_TIME_ASSIGNMENT ( #161, #285, ( #203 ) ) ;
#112 = ORIENTED_EDGE ( 'NONE', *, *, #133, .T. ) ;
#113 = COORDINATED_UNIVERSAL_TIME_OFFSET ( 5, 0, .BEHIND. ) ;
#114 = CLOSED_SHELL ( 'NONE', ( #267, #106, #271, #50, #144, #82, #313, #321, #93, #28, #299, #237 ) ) ;
#115 = FACE_OUTER_BOUND ( 'NONE', #197, .T. ) ;
#116 = FACE_OUTER_BOUND ( 'NONE', #296, .T. ) ;
#117 = CARTESIAN_POINT ( 'NONE',  ( 0.0000000000000000000, 0.0000000000000000000, -1.636033206906644600 ) ) ;
#118 = AXIS2_PLACEMENT_3D ( 'NONE', #234, #21, #256 ) ;
#119 = DIRECTION ( 'NONE',  ( 0.0000000000000000000, -0.0000000000000000000, 1.000000000000000000 ) ) ;
#120 = CARTESIAN_POINT ( 'NONE',  ( 0.0000000000000000000, 0.0000000000000000000, -1.250000000000000000 ) ) ;
#121 = EDGE_CURVE ( 'NONE', #211, #211, #126, .T. ) ;
#122 = ORIENTED_EDGE ( 'NONE', *, *, #121, .F. ) ;
#123 = CYLINDRICAL_SURFACE ( 'NONE', #77, 3.935000000000000100 ) ;
#124 = CARTESIAN_POINT ( 'NONE',  ( 0.0000000000000000000, 0.0000000000000000000, -2.370000000000000100 ) ) ;
#125 = PERSON_AND_ORGANIZATION ( #48, #294 ) ;
#126 = CIRCLE ( 'NONE', #164, 3.935000000000000100 ) ;
#127 = DIRECTION ( 'NONE',  ( 0.0000000000000000000, 0.0000000000000000000, -1.000000000000000000 ) ) ;
#128 = CIRCLE ( 'NONE', #65, 5.070000000000000300 ) ;
#129 = AXIS2_PLACEMENT_3D ( 'NONE', #73, #43, #224 ) ;
#130 = AXIS2_PLACEMENT_3D ( 'NONE', #117, #279, #254 ) ;
#131 = PLANE ( 'NONE',  #326 ) ;
#132 = PERSON_AND_ORGANIZATION_ROLE ( 'classification_officer' ) ;
#133 = EDGE_CURVE ( 'NONE', #306, #306, #179, .T. ) ;
#134 = CALENDAR_DATE ( 2017, 31, 7 ) ;
#135 = CALENDAR_DATE ( 2017, 31, 7 ) ;
#136 = DIRECTION ( 'NONE',  ( -1.000000000000000000, 0.0000000000000000000, -0.0000000000000000000 ) ) ;
#137 = PERSON_AND_ORGANIZATION_ROLE ( 'design_owner' ) ;
#138 = CYLINDRICAL_SURFACE ( 'NONE', #90, 5.070000000000000300 ) ;
#139 = EDGE_LOOP ( 'NONE', ( #20 ) ) ;
#140 = FACE_OUTER_BOUND ( 'NONE', #231, .T. ) ;
#141 = DATE_AND_TIME ( #156, #280 ) ;
#142 = EDGE_LOOP ( 'NONE', ( #281 ) ) ;
#143 = ORIENTED_EDGE ( 'NONE', *, *, #121, .T. ) ;
#144 = ADVANCED_FACE ( 'NONE', ( #102, #140 ), #170, .F. ) ;
#145 = CIRCLE ( 'NONE', #166, 5.070000000000000300 ) ;
#146 = AXIS2_PLACEMENT_3D ( 'NONE', #41, #210, #227 ) ;
#147 = COORDINATED_UNIVERSAL_TIME_OFFSET ( 5, 0, .BEHIND. ) ;
#148 = DIRECTION ( 'NONE',  ( -0.0000000000000000000, -0.0000000000000000000, 1.000000000000000000 ) ) ;
#149 = EDGE_LOOP ( 'NONE', ( #310 ) ) ;
#150 = DIRECTION ( 'NONE',  ( -1.000000000000000000, 0.0000000000000000000, 0.0000000000000000000 ) ) ;
#151 = ORIENTED_EDGE ( 'NONE', *, *, #72, .F. ) ;
#152 = ORIENTED_EDGE ( 'NONE', *, *, #222, .F. ) ;
#153 = CARTESIAN_POINT ( 'NONE',  ( -6.200000000000000200, 0.0000000000000000000, -1.349999999999999000 ) ) ;
#154 = CARTESIAN_POINT ( 'NONE',  ( 5.070000000000000300, 0.0000000000000000000, -3.000000000000000400 ) ) ;
#155 = CARTESIAN_POINT ( 'NONE',  ( 0.0000000000000000000, 0.0000000000000000000, 0.0000000000000000000 ) ) ;
#156 = CALENDAR_DATE ( 2017, 31, 7 ) ;
#157 = ORIENTED_EDGE ( 'NONE', *, *, #216, .F. ) ;
#158 = PERSON_AND_ORGANIZATION_ROLE ( 'design_supplier' ) ;
#159 = AXIS2_PLACEMENT_3D ( 'NONE', #329, #330, #277 ) ;
#160 = CC_DESIGN_PERSON_AND_ORGANIZATION_ASSIGNMENT ( #276, #137, ( #100 ) ) ;
#161 = DATE_AND_TIME ( #134, #244 ) ;
#162 = FACE_OUTER_BOUND ( 'NONE', #332, .T. ) ;
#163 = VERTEX_POINT ( 'NONE', #104 ) ;
#164 = AXIS2_PLACEMENT_3D ( 'NONE', #182, #96, #150 ) ;
#165 = FACE_OUTER_BOUND ( 'NONE', #12, .T. ) ;
#166 = AXIS2_PLACEMENT_3D ( 'NONE', #307, #26, #23 ) ;
#167 = VERTEX_POINT ( 'NONE', #217 ) ;
#168 = CIRCLE ( 'NONE', #130, 3.303537381367663200 ) ;
#169 = TOROIDAL_SURFACE ( 'NONE', #118, 3.347999999999999900, 0.1300000000000000900 ) ;
#170 = PLANE ( 'NONE',  #63 ) ;
#171 = APPROVAL_PERSON_ORGANIZATION ( #295, #318, #187 ) ;
#172 = MANIFOLD_SOLID_BREP ( 'Fillet1', #114 ) ;
#173 = DIRECTION ( 'NONE',  ( -0.0000000000000000000, -0.0000000000000000000, 1.000000000000000000 ) ) ;
#174 = FACE_OUTER_BOUND ( 'NONE', #257, .T. ) ;
#175 = AXIS2_PLACEMENT_3D ( 'NONE', #66, #311, #309 ) ;
#176 = CARTESIAN_POINT ( 'NONE',  ( 0.0000000000000000000, 0.0000000000000000000, -3.000000000000000400 ) ) ;
#177 = CARTESIAN_POINT ( 'NONE',  ( -3.935000000000000100, 0.0000000000000000000, -1.120000000000000100 ) ) ;
#178 = ORIENTED_EDGE ( 'NONE', *, *, #110, .T. ) ;
#179 = CIRCLE ( 'NONE', #67, 4.984462618632337100 ) ;
#180 = CARTESIAN_POINT ( 'NONE',  ( 0.0000000000000000000, 0.0000000000000000000, -1.250000000000000000 ) ) ;
#181 = CYLINDRICAL_SURFACE ( 'NONE', #159, 6.200000000000000200 ) ;
#182 = CARTESIAN_POINT ( 'NONE',  ( 0.0000000000000000000, 0.0000000000000000000, -1.120000000000000100 ) ) ;
#183 = DIRECTION ( 'NONE',  ( 1.000000000000000000, 0.0000000000000000000, 0.0000000000000000000 ) ) ;
#184 = CALENDAR_DATE ( 2017, 31, 7 ) ;
#185 = FACE_OUTER_BOUND ( 'NONE', #7, .T. ) ;
#186 = CONICAL_SURFACE ( 'NONE', #324, 6.099999999999999600, 0.7853981633974566100 ) ;
#187 = APPROVAL_ROLE ( '' ) ;
#188 = AXIS2_PLACEMENT_3D ( 'NONE', #204, #202, #248 ) ;
#189 = FACE_OUTER_BOUND ( 'NONE', #142, .T. ) ;
#190 = AXIS2_PLACEMENT_3D ( 'NONE', #232, #58, #226 ) ;
#191 = FACE_BOUND ( 'NONE', #273, .T. ) ;
#192 = CC_DESIGN_SECURITY_CLASSIFICATION ( #203, ( #31 ) ) ;
#193 = ORIENTED_EDGE ( 'NONE', *, *, #216, .T. ) ;
#194 = FACE_OUTER_BOUND ( 'NONE', #139, .T. ) ;
#195 = FACE_OUTER_BOUND ( 'NONE', #249, .T. ) ;
#196 = LOCAL_TIME ( 16, 1, 49.00000000000000000, #147 ) ;
#197 = EDGE_LOOP ( 'NONE', ( #178 ) ) ;
#198 = VERTEX_POINT ( 'NONE', #241 ) ;
#199 = FACE_OUTER_BOUND ( 'NONE', #328, .T. ) ;
#200 = FACE_OUTER_BOUND ( 'NONE', #149, .T. ) ;
#201 = PRODUCT_DEFINITION_SHAPE ( 'NONE', 'NONE',  #242 ) ;
#202 = DIRECTION ( 'NONE',  ( -0.0000000000000000000, -0.0000000000000000000, 1.000000000000000000 ) ) ;
#203 = SECURITY_CLASSIFICATION ( '', '', #312 ) ;
#204 = CARTESIAN_POINT ( 'NONE',  ( 0.0000000000000000000, 0.0000000000000000000, 0.0000000000000000000 ) ) ;
#205 = CARTESIAN_POINT ( 'NONE',  ( -4.064999999999999500, 0.0000000000000000000, -1.250000000000000000 ) ) ;
#206 = FACE_OUTER_BOUND ( 'NONE', #236, .T. ) ;
#207 = DIRECTION ( 'NONE',  ( -0.0000000000000000000, -0.0000000000000000000, 1.000000000000000000 ) ) ;
#208 = DIRECTION ( 'NONE',  ( 0.0000000000000000000, 0.0000000000000000000, -1.000000000000000000 ) ) ;
#209 = FACE_BOUND ( 'NONE', #265, .T. ) ;
#210 = DIRECTION ( 'NONE',  ( -0.0000000000000000000, -0.0000000000000000000, 1.000000000000000000 ) ) ;
#211 = VERTEX_POINT ( 'NONE', #177 ) ;
#212 = LOCAL_TIME ( 16, 1, 49.00000000000000000, #1 ) ;
#213 = DIRECTION ( 'NONE',  ( -1.000000000000000000, 0.0000000000000000000, 0.0000000000000000000 ) ) ;
#214 = DATE_TIME_ROLE ( 'creation_date' ) ;
#215 = EDGE_LOOP ( 'NONE', ( #122 ) ) ;
#216 = EDGE_CURVE ( 'NONE', #80, #80, #128, .T. ) ;
#217 = CARTESIAN_POINT ( 'NONE',  ( 6.200000000000000200, 0.0000000000000000000, -3.000000000000000400 ) ) ;
#218 = APPLICATION_CONTEXT ( 'configuration controlled 3d designs of mechanical parts and assemblies' ) ;
#219 = DATE_AND_TIME ( #184, #212 ) ;
#220 = FACE_OUTER_BOUND ( 'NONE', #70, .T. ) ;
#221 = AXIS2_PLACEMENT_3D ( 'NONE', #99, #59, #8 ) ;
#222 = EDGE_CURVE ( 'NONE', #268, #268, #95, .T. ) ;
#223 = CC_DESIGN_DATE_AND_TIME_ASSIGNMENT ( #68, #214, ( #242 ) ) ;
#224 = DIRECTION ( 'NONE',  ( -1.000000000000000000, 0.0000000000000000000, 0.0000000000000000000 ) ) ;
#225 = DIRECTION ( 'NONE',  ( 1.000000000000000000, 0.0000000000000000000, 0.0000000000000000000 ) ) ;
#226 = DIRECTION ( 'NONE',  ( -1.000000000000000000, 0.0000000000000000000, -0.0000000000000000000 ) ) ;
#227 = DIRECTION ( 'NONE',  ( 1.000000000000000000, 0.0000000000000000000, 0.0000000000000000000 ) ) ;
#228 = DIRECTION ( 'NONE',  ( 1.000000000000000000, 0.0000000000000000000, 0.0000000000000000000 ) ) ;
#229 = DIRECTION ( 'NONE',  ( 1.000000000000000000, 0.0000000000000000000, 0.0000000000000000000 ) ) ;
#230 = PERSON_AND_ORGANIZATION ( #48, #294 ) ;
#231 = EDGE_LOOP ( 'NONE', ( #286 ) ) ;
#232 = CARTESIAN_POINT ( 'NONE',  ( 0.0000000000000000000, 3.218000000000000000, 0.0000000000000000000 ) ) ;
#233 = EDGE_LOOP ( 'NONE', ( #39 ) ) ;
#234 = CARTESIAN_POINT ( 'NONE',  ( 0.0000000000000000000, 0.0000000000000000000, -1.513873166204476200 ) ) ;
#235 = DIRECTION ( 'NONE',  ( 1.000000000000000000, 0.0000000000000000000, 0.0000000000000000000 ) ) ;
#236 = EDGE_LOOP ( 'NONE', ( #62 ) ) ;
#237 = ADVANCED_FACE ( 'NONE', ( #199, #107 ), #108, .F. ) ;
#238 = DIRECTION ( 'NONE',  ( -1.000000000000000000, 0.0000000000000000000, 0.0000000000000000000 ) ) ;
#239 = CARTESIAN_POINT ( 'NONE',  ( 0.0000000000000000000, 0.0000000000000000000, -2.247839959297833100 ) ) ;
#240 = APPROVAL_ROLE ( '' ) ;
#241 = CARTESIAN_POINT ( 'NONE',  ( 3.217999999999999500, 0.0000000000000000000, -1.513873166204476200 ) ) ;
#242 = PRODUCT_DEFINITION ( 'UNKNOWN', '', #31, #283 ) ;
#243 = EDGE_CURVE ( 'NONE', #290, #290, #245, .T. ) ;
#244 = LOCAL_TIME ( 16, 1, 49.00000000000000000, #293 ) ;
#245 = CIRCLE ( 'NONE', #188, 3.218000000000000000 ) ;
#246 = CC_DESIGN_PERSON_AND_ORGANIZATION_ASSIGNMENT ( #125, #47, ( #242 ) ) ;
#247 = PERSON_AND_ORGANIZATION ( #48, #294 ) ;
#248 = DIRECTION ( 'NONE',  ( 1.000000000000000000, 0.0000000000000000000, 0.0000000000000000000 ) ) ;
#249 = EDGE_LOOP ( 'NONE', ( #17 ) ) ;
#250 = AXIS2_PLACEMENT_3D ( 'NONE', #19, #207, #183 ) ;
#251 = CARTESIAN_POINT ( 'NONE',  ( 3.218000000000000000, 0.0000000000000000000, 0.0000000000000000000 ) ) ;
#252 = EDGE_LOOP ( 'NONE', ( #112 ) ) ;
#253 = ORIENTED_EDGE ( 'NONE', *, *, #263, .T. ) ;
#254 = DIRECTION ( 'NONE',  ( 1.000000000000000000, 0.0000000000000000000, 0.0000000000000000000 ) ) ;
#255 = APPROVAL_PERSON_ORGANIZATION ( #292, #78, #260 ) ;
#256 = DIRECTION ( 'NONE',  ( 1.000000000000000000, 0.0000000000000000000, 0.0000000000000000000 ) ) ;
#257 = EDGE_LOOP ( 'NONE', ( #143 ) ) ;
#258 = VERTEX_POINT ( 'NONE', #97 ) ;
#259 = DIRECTION ( 'NONE',  ( 0.0000000000000000000, 0.0000000000000000000, -1.000000000000000000 ) ) ;
#260 = APPROVAL_ROLE ( '' ) ;
#261 = APPLICATION_PROTOCOL_DEFINITION ( 'international standard', 'config_control_design', 1994, #287 ) ;
#262 = UNCERTAINTY_MEASURE_WITH_UNIT (LENGTH_MEASURE( 1.000000000000000100E-005 ), #52, 'distance_accuracy_value', 'NONE');
#263 = EDGE_CURVE ( 'NONE', #258, #258, #145, .T. ) ;
#264 = CYLINDRICAL_SURFACE ( 'NONE', #250, 3.217999999999999500 ) ;
#265 = EDGE_LOOP ( 'NONE', ( #301 ) ) ;
#266 = APPROVAL_PERSON_ORGANIZATION ( #247, #35, #240 ) ;
#267 = ADVANCED_FACE ( 'NONE', ( #85, #83 ), #81, .F. ) ;
#268 = VERTEX_POINT ( 'NONE', #205 ) ;
#269 = CC_DESIGN_PERSON_AND_ORGANIZATION_ASSIGNMENT ( #230, #132, ( #203 ) ) ;
#270 = EDGE_LOOP ( 'NONE', ( #151 ) ) ;
#271 = ADVANCED_FACE ( 'NONE', ( #195, #69 ), #131, .F. ) ;
#272 = PLANE ( 'NONE',  #190 ) ;
#273 = EDGE_LOOP ( 'NONE', ( #322 ) ) ;
#274 = ORIENTED_EDGE ( 'NONE', *, *, #222, .T. ) ;
#275 = EDGE_CURVE ( 'NONE', #167, #167, #98, .T. ) ;
#276 = PERSON_AND_ORGANIZATION ( #48, #294 ) ;
#277 = DIRECTION ( 'NONE',  ( 1.000000000000000000, 0.0000000000000000000, 0.0000000000000000000 ) ) ;
#278 = ORIENTED_EDGE ( 'NONE', *, *, #327, .T. ) ;
#279 = DIRECTION ( 'NONE',  ( -0.0000000000000000000, -0.0000000000000000000, 1.000000000000000000 ) ) ;
#280 = LOCAL_TIME ( 16, 1, 49.00000000000000000, #113 ) ;
#281 = ORIENTED_EDGE ( 'NONE', *, *, #327, .F. ) ;
#282 = CIRCLE ( 'NONE', #319, 3.935000000000000100 ) ;
#283 = DESIGN_CONTEXT ( 'detailed design', #287, 'design' ) ;
#284 = CC_DESIGN_APPROVAL ( #78, ( #203 ) ) ;
#285 = DATE_TIME_ROLE ( 'classification_date' ) ;
#286 = ORIENTED_EDGE ( 'NONE', *, *, #72, .T. ) ;
#287 = APPLICATION_CONTEXT ( 'configuration controlled 3d designs of mechanical parts and assemblies' ) ;
#288 = PRODUCT_RELATED_PRODUCT_CATEGORY ( 'detail', '', ( #100 ) ) ;
#289 =( NAMED_UNIT ( * ) PLANE_ANGLE_UNIT ( ) SI_UNIT ( $, .RADIAN. ) );
#290 = VERTEX_POINT ( 'NONE', #251 ) ;
#291 = ORIENTED_EDGE ( 'NONE', *, *, #53, .F. ) ;
#292 = PERSON_AND_ORGANIZATION ( #48, #294 ) ;
#293 = COORDINATED_UNIVERSAL_TIME_OFFSET ( 5, 0, .BEHIND. ) ;
#294 = ORGANIZATION ( 'UNSPECIFIED', 'UNSPECIFIED', '' ) ;
#295 = PERSON_AND_ORGANIZATION ( #48, #294 ) ;
#296 = EDGE_LOOP ( 'NONE', ( #278 ) ) ;
#297 = ORIENTED_EDGE ( 'NONE', *, *, #275, .T. ) ;
#298 = AXIS2_PLACEMENT_3D ( 'NONE', #14, #127, #88 ) ;
#299 = ADVANCED_FACE ( 'NONE', ( #60, #56 ), #186, .T. ) ;
#300 = DIRECTION ( 'NONE',  ( -0.0000000000000000000, -0.0000000000000000000, 1.000000000000000000 ) ) ;
#301 = ORIENTED_EDGE ( 'NONE', *, *, #32, .T. ) ;
#302 = CARTESIAN_POINT ( 'NONE',  ( 0.0000000000000000000, 3.935000000000000100, -1.250000000000000000 ) ) ;
#303 = CARTESIAN_POINT ( 'NONE',  ( 0.0000000000000000000, 0.0000000000000000000, -1.250000000000000000 ) ) ;
#304 = CARTESIAN_POINT ( 'NONE',  ( 0.0000000000000000000, 0.0000000000000000000, -1.513873166204476200 ) ) ;
#305 = DIRECTION ( 'NONE',  ( -0.0000000000000000000, -0.0000000000000000000, 1.000000000000000000 ) ) ;
#306 = VERTEX_POINT ( 'NONE', #22 ) ;
#307 = CARTESIAN_POINT ( 'NONE',  ( 0.0000000000000000000, 0.0000000000000000000, -2.370000000000000100 ) ) ;
#308 =( GEOMETRIC_REPRESENTATION_CONTEXT ( 3 ) GLOBAL_UNCERTAINTY_ASSIGNED_CONTEXT ( ( #262 ) ) GLOBAL_UNIT_ASSIGNED_CONTEXT ( ( #52, #289, #105 ) ) REPRESENTATION_CONTEXT ( 'NONE', 'WORKASPACE' ) );
#309 = DIRECTION ( 'NONE',  ( -1.000000000000000000, 0.0000000000000000000, 0.0000000000000000000 ) ) ;
#310 = ORIENTED_EDGE ( 'NONE', *, *, #110, .F. ) ;
#311 = DIRECTION ( 'NONE',  ( 0.0000000000000000000, 0.0000000000000000000, -1.000000000000000000 ) ) ;
#312 = SECURITY_CLASSIFICATION_LEVEL ( 'unclassified' ) ;
#313 = ADVANCED_FACE ( 'NONE', ( #191, #115 ), #272, .F. ) ;
#314 = CARTESIAN_POINT ( 'NONE',  ( 0.0000000000000000000, 0.0000000000000000000, 0.0000000000000000000 ) ) ;
#315 = MECHANICAL_CONTEXT ( 'NONE', #218, 'mechanical' ) ;
#316 = CIRCLE ( 'NONE', #34, 6.099999999999999600 ) ;
#317 = EDGE_LOOP ( 'NONE', ( #253 ) ) ;
#318 = APPROVAL ( #25, 'UNSPECIFIED' ) ;
#319 = AXIS2_PLACEMENT_3D ( 'NONE', #155, #305, #91 ) ;
#320 = CC_DESIGN_APPROVAL ( #35, ( #242 ) ) ;
#321 = ADVANCED_FACE ( 'NONE', ( #189, #194 ), #264, .F. ) ;
#322 = ORIENTED_EDGE ( 'NONE', *, *, #243, .F. ) ;
#323 =( LENGTH_UNIT ( ) NAMED_UNIT ( * ) SI_UNIT ( $, .METRE. ) );
#324 = AXIS2_PLACEMENT_3D ( 'NONE', #303, #259, #36 ) ;
#325 = APPROVAL_DATE_TIME ( #219, #35 ) ;
#326 = AXIS2_PLACEMENT_3D ( 'NONE', #46, #119, #225 ) ;
#327 = EDGE_CURVE ( 'NONE', #198, #198, #30, .T. ) ;
#328 = EDGE_LOOP ( 'NONE', ( #152 ) ) ;
#329 = CARTESIAN_POINT ( 'NONE',  ( 0.0000000000000000000, 0.0000000000000000000, 0.0000000000000000000 ) ) ;
#330 = DIRECTION ( 'NONE',  ( -0.0000000000000000000, -0.0000000000000000000, 1.000000000000000000 ) ) ;
#331 = CC_DESIGN_APPROVAL ( #318, ( #31 ) ) ;
#332 = EDGE_LOOP ( 'NONE', ( #38 ) ) ;
ENDSEC;
END-ISO-10303-21;
