ISO-10303-21;
HEADER;
FILE_DESCRIPTION (( 'STEP AP203' ),
    '1' );
FILE_NAME ('581207673.STEP',
    '2017-07-31T20:08:26',
    ( '' ),
    ( '' ),
    'SwSTEP 2.0',
    'SolidWorks 2017',
    '' );
FILE_SCHEMA (( 'CONFIG_CONTROL_DESIGN' ));
ENDSEC;

DATA;
#1 = LOCAL_TIME ( 16, 8, 26.00000000000000000, #290 ) ;
#2 = AXIS2_PLACEMENT_3D ( 'NONE', #176, #88, #255 ) ;
#3 = ADVANCED_FACE ( 'NONE', ( #129, #201 ), #23, .T. ) ;
#4 = CARTESIAN_POINT ( 'NONE',  ( 4.021999999999999400, 0.0000000000000000000, 0.0000000000000000000 ) ) ;
#5 = ORIENTED_EDGE ( 'NONE', *, *, #268, .T. ) ;
#6 = VERTEX_POINT ( 'NONE', #241 ) ;
#7 = CARTESIAN_POINT ( 'NONE',  ( -4.919999999999999900, 0.0000000000000000000, -1.120000000000000100 ) ) ;
#8 = DIRECTION ( 'NONE',  ( 0.0000000000000000000, 0.0000000000000000000, -1.000000000000000000 ) ) ;
#9 = ORIENTED_EDGE ( 'NONE', *, *, #300, .T. ) ;
#10 = CIRCLE ( 'NONE', #247, 4.086999999999999700 ) ;
#11 = DIRECTION ( 'NONE',  ( -1.000000000000000000, 0.0000000000000000000, 0.0000000000000000000 ) ) ;
#12 = MECHANICAL_CONTEXT ( 'NONE', #307, 'mechanical' ) ;
#13 = DIRECTION ( 'NONE',  ( -1.000000000000000000, 0.0000000000000000000, 0.0000000000000000000 ) ) ;
#14 = LENGTH_MEASURE_WITH_UNIT ( LENGTH_MEASURE( 0.02539999999999999900 ), #259 );
#15 = ORIENTED_EDGE ( 'NONE', *, *, #203, .F. ) ;
#16 = DIRECTION ( 'NONE',  ( 1.000000000000000000, 0.0000000000000000000, 0.0000000000000000000 ) ) ;
#17 = DIRECTION ( 'NONE',  ( 1.000000000000000000, 0.0000000000000000000, 0.0000000000000000000 ) ) ;
#18 = CALENDAR_DATE ( 2017, 31, 7 ) ;
#19 = DIRECTION ( 'NONE',  ( -1.000000000000000000, 0.0000000000000000000, -0.0000000000000000000 ) ) ;
#20 = FACE_OUTER_BOUND ( 'NONE', #120, .T. ) ;
#21 = CC_DESIGN_PERSON_AND_ORGANIZATION_ASSIGNMENT ( #31, #214, ( #47 ) ) ;
#22 = AXIS2_PLACEMENT_3D ( 'NONE', #64, #106, #41 ) ;
#23 = CYLINDRICAL_SURFACE ( 'NONE', #27, 4.919999999999999900 ) ;
#24 = APPLICATION_PROTOCOL_DEFINITION ( 'international standard', 'config_control_design', 1994, #307 ) ;
#25 = EDGE_LOOP ( 'NONE', ( #38 ) ) ;
#26 = SHAPE_DEFINITION_REPRESENTATION ( #297, #191 ) ;
#27 = AXIS2_PLACEMENT_3D ( 'NONE', #154, #136, #17 ) ;
#28 = EDGE_LOOP ( 'NONE', ( #96 ) ) ;
#29 = FACE_BOUND ( 'NONE', #304, .T. ) ;
#30 = ADVANCED_FACE ( 'NONE', ( #225, #83 ), #76, .T. ) ;
#31 = PERSON_AND_ORGANIZATION ( #256, #286 ) ;
#32 = ORIENTED_EDGE ( 'NONE', *, *, #171, .T. ) ;
#33 = ORIENTED_EDGE ( 'NONE', *, *, #67, .F. ) ;
#34 = DIRECTION ( 'NONE',  ( 1.000000000000000000, 0.0000000000000000000, 0.0000000000000000000 ) ) ;
#35 = CC_DESIGN_APPROVAL ( #152, ( #47 ) ) ;
#36 = AXIS2_PLACEMENT_3D ( 'NONE', #165, #132, #57 ) ;
#37 = FACE_OUTER_BOUND ( 'NONE', #251, .T. ) ;
#38 = ORIENTED_EDGE ( 'NONE', *, *, #203, .T. ) ;
#39 = EDGE_LOOP ( 'NONE', ( #5 ) ) ;
#40 = PLANE ( 'NONE',  #74 ) ;
#41 = DIRECTION ( 'NONE',  ( 1.000000000000000000, 0.0000000000000000000, 0.0000000000000000000 ) ) ;
#42 = TOROIDAL_SURFACE ( 'NONE', #36, 4.940000000000000400, 0.1300000000000001400 ) ;
#43 = CARTESIAN_POINT ( 'NONE',  ( 0.0000000000000000000, 0.0000000000000000000, -1.349999999999999000 ) ) ;
#44 = CARTESIAN_POINT ( 'NONE',  ( 4.086999999999999700, 0.0000000000000000000, -1.727409150391944600 ) ) ;
#45 = PRODUCT ( '581207673', '581207673', '', ( #12 ) ) ;
#46 = EDGE_LOOP ( 'NONE', ( #97 ) ) ;
#47 = PRODUCT_DEFINITION ( 'UNKNOWN', '', #331, #180 ) ;
#48 = LOCAL_TIME ( 16, 8, 26.00000000000000000, #113 ) ;
#49 = DIRECTION ( 'NONE',  ( 0.0000000000000000000, 0.0000000000000000000, 1.000000000000000000 ) ) ;
#50 = ORIENTED_EDGE ( 'NONE', *, *, #305, .T. ) ;
#51 = AXIS2_PLACEMENT_3D ( 'NONE', #301, #270, #13 ) ;
#52 = ADVANCED_FACE ( 'NONE', ( #232, #145 ), #276, .F. ) ;
#53 = ORIENTED_EDGE ( 'NONE', *, *, #67, .T. ) ;
#54 = EDGE_LOOP ( 'NONE', ( #326 ) ) ;
#55 = SECURITY_CLASSIFICATION ( '', '', #158 ) ;
#56 = ADVANCED_FACE ( 'NONE', ( #20, #153 ), #40, .F. ) ;
#57 = DIRECTION ( 'NONE',  ( 1.000000000000000000, 0.0000000000000000000, 0.0000000000000000000 ) ) ;
#58 = CALENDAR_DATE ( 2017, 31, 7 ) ;
#59 = ORIENTED_EDGE ( 'NONE', *, *, #171, .F. ) ;
#60 = AXIS2_PLACEMENT_3D ( 'NONE', #296, #192, #160 ) ;
#61 = VERTEX_POINT ( 'NONE', #84 ) ;
#62 = CC_DESIGN_PERSON_AND_ORGANIZATION_ASSIGNMENT ( #66, #262, ( #45 ) ) ;
#63 = CARTESIAN_POINT ( 'NONE',  ( 0.0000000000000000000, 0.0000000000000000000, -1.727409150391944600 ) ) ;
#64 = CARTESIAN_POINT ( 'NONE',  ( 0.0000000000000000000, 0.0000000000000000000, -2.257416697508023000 ) ) ;
#65 = AXIS2_PLACEMENT_3D ( 'NONE', #111, #195, #19 ) ;
#66 = PERSON_AND_ORGANIZATION ( #256, #286 ) ;
#67 = EDGE_CURVE ( 'NONE', #291, #291, #252, .T. ) ;
#68 = DIRECTION ( 'NONE',  ( 1.000000000000000000, 0.0000000000000000000, 0.0000000000000000000 ) ) ;
#69 = DIRECTION ( 'NONE',  ( 1.000000000000000000, 0.0000000000000000000, 0.0000000000000000000 ) ) ;
#70 = VERTEX_POINT ( 'NONE', #162 ) ;
#71 = DIRECTION ( 'NONE',  ( -0.0000000000000000000, -0.0000000000000000000, 1.000000000000000000 ) ) ;
#72 = DIRECTION ( 'NONE',  ( 0.0000000000000000000, 0.0000000000000000000, -1.000000000000000000 ) ) ;
#73 =( CONVERSION_BASED_UNIT ( 'INCH', #14 ) LENGTH_UNIT ( ) NAMED_UNIT ( #102 ) );
#74 = AXIS2_PLACEMENT_3D ( 'NONE', #140, #220, #320 ) ;
#75 = VERTEX_POINT ( 'NONE', #235 ) ;
#76 = CONICAL_SURFACE ( 'NONE', #319, 6.099999999999999600, 0.7853981633974566100 ) ;
#77 = CC_DESIGN_PERSON_AND_ORGANIZATION_ASSIGNMENT ( #332, #149, ( #331 ) ) ;
#78 = DATE_AND_TIME ( #18, #95 ) ;
#79 = FACE_OUTER_BOUND ( 'NONE', #219, .T. ) ;
#80 = APPROVAL_STATUS ( 'not_yet_approved' ) ;
#81 = CARTESIAN_POINT ( 'NONE',  ( 0.0000000000000000000, 0.0000000000000000000, 0.0000000000000000000 ) ) ;
#82 = FACE_OUTER_BOUND ( 'NONE', #303, .T. ) ;
#83 = FACE_BOUND ( 'NONE', #104, .T. ) ;
#84 = CARTESIAN_POINT ( 'NONE',  ( 4.022000000000000200, 0.0000000000000000000, -1.614825847899967500 ) ) ;
#85 = EDGE_CURVE ( 'NONE', #233, #233, #179, .T. ) ;
#86 = DIRECTION ( 'NONE',  ( 1.000000000000000000, 0.0000000000000000000, 0.0000000000000000000 ) ) ;
#87 = VERTEX_POINT ( 'NONE', #123 ) ;
#88 = DIRECTION ( 'NONE',  ( -0.0000000000000000000, -0.0000000000000000000, 1.000000000000000000 ) ) ;
#89 = CARTESIAN_POINT ( 'NONE',  ( 0.0000000000000000000, 0.0000000000000000000, -1.727409150391944600 ) ) ;
#90 = DIRECTION ( 'NONE',  ( 1.000000000000000000, 0.0000000000000000000, 0.0000000000000000000 ) ) ;
#91 = AXIS2_PLACEMENT_3D ( 'NONE', #89, #190, #11 ) ;
#92 = DIRECTION ( 'NONE',  ( -0.0000000000000000000, -0.0000000000000000000, 1.000000000000000000 ) ) ;
#93 = EDGE_LOOP ( 'NONE', ( #227 ) ) ;
#94 = CARTESIAN_POINT ( 'NONE',  ( 0.0000000000000000000, 0.0000000000000000000, -2.370000000000000100 ) ) ;
#95 = LOCAL_TIME ( 16, 8, 26.00000000000000000, #115 ) ;
#96 = ORIENTED_EDGE ( 'NONE', *, *, #198, .T. ) ;
#97 = ORIENTED_EDGE ( 'NONE', *, *, #283, .F. ) ;
#98 = CALENDAR_DATE ( 2017, 31, 7 ) ;
#99 = ADVANCED_FACE ( 'NONE', ( #287, #311 ), #244, .F. ) ;
#100 = FACE_OUTER_BOUND ( 'NONE', #272, .T. ) ;
#101 = AXIS2_PLACEMENT_3D ( 'NONE', #119, #285, #68 ) ;
#102 = DIMENSIONAL_EXPONENTS ( 1.000000000000000000, 0.0000000000000000000, 0.0000000000000000000, 0.0000000000000000000, 0.0000000000000000000, 0.0000000000000000000, 0.0000000000000000000 ) ;
#103 = APPROVAL_ROLE ( '' ) ;
#104 = EDGE_LOOP ( 'NONE', ( #33 ) ) ;
#105 = ADVANCED_FACE ( 'NONE', ( #100, #316 ), #42, .F. ) ;
#106 = DIRECTION ( 'NONE',  ( -0.0000000000000000000, -0.0000000000000000000, 1.000000000000000000 ) ) ;
#107 = CIRCLE ( 'NONE', #263, 5.070000000000000300 ) ;
#108 = DIRECTION ( 'NONE',  ( -1.000000000000000000, 0.0000000000000000000, 0.0000000000000000000 ) ) ;
#109 = APPROVAL_DATE_TIME ( #275, #152 ) ;
#110 = DIRECTION ( 'NONE',  ( -0.0000000000000000000, -0.0000000000000000000, 1.000000000000000000 ) ) ;
#111 = CARTESIAN_POINT ( 'NONE',  ( 0.0000000000000000000, 4.021999999999999400, 0.0000000000000000000 ) ) ;
#112 =( GEOMETRIC_REPRESENTATION_CONTEXT ( 3 ) GLOBAL_UNCERTAINTY_ASSIGNED_CONTEXT ( ( #274 ) ) GLOBAL_UNIT_ASSIGNED_CONTEXT ( ( #73, #224, #196 ) ) REPRESENTATION_CONTEXT ( 'NONE', 'WORKASPACE' ) );
#113 = COORDINATED_UNIVERSAL_TIME_OFFSET ( 5, 0, .BEHIND. ) ;
#114 = EDGE_LOOP ( 'NONE', ( #15 ) ) ;
#115 = COORDINATED_UNIVERSAL_TIME_OFFSET ( 5, 0, .BEHIND. ) ;
#116 = PLANE ( 'NONE',  #293 ) ;
#117 = CARTESIAN_POINT ( 'NONE',  ( 0.0000000000000000000, 0.0000000000000000000, 0.0000000000000000000 ) ) ;
#118 = COORDINATED_UNIVERSAL_TIME_OFFSET ( 5, 0, .BEHIND. ) ;
#119 = CARTESIAN_POINT ( 'NONE',  ( 0.0000000000000000000, 0.0000000000000000000, 0.0000000000000000000 ) ) ;
#120 = EDGE_LOOP ( 'NONE', ( #59 ) ) ;
#121 = DIRECTION ( 'NONE',  ( -1.000000000000000000, 0.0000000000000000000, 0.0000000000000000000 ) ) ;
#122 = LOCAL_TIME ( 16, 8, 26.00000000000000000, #199 ) ;
#123 = CARTESIAN_POINT ( 'NONE',  ( 4.919999999999999900, 0.0000000000000000000, 0.0000000000000000000 ) ) ;
#124 = ORIENTED_EDGE ( 'NONE', *, *, #85, .T. ) ;
#125 = EDGE_LOOP ( 'NONE', ( #284 ) ) ;
#126 = CARTESIAN_POINT ( 'NONE',  ( 5.070000000000000300, 0.0000000000000000000, -2.370000000000000100 ) ) ;
#127 = CC_DESIGN_APPROVAL ( #181, ( #55 ) ) ;
#128 = VERTEX_POINT ( 'NONE', #126 ) ;
#129 = FACE_OUTER_BOUND ( 'NONE', #28, .T. ) ;
#130 = ADVANCED_FACE ( 'NONE', ( #29, #82 ), #116, .F. ) ;
#131 = DIRECTION ( 'NONE',  ( -0.0000000000000000000, -0.0000000000000000000, 1.000000000000000000 ) ) ;
#132 = DIRECTION ( 'NONE',  ( -0.0000000000000000000, -0.0000000000000000000, 1.000000000000000000 ) ) ;
#133 = EDGE_LOOP ( 'NONE', ( #200 ) ) ;
#134 = FACE_OUTER_BOUND ( 'NONE', #218, .T. ) ;
#135 = DIRECTION ( 'NONE',  ( 0.0000000000000000000, 0.0000000000000000000, -1.000000000000000000 ) ) ;
#136 = DIRECTION ( 'NONE',  ( -0.0000000000000000000, -0.0000000000000000000, 1.000000000000000000 ) ) ;
#137 = CC_DESIGN_DATE_AND_TIME_ASSIGNMENT ( #172, #222, ( #47 ) ) ;
#138 = ORIENTED_EDGE ( 'NONE', *, *, #283, .T. ) ;
#139 = TOROIDAL_SURFACE ( 'NONE', #211, 5.049999999999999800, 0.1300000000000000000 ) ;
#140 = CARTESIAN_POINT ( 'NONE',  ( 0.0000000000000000000, 6.200000000000000200, -3.000000000000000400 ) ) ;
#141 = CARTESIAN_POINT ( 'NONE',  ( 0.0000000000000000000, 0.0000000000000000000, -1.120000000000000100 ) ) ;
#142 = CIRCLE ( 'NONE', #288, 6.200000000000000200 ) ;
#143 = CARTESIAN_POINT ( 'NONE',  ( 0.0000000000000000000, 0.0000000000000000000, 0.0000000000000000000 ) ) ;
#144 = VERTEX_POINT ( 'NONE', #7 ) ;
#145 = FACE_OUTER_BOUND ( 'NONE', #215, .T. ) ;
#146 = EDGE_LOOP ( 'NONE', ( #257 ) ) ;
#147 = CYLINDRICAL_SURFACE ( 'NONE', #164, 4.022000000000000200 ) ;
#148 = DIRECTION ( 'NONE',  ( -0.0000000000000000000, -0.0000000000000000000, 1.000000000000000000 ) ) ;
#149 = PERSON_AND_ORGANIZATION_ROLE ( 'creator' ) ;
#150 = AXIS2_PLACEMENT_3D ( 'NONE', #94, #228, #302 ) ;
#151 = DIRECTION ( 'NONE',  ( -0.0000000000000000000, -0.0000000000000000000, 1.000000000000000000 ) ) ;
#152 = APPROVAL ( #80, 'UNSPECIFIED' ) ;
#153 = FACE_BOUND ( 'NONE', #25, .T. ) ;
#154 = CARTESIAN_POINT ( 'NONE',  ( 0.0000000000000000000, 0.0000000000000000000, 0.0000000000000000000 ) ) ;
#155 = EDGE_LOOP ( 'NONE', ( #163 ) ) ;
#156 = CYLINDRICAL_SURFACE ( 'NONE', #101, 6.200000000000000200 ) ;
#157 = FACE_OUTER_BOUND ( 'NONE', #193, .T. ) ;
#158 = SECURITY_CLASSIFICATION_LEVEL ( 'unclassified' ) ;
#159 = CC_DESIGN_SECURITY_CLASSIFICATION ( #55, ( #331 ) ) ;
#160 = DIRECTION ( 'NONE',  ( -1.000000000000000000, 0.0000000000000000000, 0.0000000000000000000 ) ) ;
#161 = CC_DESIGN_APPROVAL ( #313, ( #331 ) ) ;
#162 = CARTESIAN_POINT ( 'NONE',  ( 5.005000000000000800, 0.0000000000000000000, -2.257416697508023000 ) ) ;
#163 = ORIENTED_EDGE ( 'NONE', *, *, #217, .T. ) ;
#164 = AXIS2_PLACEMENT_3D ( 'NONE', #117, #92, #16 ) ;
#165 = CARTESIAN_POINT ( 'NONE',  ( 0.0000000000000000000, 0.0000000000000000000, -2.370000000000000100 ) ) ;
#166 = VERTEX_POINT ( 'NONE', #44 ) ;
#167 = CIRCLE ( 'NONE', #310, 6.200000000000000200 ) ;
#168 = DIRECTION ( 'NONE',  ( -0.0000000000000000000, -0.0000000000000000000, 1.000000000000000000 ) ) ;
#169 = AXIS2_PLACEMENT_3D ( 'NONE', #143, #49, #34 ) ;
#170 = DIRECTION ( 'NONE',  ( 1.000000000000000000, 0.0000000000000000000, 0.0000000000000000000 ) ) ;
#171 = EDGE_CURVE ( 'NONE', #299, #299, #167, .T. ) ;
#172 = DATE_AND_TIME ( #98, #1 ) ;
#173 = EDGE_LOOP ( 'NONE', ( #246 ) ) ;
#174 = EDGE_CURVE ( 'NONE', #70, #70, #223, .T. ) ;
#175 = DIRECTION ( 'NONE',  ( -1.000000000000000000, 0.0000000000000000000, 0.0000000000000000000 ) ) ;
#176 = CARTESIAN_POINT ( 'NONE',  ( 0.0000000000000000000, 0.0000000000000000000, 0.0000000000000000000 ) ) ;
#177 = APPROVAL_DATE_TIME ( #250, #181 ) ;
#178 = APPROVAL_PERSON_ORGANIZATION ( #279, #313, #184 ) ;
#179 = CIRCLE ( 'NONE', #51, 5.049999999999999800 ) ;
#180 = DESIGN_CONTEXT ( 'detailed design', #280, 'design' ) ;
#181 = APPROVAL ( #185, 'UNSPECIFIED' ) ;
#182 = DATE_TIME_ROLE ( 'classification_date' ) ;
#183 = TOROIDAL_SURFACE ( 'NONE', #317, 4.152000000000000100, 0.1300000000000000000 ) ;
#184 = APPROVAL_ROLE ( '' ) ;
#185 = APPROVAL_STATUS ( 'not_yet_approved' ) ;
#186 = APPROVAL_PERSON_ORGANIZATION ( #261, #181, #221 ) ;
#187 = FACE_OUTER_BOUND ( 'NONE', #282, .T. ) ;
#188 = AXIS2_PLACEMENT_3D ( 'NONE', #329, #151, #278 ) ;
#189 = FACE_OUTER_BOUND ( 'NONE', #194, .T. ) ;
#190 = DIRECTION ( 'NONE',  ( 0.0000000000000000000, 0.0000000000000000000, -1.000000000000000000 ) ) ;
#191 = ADVANCED_BREP_SHAPE_REPRESENTATION ( '581207673', ( #213, #169 ), #112 ) ;
#192 = DIRECTION ( 'NONE',  ( -0.0000000000000000000, -0.0000000000000000000, 1.000000000000000000 ) ) ;
#193 = EDGE_LOOP ( 'NONE', ( #138 ) ) ;
#194 = EDGE_LOOP ( 'NONE', ( #266 ) ) ;
#195 = DIRECTION ( 'NONE',  ( 0.0000000000000000000, 0.0000000000000000000, -1.000000000000000000 ) ) ;
#196 =( NAMED_UNIT ( * ) SI_UNIT ( $, .STERADIAN. ) SOLID_ANGLE_UNIT ( ) );
#197 = CARTESIAN_POINT ( 'NONE',  ( 0.0000000000000000000, 0.0000000000000000000, -1.250000000000000000 ) ) ;
#198 = EDGE_CURVE ( 'NONE', #144, #144, #243, .T. ) ;
#199 = COORDINATED_UNIVERSAL_TIME_OFFSET ( 5, 0, .BEHIND. ) ;
#200 = ORIENTED_EDGE ( 'NONE', *, *, #174, .F. ) ;
#201 = FACE_OUTER_BOUND ( 'NONE', #54, .T. ) ;
#202 = PERSON_AND_ORGANIZATION_ROLE ( 'design_supplier' ) ;
#203 = EDGE_CURVE ( 'NONE', #6, #6, #107, .T. ) ;
#204 = PERSON_AND_ORGANIZATION ( #256, #286 ) ;
#205 = CARTESIAN_POINT ( 'NONE',  ( 6.200000000000000200, 0.0000000000000000000, -3.000000000000000400 ) ) ;
#206 = ORIENTED_EDGE ( 'NONE', *, *, #249, .T. ) ;
#207 = PRODUCT_RELATED_PRODUCT_CATEGORY ( 'detail', '', ( #45 ) ) ;
#208 = APPROVAL_STATUS ( 'not_yet_approved' ) ;
#209 = CIRCLE ( 'NONE', #242, 4.021999999999999400 ) ;
#210 = CIRCLE ( 'NONE', #150, 5.070000000000000300 ) ;
#211 = AXIS2_PLACEMENT_3D ( 'NONE', #141, #72, #121 ) ;
#212 = ADVANCED_FACE ( 'NONE', ( #308, #37 ), #323, .F. ) ;
#213 = MANIFOLD_SOLID_BREP ( 'Fillet1', #239 ) ;
#214 = PERSON_AND_ORGANIZATION_ROLE ( 'creator' ) ;
#215 = EDGE_LOOP ( 'NONE', ( #206 ) ) ;
#216 = DIRECTION ( 'NONE',  ( -1.000000000000000000, 0.0000000000000000000, 0.0000000000000000000 ) ) ;
#217 = EDGE_CURVE ( 'NONE', #281, #281, #209, .T. ) ;
#218 = EDGE_LOOP ( 'NONE', ( #50 ) ) ;
#219 = EDGE_LOOP ( 'NONE', ( #32 ) ) ;
#220 = DIRECTION ( 'NONE',  ( 0.0000000000000000000, -0.0000000000000000000, 1.000000000000000000 ) ) ;
#221 = APPROVAL_ROLE ( '' ) ;
#222 = DATE_TIME_ROLE ( 'creation_date' ) ;
#223 = CIRCLE ( 'NONE', #22, 5.005000000000000800 ) ;
#224 =( NAMED_UNIT ( * ) PLANE_ANGLE_UNIT ( ) SI_UNIT ( $, .RADIAN. ) );
#225 = FACE_OUTER_BOUND ( 'NONE', #146, .T. ) ;
#226 = CARTESIAN_POINT ( 'NONE',  ( 0.0000000000000000000, 4.919999999999999900, -1.250000000000000000 ) ) ;
#227 = ORIENTED_EDGE ( 'NONE', *, *, #174, .T. ) ;
#228 = DIRECTION ( 'NONE',  ( -0.0000000000000000000, -0.0000000000000000000, 1.000000000000000000 ) ) ;
#229 = CIRCLE ( 'NONE', #188, 4.022000000000000200 ) ;
#230 = AXIS2_PLACEMENT_3D ( 'NONE', #81, #267, #289 ) ;
#231 = CARTESIAN_POINT ( 'NONE',  ( 0.0000000000000000000, 0.0000000000000000000, -3.000000000000000400 ) ) ;
#232 = FACE_BOUND ( 'NONE', #173, .T. ) ;
#233 = VERTEX_POINT ( 'NONE', #321 ) ;
#234 = CIRCLE ( 'NONE', #2, 4.919999999999999900 ) ;
#235 = CARTESIAN_POINT ( 'NONE',  ( -6.200000000000000200, 0.0000000000000000000, -1.349999999999999000 ) ) ;
#236 = FACE_OUTER_BOUND ( 'NONE', #46, .T. ) ;
#237 = ADVANCED_FACE ( 'NONE', ( #187, #157 ), #183, .T. ) ;
#238 = CC_DESIGN_PERSON_AND_ORGANIZATION_ASSIGNMENT ( #322, #202, ( #331 ) ) ;
#239 = CLOSED_SHELL ( 'NONE', ( #105, #212, #56, #314, #130, #3, #52, #265, #237, #99, #30, #240 ) ) ;
#240 = ADVANCED_FACE ( 'NONE', ( #189, #327 ), #139, .F. ) ;
#241 = CARTESIAN_POINT ( 'NONE',  ( 5.070000000000000300, 0.0000000000000000000, -3.000000000000000400 ) ) ;
#242 = AXIS2_PLACEMENT_3D ( 'NONE', #245, #71, #170 ) ;
#243 = CIRCLE ( 'NONE', #277, 4.919999999999999900 ) ;
#244 = CONICAL_SURFACE ( 'NONE', #91, 4.086999999999999700, 1.047197551196596500 ) ;
#245 = CARTESIAN_POINT ( 'NONE',  ( 0.0000000000000000000, 0.0000000000000000000, 0.0000000000000000000 ) ) ;
#246 = ORIENTED_EDGE ( 'NONE', *, *, #217, .F. ) ;
#247 = AXIS2_PLACEMENT_3D ( 'NONE', #63, #110, #306 ) ;
#248 = ORIENTED_EDGE ( 'NONE', *, *, #268, .F. ) ;
#249 = EDGE_CURVE ( 'NONE', #87, #87, #234, .T. ) ;
#250 = DATE_AND_TIME ( #315, #48 ) ;
#251 = EDGE_LOOP ( 'NONE', ( #9 ) ) ;
#252 = CIRCLE ( 'NONE', #60, 6.099999999999999600 ) ;
#253 = CARTESIAN_POINT ( 'NONE',  ( 0.0000000000000000000, 0.0000000000000000000, -1.120000000000000100 ) ) ;
#254 = DIRECTION ( 'NONE',  ( -0.0000000000000000000, -0.0000000000000000000, 1.000000000000000000 ) ) ;
#255 = DIRECTION ( 'NONE',  ( 1.000000000000000000, 0.0000000000000000000, 0.0000000000000000000 ) ) ;
#256 = PERSON ( 'UNSPECIFIED', 'UNSPECIFIED', 'UNSPECIFIED', ('UNSPECIFIED'), ('UNSPECIFIED'), ('UNSPECIFIED') ) ;
#257 = ORIENTED_EDGE ( 'NONE', *, *, #305, .F. ) ;
#258 = CC_DESIGN_PERSON_AND_ORGANIZATION_ASSIGNMENT ( #312, #318, ( #55 ) ) ;
#259 =( LENGTH_UNIT ( ) NAMED_UNIT ( * ) SI_UNIT ( $, .METRE. ) );
#260 = DIRECTION ( 'NONE',  ( 0.0000000000000000000, 0.0000000000000000000, -1.000000000000000000 ) ) ;
#261 = PERSON_AND_ORGANIZATION ( #256, #286 ) ;
#262 = PERSON_AND_ORGANIZATION_ROLE ( 'design_owner' ) ;
#263 = AXIS2_PLACEMENT_3D ( 'NONE', #231, #131, #69 ) ;
#264 = CALENDAR_DATE ( 2017, 31, 7 ) ;
#265 = ADVANCED_FACE ( 'NONE', ( #236, #295 ), #147, .F. ) ;
#266 = ORIENTED_EDGE ( 'NONE', *, *, #85, .F. ) ;
#267 = DIRECTION ( 'NONE',  ( -0.0000000000000000000, -0.0000000000000000000, 1.000000000000000000 ) ) ;
#268 = EDGE_CURVE ( 'NONE', #166, #166, #10, .T. ) ;
#269 = APPROVAL_DATE_TIME ( #78, #313 ) ;
#270 = DIRECTION ( 'NONE',  ( 0.0000000000000000000, 0.0000000000000000000, -1.000000000000000000 ) ) ;
#271 = APPROVAL_PERSON_ORGANIZATION ( #204, #152, #103 ) ;
#272 = EDGE_LOOP ( 'NONE', ( #309 ) ) ;
#273 = CC_DESIGN_DATE_AND_TIME_ASSIGNMENT ( #324, #182, ( #55 ) ) ;
#274 = UNCERTAINTY_MEASURE_WITH_UNIT (LENGTH_MEASURE( 1.000000000000000100E-005 ), #73, 'distance_accuracy_value', 'NONE');
#275 = DATE_AND_TIME ( #264, #328 ) ;
#276 = PLANE ( 'NONE',  #65 ) ;
#277 = AXIS2_PLACEMENT_3D ( 'NONE', #253, #254, #216 ) ;
#278 = DIRECTION ( 'NONE',  ( 1.000000000000000000, 0.0000000000000000000, 0.0000000000000000000 ) ) ;
#279 = PERSON_AND_ORGANIZATION ( #256, #286 ) ;
#280 = APPLICATION_CONTEXT ( 'configuration controlled 3d designs of mechanical parts and assemblies' ) ;
#281 = VERTEX_POINT ( 'NONE', #4 ) ;
#282 = EDGE_LOOP ( 'NONE', ( #248 ) ) ;
#283 = EDGE_CURVE ( 'NONE', #61, #61, #229, .T. ) ;
#284 = ORIENTED_EDGE ( 'NONE', *, *, #198, .F. ) ;
#285 = DIRECTION ( 'NONE',  ( -0.0000000000000000000, -0.0000000000000000000, 1.000000000000000000 ) ) ;
#286 = ORGANIZATION ( 'UNSPECIFIED', 'UNSPECIFIED', '' ) ;
#287 = FACE_OUTER_BOUND ( 'NONE', #133, .T. ) ;
#288 = AXIS2_PLACEMENT_3D ( 'NONE', #43, #260, #175 ) ;
#289 = DIRECTION ( 'NONE',  ( 1.000000000000000000, 0.0000000000000000000, 0.0000000000000000000 ) ) ;
#290 = COORDINATED_UNIVERSAL_TIME_OFFSET ( 5, 0, .BEHIND. ) ;
#291 = VERTEX_POINT ( 'NONE', #298 ) ;
#292 = APPLICATION_PROTOCOL_DEFINITION ( 'international standard', 'config_control_design', 1994, #280 ) ;
#293 = AXIS2_PLACEMENT_3D ( 'NONE', #226, #8, #294 ) ;
#294 = DIRECTION ( 'NONE',  ( -1.000000000000000000, 0.0000000000000000000, -0.0000000000000000000 ) ) ;
#295 = FACE_OUTER_BOUND ( 'NONE', #155, .T. ) ;
#296 = CARTESIAN_POINT ( 'NONE',  ( 0.0000000000000000000, 0.0000000000000000000, -1.250000000000000000 ) ) ;
#297 = PRODUCT_DEFINITION_SHAPE ( 'NONE', 'NONE',  #47 ) ;
#298 = CARTESIAN_POINT ( 'NONE',  ( -6.099999999999999600, 0.0000000000000000000, -1.250000000000000000 ) ) ;
#299 = VERTEX_POINT ( 'NONE', #205 ) ;
#300 = EDGE_CURVE ( 'NONE', #128, #128, #210, .T. ) ;
#301 = CARTESIAN_POINT ( 'NONE',  ( 0.0000000000000000000, 0.0000000000000000000, -1.250000000000000000 ) ) ;
#302 = DIRECTION ( 'NONE',  ( 1.000000000000000000, 0.0000000000000000000, 0.0000000000000000000 ) ) ;
#303 = EDGE_LOOP ( 'NONE', ( #53 ) ) ;
#304 = EDGE_LOOP ( 'NONE', ( #124 ) ) ;
#305 = EDGE_CURVE ( 'NONE', #75, #75, #142, .T. ) ;
#306 = DIRECTION ( 'NONE',  ( 1.000000000000000000, 0.0000000000000000000, 0.0000000000000000000 ) ) ;
#307 = APPLICATION_CONTEXT ( 'configuration controlled 3d designs of mechanical parts and assemblies' ) ;
#308 = FACE_OUTER_BOUND ( 'NONE', #114, .T. ) ;
#309 = ORIENTED_EDGE ( 'NONE', *, *, #300, .F. ) ;
#310 = AXIS2_PLACEMENT_3D ( 'NONE', #325, #168, #90 ) ;
#311 = FACE_BOUND ( 'NONE', #39, .T. ) ;
#312 = PERSON_AND_ORGANIZATION ( #256, #286 ) ;
#313 = APPROVAL ( #208, 'UNSPECIFIED' ) ;
#314 = ADVANCED_FACE ( 'NONE', ( #134, #79 ), #156, .T. ) ;
#315 = CALENDAR_DATE ( 2017, 31, 7 ) ;
#316 = FACE_OUTER_BOUND ( 'NONE', #93, .T. ) ;
#317 = AXIS2_PLACEMENT_3D ( 'NONE', #330, #148, #86 ) ;
#318 = PERSON_AND_ORGANIZATION_ROLE ( 'classification_officer' ) ;
#319 = AXIS2_PLACEMENT_3D ( 'NONE', #197, #135, #108 ) ;
#320 = DIRECTION ( 'NONE',  ( 1.000000000000000000, 0.0000000000000000000, 0.0000000000000000000 ) ) ;
#321 = CARTESIAN_POINT ( 'NONE',  ( -5.049999999999999800, 0.0000000000000000000, -1.250000000000000000 ) ) ;
#322 = PERSON_AND_ORGANIZATION ( #256, #286 ) ;
#323 = CYLINDRICAL_SURFACE ( 'NONE', #230, 5.070000000000000300 ) ;
#324 = DATE_AND_TIME ( #58, #122 ) ;
#325 = CARTESIAN_POINT ( 'NONE',  ( 0.0000000000000000000, 0.0000000000000000000, -3.000000000000000400 ) ) ;
#326 = ORIENTED_EDGE ( 'NONE', *, *, #249, .F. ) ;
#327 = FACE_OUTER_BOUND ( 'NONE', #125, .T. ) ;
#328 = LOCAL_TIME ( 16, 8, 26.00000000000000000, #118 ) ;
#329 = CARTESIAN_POINT ( 'NONE',  ( 0.0000000000000000000, 0.0000000000000000000, -1.614825847899967500 ) ) ;
#330 = CARTESIAN_POINT ( 'NONE',  ( 0.0000000000000000000, 0.0000000000000000000, -1.614825847899967500 ) ) ;
#331 = PRODUCT_DEFINITION_FORMATION_WITH_SPECIFIED_SOURCE ( 'ANY', '', #45, .NOT_KNOWN. ) ;
#332 = PERSON_AND_ORGANIZATION ( #256, #286 ) ;
ENDSEC;
END-ISO-10303-21;
