ISO-10303-21;
HEADER;
FILE_DESCRIPTION (( 'STEP AP203' ),
    '1' );
FILE_NAME ('589161100.STEP',
    '2017-08-01T13:42:18',
    ( '' ),
    ( '' ),
    'SwSTEP 2.0',
    'SolidWorks 2017',
    '' );
FILE_SCHEMA (( 'CONFIG_CONTROL_DESIGN' ));
ENDSEC;

DATA;
#1 = FACE_OUTER_BOUND ( 'NONE', #12, .T. ) ;
#2 = PERSON_AND_ORGANIZATION ( #324, #13 ) ;
#3 = EDGE_LOOP ( 'NONE', ( #281 ) ) ;
#4 = CC_DESIGN_PERSON_AND_ORGANIZATION_ASSIGNMENT ( #125, #349, ( #93 ) ) ;
#5 = CC_DESIGN_APPROVAL ( #216, ( #199 ) ) ;
#6 = EDGE_LOOP ( 'NONE', ( #224 ) ) ;
#7 = ADVANCED_BREP_SHAPE_REPRESENTATION ( '589161100', ( #239, #291 ), #135 ) ;
#8 = CARTESIAN_POINT ( 'NONE',  ( 0.0000000000000000000, 0.0000000000000000000, 2.055070415551617300 ) ) ;
#9 = EDGE_LOOP ( 'NONE', ( #81 ) ) ;
#10 = EDGE_LOOP ( 'NONE', ( #58 ) ) ;
#11 = DIRECTION ( 'NONE',  ( 1.000000000000000000, 0.0000000000000000000, 0.0000000000000000000 ) ) ;
#12 = EDGE_LOOP ( 'NONE', ( #231 ) ) ;
#13 = ORGANIZATION ( 'UNSPECIFIED', 'UNSPECIFIED', '' ) ;
#14 = CC_DESIGN_SECURITY_CLASSIFICATION ( #36, ( #199 ) ) ;
#15 = COORDINATED_UNIVERSAL_TIME_OFFSET ( 5, 0, .BEHIND. ) ;
#16 = DIRECTION ( 'NONE',  ( 1.000000000000000000, 0.0000000000000000000, 0.0000000000000000000 ) ) ;
#17 = CARTESIAN_POINT ( 'NONE',  ( 0.0000000000000000000, 0.0000000000000000000, 0.0000000000000000000 ) ) ;
#18 = ORIENTED_EDGE ( 'NONE', *, *, #178, .T. ) ;
#19 = FACE_OUTER_BOUND ( 'NONE', #215, .T. ) ;
#20 = LOCAL_TIME ( 9, 42, 18.00000000000000000, #70 ) ;
#21 = AXIS2_PLACEMENT_3D ( 'NONE', #28, #152, #347 ) ;
#22 = PERSON_AND_ORGANIZATION ( #324, #13 ) ;
#23 = FACE_OUTER_BOUND ( 'NONE', #266, .T. ) ;
#24 = DIRECTION ( 'NONE',  ( -0.0000000000000000000, -0.0000000000000000000, 1.000000000000000000 ) ) ;
#25 =( NAMED_UNIT ( * ) PLANE_ANGLE_UNIT ( ) SI_UNIT ( $, .RADIAN. ) );
#26 = EDGE_CURVE ( 'NONE', #217, #217, #159, .T. ) ;
#27 = DIRECTION ( 'NONE',  ( 1.000000000000000000, 0.0000000000000000000, 0.0000000000000000000 ) ) ;
#28 = CARTESIAN_POINT ( 'NONE',  ( 0.0000000000000000000, 0.0000000000000000000, -1.199999999999999700 ) ) ;
#29 = CALENDAR_DATE ( 2017, 1, 8 ) ;
#30 = EDGE_LOOP ( 'NONE', ( #55 ) ) ;
#31 = DIRECTION ( 'NONE',  ( -0.0000000000000000000, -0.0000000000000000000, 1.000000000000000000 ) ) ;
#32 = CARTESIAN_POINT ( 'NONE',  ( 0.0000000000000000000, 0.0000000000000000000, 1.951147367097484600 ) ) ;
#33 = ADVANCED_FACE ( 'NONE', ( #143, #214 ), #352, .F. ) ;
#34 = DIRECTION ( 'NONE',  ( 1.000000000000000000, 0.0000000000000000000, 0.0000000000000000000 ) ) ;
#35 = AXIS2_PLACEMENT_3D ( 'NONE', #219, #24, #16 ) ;
#36 = SECURITY_CLASSIFICATION ( '', '', #60 ) ;
#37 =( CONVERSION_BASED_UNIT ( 'INCH', #85 ) LENGTH_UNIT ( ) NAMED_UNIT ( #74 ) );
#38 = CYLINDRICAL_SURFACE ( 'NONE', #35, 4.919999999999999900 ) ;
#39 = EDGE_LOOP ( 'NONE', ( #119 ) ) ;
#40 = EDGE_LOOP ( 'NONE', ( #95 ) ) ;
#41 = ORIENTED_EDGE ( 'NONE', *, *, #269, .F. ) ;
#42 = CIRCLE ( 'NONE', #132, 4.025999999999999800 ) ;
#43 = CARTESIAN_POINT ( 'NONE',  ( 0.0000000000000000000, 0.0000000000000000000, 0.0000000000000000000 ) ) ;
#44 = PRODUCT_DEFINITION_SHAPE ( 'NONE', 'NONE',  #93 ) ;
#45 = DIRECTION ( 'NONE',  ( -1.000000000000000000, 0.0000000000000000000, 0.0000000000000000000 ) ) ;
#46 = DATE_AND_TIME ( #115, #322 ) ;
#47 = CYLINDRICAL_SURFACE ( 'NONE', #277, 4.919999999999999900 ) ;
#48 = PRODUCT_RELATED_PRODUCT_CATEGORY ( 'detail', '', ( #146 ) ) ;
#49 = CIRCLE ( 'NONE', #329, 4.979999999999999500 ) ;
#50 = PERSON_AND_ORGANIZATION_ROLE ( 'creator' ) ;
#51 = CIRCLE ( 'NONE', #265, 5.414999999999998300 ) ;
#52 = AXIS2_PLACEMENT_3D ( 'NONE', #272, #260, #100 ) ;
#53 = APPLICATION_CONTEXT ( 'configuration controlled 3d designs of mechanical parts and assemblies' ) ;
#54 = DIRECTION ( 'NONE',  ( 1.000000000000000000, 0.0000000000000000000, 0.0000000000000000000 ) ) ;
#55 = ORIENTED_EDGE ( 'NONE', *, *, #26, .F. ) ;
#56 = DIRECTION ( 'NONE',  ( 1.000000000000000000, 0.0000000000000000000, 0.0000000000000000000 ) ) ;
#57 = AXIS2_PLACEMENT_3D ( 'NONE', #176, #253, #213 ) ;
#58 = ORIENTED_EDGE ( 'NONE', *, *, #26, .T. ) ;
#59 = VERTEX_POINT ( 'NONE', #330 ) ;
#60 = SECURITY_CLASSIFICATION_LEVEL ( 'unclassified' ) ;
#61 = CIRCLE ( 'NONE', #62, 5.414999999999998300 ) ;
#62 = AXIS2_PLACEMENT_3D ( 'NONE', #98, #321, #27 ) ;
#63 = LOCAL_TIME ( 9, 42, 18.00000000000000000, #182 ) ;
#64 = DIRECTION ( 'NONE',  ( 1.000000000000000000, 0.0000000000000000000, 0.0000000000000000000 ) ) ;
#65 = AXIS2_PLACEMENT_3D ( 'NONE', #168, #314, #254 ) ;
#66 = EDGE_CURVE ( 'NONE', #258, #258, #221, .T. ) ;
#67 = EDGE_LOOP ( 'NONE', ( #332 ) ) ;
#68 = FACE_OUTER_BOUND ( 'NONE', #89, .T. ) ;
#69 = DATE_AND_TIME ( #29, #20 ) ;
#70 = COORDINATED_UNIVERSAL_TIME_OFFSET ( 5, 0, .BEHIND. ) ;
#71 = CC_DESIGN_APPROVAL ( #327, ( #93 ) ) ;
#72 = SHAPE_DEFINITION_REPRESENTATION ( #44, #7 ) ;
#73 = CARTESIAN_POINT ( 'NONE',  ( 5.414999999999998300, 0.0000000000000000000, 1.199999999999999700 ) ) ;
#74 = DIMENSIONAL_EXPONENTS ( 1.000000000000000000, 0.0000000000000000000, 0.0000000000000000000, 0.0000000000000000000, 0.0000000000000000000, 0.0000000000000000000, 0.0000000000000000000 ) ;
#75 = CIRCLE ( 'NONE', #297, 4.979999999999999500 ) ;
#76 = VERTEX_POINT ( 'NONE', #279 ) ;
#77 = DIRECTION ( 'NONE',  ( -0.0000000000000000000, -0.0000000000000000000, 1.000000000000000000 ) ) ;
#78 = CC_DESIGN_PERSON_AND_ORGANIZATION_ASSIGNMENT ( #104, #369, ( #36 ) ) ;
#79 = EDGE_LOOP ( 'NONE', ( #207 ) ) ;
#80 = PLANE ( 'NONE',  #52 ) ;
#81 = ORIENTED_EDGE ( 'NONE', *, *, #108, .T. ) ;
#82 = CARTESIAN_POINT ( 'NONE',  ( 4.919999999999999900, 0.0000000000000000000, 1.199999999999999700 ) ) ;
#83 = AXIS2_PLACEMENT_3D ( 'NONE', #84, #185, #337 ) ;
#84 = CARTESIAN_POINT ( 'NONE',  ( 0.0000000000000000000, 0.0000000000000000000, 1.700000000000000000 ) ) ;
#85 = LENGTH_MEASURE_WITH_UNIT ( LENGTH_MEASURE( 0.02539999999999999900 ), #186 );
#86 = FACE_BOUND ( 'NONE', #350, .T. ) ;
#87 = VERTEX_POINT ( 'NONE', #118 ) ;
#88 = DIRECTION ( 'NONE',  ( 0.0000000000000000000, 0.0000000000000000000, -1.000000000000000000 ) ) ;
#89 = EDGE_LOOP ( 'NONE', ( #148 ) ) ;
#90 = TOROIDAL_SURFACE ( 'NONE', #145, 5.040000000000000000, 0.1199999999999998200 ) ;
#91 = FACE_BOUND ( 'NONE', #39, .T. ) ;
#92 = CARTESIAN_POINT ( 'NONE',  ( 4.025999999999999800, 0.0000000000000000000, -3.500000000000000000 ) ) ;
#93 = PRODUCT_DEFINITION ( 'UNKNOWN', '', #199, #137 ) ;
#94 = CC_DESIGN_PERSON_AND_ORGANIZATION_ASSIGNMENT ( #2, #50, ( #199 ) ) ;
#95 = ORIENTED_EDGE ( 'NONE', *, *, #178, .F. ) ;
#96 = DIRECTION ( 'NONE',  ( -0.0000000000000000000, -0.0000000000000000000, 1.000000000000000000 ) ) ;
#97 = FACE_OUTER_BOUND ( 'NONE', #261, .T. ) ;
#98 = CARTESIAN_POINT ( 'NONE',  ( 0.0000000000000000000, 0.0000000000000000000, 1.700000000000000000 ) ) ;
#99 = CARTESIAN_POINT ( 'NONE',  ( 4.919999999999999900, 0.0000000000000000000, 2.055070415551617300 ) ) ;
#100 = DIRECTION ( 'NONE',  ( -1.000000000000000000, 0.0000000000000000000, -0.0000000000000000000 ) ) ;
#101 =( NAMED_UNIT ( * ) SI_UNIT ( $, .STERADIAN. ) SOLID_ANGLE_UNIT ( ) );
#102 = DIRECTION ( 'NONE',  ( 1.000000000000000000, 0.0000000000000000000, 0.0000000000000000000 ) ) ;
#103 = ADVANCED_FACE ( 'NONE', ( #139, #86 ), #147, .F. ) ;
#104 = PERSON_AND_ORGANIZATION ( #324, #13 ) ;
#105 = VERTEX_POINT ( 'NONE', #92 ) ;
#106 = CC_DESIGN_APPROVAL ( #270, ( #36 ) ) ;
#107 = AXIS2_PLACEMENT_3D ( 'NONE', #208, #264, #360 ) ;
#108 = EDGE_CURVE ( 'NONE', #191, #191, #346, .T. ) ;
#109 = DIRECTION ( 'NONE',  ( -0.0000000000000000000, -0.0000000000000000000, 1.000000000000000000 ) ) ;
#110 = DIRECTION ( 'NONE',  ( 1.000000000000000000, 0.0000000000000000000, 0.0000000000000000000 ) ) ;
#111 = DIRECTION ( 'NONE',  ( -0.0000000000000000000, -0.0000000000000000000, 1.000000000000000000 ) ) ;
#112 = AXIS2_PLACEMENT_3D ( 'NONE', #341, #111, #54 ) ;
#113 = FACE_OUTER_BOUND ( 'NONE', #343, .T. ) ;
#114 = ORIENTED_EDGE ( 'NONE', *, *, #187, .F. ) ;
#115 = CALENDAR_DATE ( 2017, 1, 8 ) ;
#116 = EDGE_LOOP ( 'NONE', ( #114 ) ) ;
#117 = DATE_TIME_ROLE ( 'classification_date' ) ;
#118 = CARTESIAN_POINT ( 'NONE',  ( 4.979999999999999500, 0.0000000000000000000, -1.951147367097484600 ) ) ;
#119 = ORIENTED_EDGE ( 'NONE', *, *, #174, .T. ) ;
#120 = CARTESIAN_POINT ( 'NONE',  ( 0.0000000000000000000, 5.414999999999998300, -1.199999999999999700 ) ) ;
#121 = FACE_OUTER_BOUND ( 'NONE', #220, .T. ) ;
#122 = EDGE_CURVE ( 'NONE', #331, #331, #165, .T. ) ;
#123 = DATE_AND_TIME ( #326, #312 ) ;
#124 = ADVANCED_FACE ( 'NONE', ( #257, #141 ), #286, .T. ) ;
#125 = PERSON_AND_ORGANIZATION ( #324, #13 ) ;
#126 = ORIENTED_EDGE ( 'NONE', *, *, #363, .F. ) ;
#127 = CC_DESIGN_PERSON_AND_ORGANIZATION_ASSIGNMENT ( #285, #180, ( #199 ) ) ;
#128 = CARTESIAN_POINT ( 'NONE',  ( 4.025999999999999800, 0.0000000000000000000, 3.500000000000000000 ) ) ;
#129 = CALENDAR_DATE ( 2017, 1, 8 ) ;
#130 = FACE_BOUND ( 'NONE', #338, .T. ) ;
#131 = APPROVAL_STATUS ( 'not_yet_approved' ) ;
#132 = AXIS2_PLACEMENT_3D ( 'NONE', #302, #134, #317 ) ;
#133 = ORIENTED_EDGE ( 'NONE', *, *, #269, .T. ) ;
#134 = DIRECTION ( 'NONE',  ( -0.0000000000000000000, -0.0000000000000000000, 1.000000000000000000 ) ) ;
#135 =( GEOMETRIC_REPRESENTATION_CONTEXT ( 3 ) GLOBAL_UNCERTAINTY_ASSIGNED_CONTEXT ( ( #342 ) ) GLOBAL_UNIT_ASSIGNED_CONTEXT ( ( #37, #25, #101 ) ) REPRESENTATION_CONTEXT ( 'NONE', 'WORKASPACE' ) );
#136 = EDGE_LOOP ( 'NONE', ( #287 ) ) ;
#137 = DESIGN_CONTEXT ( 'detailed design', #53, 'design' ) ;
#138 = ORIENTED_EDGE ( 'NONE', *, *, #108, .F. ) ;
#139 = FACE_OUTER_BOUND ( 'NONE', #263, .T. ) ;
#140 = DIRECTION ( 'NONE',  ( 1.000000000000000000, 0.0000000000000000000, 0.0000000000000000000 ) ) ;
#141 = FACE_OUTER_BOUND ( 'NONE', #116, .T. ) ;
#142 = ADVANCED_FACE ( 'NONE', ( #365, #1 ), #194, .F. ) ;
#143 = FACE_OUTER_BOUND ( 'NONE', #344, .T. ) ;
#144 = AXIS2_PLACEMENT_3D ( 'NONE', #246, #31, #34 ) ;
#145 = AXIS2_PLACEMENT_3D ( 'NONE', #8, #96, #140 ) ;
#146 = PRODUCT ( '589161100', '589161100', '', ( #271 ) ) ;
#147 = PLANE ( 'NONE',  #65 ) ;
#148 = ORIENTED_EDGE ( 'NONE', *, *, #164, .T. ) ;
#149 = DIRECTION ( 'NONE',  ( 0.0000000000000000000, 0.0000000000000000000, 1.000000000000000000 ) ) ;
#150 = VERTEX_POINT ( 'NONE', #73 ) ;
#151 = AXIS2_PLACEMENT_3D ( 'NONE', #169, #88, #193 ) ;
#152 = DIRECTION ( 'NONE',  ( -0.0000000000000000000, -0.0000000000000000000, 1.000000000000000000 ) ) ;
#153 = APPROVAL_ROLE ( '' ) ;
#154 = CARTESIAN_POINT ( 'NONE',  ( 0.0000000000000000000, 0.0000000000000000000, -2.055070415551617300 ) ) ;
#155 = AXIS2_PLACEMENT_3D ( 'NONE', #167, #109, #11 ) ;
#156 = FACE_OUTER_BOUND ( 'NONE', #309, .T. ) ;
#157 = APPLICATION_CONTEXT ( 'configuration controlled 3d designs of mechanical parts and assemblies' ) ;
#158 = ADVANCED_FACE ( 'NONE', ( #130, #227 ), #80, .F. ) ;
#159 = CIRCLE ( 'NONE', #21, 4.919999999999999900 ) ;
#160 = VERTEX_POINT ( 'NONE', #99 ) ;
#161 = CC_DESIGN_DATE_AND_TIME_ASSIGNMENT ( #69, #242, ( #93 ) ) ;
#162 = FACE_OUTER_BOUND ( 'NONE', #40, .T. ) ;
#163 = APPROVAL_ROLE ( '' ) ;
#164 = EDGE_CURVE ( 'NONE', #294, #294, #306, .T. ) ;
#165 = CIRCLE ( 'NONE', #236, 4.919999999999999900 ) ;
#166 = EDGE_LOOP ( 'NONE', ( #368 ) ) ;
#167 = CARTESIAN_POINT ( 'NONE',  ( 0.0000000000000000000, 0.0000000000000000000, 3.500000000000000000 ) ) ;
#168 = CARTESIAN_POINT ( 'NONE',  ( 0.0000000000000000000, 5.414999999999998300, 1.199999999999999700 ) ) ;
#169 = CARTESIAN_POINT ( 'NONE',  ( 0.0000000000000000000, 0.0000000000000000000, 0.0000000000000000000 ) ) ;
#170 = ORIENTED_EDGE ( 'NONE', *, *, #234, .T. ) ;
#171 = PERSON_AND_ORGANIZATION ( #324, #13 ) ;
#172 = DIRECTION ( 'NONE',  ( 0.0000000000000000000, 0.0000000000000000000, -1.000000000000000000 ) ) ;
#173 = APPROVAL_DATE_TIME ( #334, #270 ) ;
#174 = EDGE_CURVE ( 'NONE', #105, #105, #42, .T. ) ;
#175 = CYLINDRICAL_SURFACE ( 'NONE', #151, 5.414999999999998300 ) ;
#176 = CARTESIAN_POINT ( 'NONE',  ( 0.0000000000000000000, 0.0000000000000000000, -1.199999999999999700 ) ) ;
#177 = CARTESIAN_POINT ( 'NONE',  ( 0.0000000000000000000, 0.0000000000000000000, 0.0000000000000000000 ) ) ;
#178 = EDGE_CURVE ( 'NONE', #212, #212, #61, .T. ) ;
#179 = CARTESIAN_POINT ( 'NONE',  ( 0.0000000000000000000, 0.0000000000000000000, 0.0000000000000000000 ) ) ;
#180 = PERSON_AND_ORGANIZATION_ROLE ( 'design_supplier' ) ;
#181 = AXIS2_PLACEMENT_3D ( 'NONE', #241, #289, #45 ) ;
#182 = COORDINATED_UNIVERSAL_TIME_OFFSET ( 5, 0, .BEHIND. ) ;
#183 = CYLINDRICAL_SURFACE ( 'NONE', #112, 5.414999999999998300 ) ;
#184 = ADVANCED_FACE ( 'NONE', ( #91, #351 ), #274, .F. ) ;
#185 = DIRECTION ( 'NONE',  ( 0.0000000000000000000, 0.0000000000000000000, -1.000000000000000000 ) ) ;
#186 =( LENGTH_UNIT ( ) NAMED_UNIT ( * ) SI_UNIT ( $, .METRE. ) );
#187 = EDGE_CURVE ( 'NONE', #240, #240, #51, .T. ) ;
#188 = AXIS2_PLACEMENT_3D ( 'NONE', #120, #295, #110 ) ;
#189 = ORIENTED_EDGE ( 'NONE', *, *, #66, .T. ) ;
#190 = CARTESIAN_POINT ( 'NONE',  ( 0.0000000000000000000, 0.0000000000000000000, -1.700000000000000000 ) ) ;
#191 = VERTEX_POINT ( 'NONE', #128 ) ;
#192 = CARTESIAN_POINT ( 'NONE',  ( 0.0000000000000000000, 0.0000000000000000000, -1.700000000000000000 ) ) ;
#193 = DIRECTION ( 'NONE',  ( 1.000000000000000000, 0.0000000000000000000, 0.0000000000000000000 ) ) ;
#194 = TOROIDAL_SURFACE ( 'NONE', #230, 5.040000000000000000, 0.1199999999999998200 ) ;
#195 = CARTESIAN_POINT ( 'NONE',  ( 4.919999999999999900, 0.0000000000000000000, -3.500000000000000000 ) ) ;
#196 = EDGE_CURVE ( 'NONE', #87, #87, #75, .T. ) ;
#197 = VERTEX_POINT ( 'NONE', #361 ) ;
#198 = ADVANCED_FACE ( 'NONE', ( #340, #290 ), #175, .T. ) ;
#199 = PRODUCT_DEFINITION_FORMATION_WITH_SPECIFIED_SOURCE ( 'ANY', '', #146, .NOT_KNOWN. ) ;
#200 = APPROVAL_PERSON_ORGANIZATION ( #367, #216, #163 ) ;
#201 = AXIS2_PLACEMENT_3D ( 'NONE', #372, #235, #56 ) ;
#202 = DIRECTION ( 'NONE',  ( 0.0000000000000000000, 0.0000000000000000000, -1.000000000000000000 ) ) ;
#203 = APPROVAL_DATE_TIME ( #339, #327 ) ;
#204 = CARTESIAN_POINT ( 'NONE',  ( 5.414999999999998300, 0.0000000000000000000, 1.700000000000000000 ) ) ;
#205 = CLOSED_SHELL ( 'NONE', ( #103, #336, #362, #158, #245, #278, #250, #307, #33, #184, #248, #142, #124, #198 ) ) ;
#206 = FACE_BOUND ( 'NONE', #325, .T. ) ;
#207 = ORIENTED_EDGE ( 'NONE', *, *, #164, .F. ) ;
#208 = CARTESIAN_POINT ( 'NONE',  ( 0.0000000000000000000, 0.0000000000000000000, -3.500000000000000000 ) ) ;
#209 = CYLINDRICAL_SURFACE ( 'NONE', #273, 4.919999999999999900 ) ;
#210 = LOCAL_TIME ( 9, 42, 18.00000000000000000, #252 ) ;
#211 = CIRCLE ( 'NONE', #292, 4.919999999999999900 ) ;
#212 = VERTEX_POINT ( 'NONE', #204 ) ;
#213 = DIRECTION ( 'NONE',  ( 1.000000000000000000, 0.0000000000000000000, 0.0000000000000000000 ) ) ;
#214 = FACE_BOUND ( 'NONE', #30, .T. ) ;
#215 = EDGE_LOOP ( 'NONE', ( #133 ) ) ;
#216 = APPROVAL ( #244, 'UNSPECIFIED' ) ;
#217 = VERTEX_POINT ( 'NONE', #304 ) ;
#218 = AXIS2_PLACEMENT_3D ( 'NONE', #192, #354, #370 ) ;
#219 = CARTESIAN_POINT ( 'NONE',  ( 0.0000000000000000000, 0.0000000000000000000, 0.0000000000000000000 ) ) ;
#220 = EDGE_LOOP ( 'NONE', ( #18 ) ) ;
#221 = CIRCLE ( 'NONE', #201, 4.919999999999999900 ) ;
#222 = CARTESIAN_POINT ( 'NONE',  ( 0.0000000000000000000, 0.0000000000000000000, 3.500000000000000000 ) ) ;
#223 = EDGE_CURVE ( 'NONE', #76, #76, #259, .T. ) ;
#224 = ORIENTED_EDGE ( 'NONE', *, *, #187, .T. ) ;
#225 = ORIENTED_EDGE ( 'NONE', *, *, #223, .F. ) ;
#226 = CYLINDRICAL_SURFACE ( 'NONE', #229, 4.025999999999999800 ) ;
#227 = FACE_OUTER_BOUND ( 'NONE', #333, .T. ) ;
#228 = CARTESIAN_POINT ( 'NONE',  ( 5.414999999999998300, 0.0000000000000000000, -1.700000000000000000 ) ) ;
#229 = AXIS2_PLACEMENT_3D ( 'NONE', #17, #77, #366 ) ;
#230 = AXIS2_PLACEMENT_3D ( 'NONE', #296, #202, #301 ) ;
#231 = ORIENTED_EDGE ( 'NONE', *, *, #196, .F. ) ;
#232 = ORIENTED_EDGE ( 'NONE', *, *, #66, .F. ) ;
#233 = APPROVAL_STATUS ( 'not_yet_approved' ) ;
#234 = EDGE_CURVE ( 'NONE', #160, #160, #211, .T. ) ;
#235 = DIRECTION ( 'NONE',  ( -0.0000000000000000000, -0.0000000000000000000, 1.000000000000000000 ) ) ;
#236 = AXIS2_PLACEMENT_3D ( 'NONE', #154, #299, #298 ) ;
#237 = APPLICATION_PROTOCOL_DEFINITION ( 'international standard', 'config_control_design', 1994, #53 ) ;
#238 = COORDINATED_UNIVERSAL_TIME_OFFSET ( 5, 0, .BEHIND. ) ;
#239 = MANIFOLD_SOLID_BREP ( 'Mirror1', #205 ) ;
#240 = VERTEX_POINT ( 'NONE', #228 ) ;
#241 = CARTESIAN_POINT ( 'NONE',  ( 0.0000000000000000000, 4.919999999999999900, -3.500000000000000000 ) ) ;
#242 = DATE_TIME_ROLE ( 'creation_date' ) ;
#243 = DIRECTION ( 'NONE',  ( 1.000000000000000000, 0.0000000000000000000, 0.0000000000000000000 ) ) ;
#244 = APPROVAL_STATUS ( 'not_yet_approved' ) ;
#245 = ADVANCED_FACE ( 'NONE', ( #97, #156 ), #38, .T. ) ;
#246 = CARTESIAN_POINT ( 'NONE',  ( 0.0000000000000000000, 0.0000000000000000000, 1.199999999999999700 ) ) ;
#247 = APPLICATION_PROTOCOL_DEFINITION ( 'international standard', 'config_control_design', 1994, #157 ) ;
#248 = ADVANCED_FACE ( 'NONE', ( #68, #113 ), #47, .T. ) ;
#249 = DIRECTION ( 'NONE',  ( 1.000000000000000000, 0.0000000000000000000, 0.0000000000000000000 ) ) ;
#250 = ADVANCED_FACE ( 'NONE', ( #206, #121 ), #310, .T. ) ;
#251 = FACE_OUTER_BOUND ( 'NONE', #9, .T. ) ;
#252 = COORDINATED_UNIVERSAL_TIME_OFFSET ( 5, 0, .BEHIND. ) ;
#253 = DIRECTION ( 'NONE',  ( -0.0000000000000000000, -0.0000000000000000000, 1.000000000000000000 ) ) ;
#254 = DIRECTION ( 'NONE',  ( 1.000000000000000000, 0.0000000000000000000, 0.0000000000000000000 ) ) ;
#255 = APPROVAL_PERSON_ORGANIZATION ( #171, #327, #320 ) ;
#256 = DIRECTION ( 'NONE',  ( -0.0000000000000000000, -0.0000000000000000000, 1.000000000000000000 ) ) ;
#257 = FACE_BOUND ( 'NONE', #276, .T. ) ;
#258 = VERTEX_POINT ( 'NONE', #82 ) ;
#259 = CIRCLE ( 'NONE', #155, 4.919999999999999900 ) ;
#260 = DIRECTION ( 'NONE',  ( 0.0000000000000000000, 0.0000000000000000000, -1.000000000000000000 ) ) ;
#261 = EDGE_LOOP ( 'NONE', ( #225 ) ) ;
#262 = CC_DESIGN_PERSON_AND_ORGANIZATION_ASSIGNMENT ( #22, #323, ( #146 ) ) ;
#263 = EDGE_LOOP ( 'NONE', ( #41 ) ) ;
#264 = DIRECTION ( 'NONE',  ( -0.0000000000000000000, -0.0000000000000000000, 1.000000000000000000 ) ) ;
#265 = AXIS2_PLACEMENT_3D ( 'NONE', #190, #303, #305 ) ;
#266 = EDGE_LOOP ( 'NONE', ( #232 ) ) ;
#267 = CARTESIAN_POINT ( 'NONE',  ( 4.919999999999999900, 0.0000000000000000000, -2.055070415551617300 ) ) ;
#268 = EDGE_LOOP ( 'NONE', ( #356 ) ) ;
#269 = EDGE_CURVE ( 'NONE', #150, #150, #328, .T. ) ;
#270 = APPROVAL ( #131, 'UNSPECIFIED' ) ;
#271 = MECHANICAL_CONTEXT ( 'NONE', #157, 'mechanical' ) ;
#272 = CARTESIAN_POINT ( 'NONE',  ( 0.0000000000000000000, 4.919999999999999900, 3.500000000000000000 ) ) ;
#273 = AXIS2_PLACEMENT_3D ( 'NONE', #177, #335, #348 ) ;
#274 = PLANE ( 'NONE',  #181 ) ;
#275 = CARTESIAN_POINT ( 'NONE',  ( 0.0000000000000000000, 0.0000000000000000000, 2.055070415551617300 ) ) ;
#276 = EDGE_LOOP ( 'NONE', ( #358 ) ) ;
#277 = AXIS2_PLACEMENT_3D ( 'NONE', #179, #172, #102 ) ;
#278 = ADVANCED_FACE ( 'NONE', ( #345, #355 ), #90, .F. ) ;
#279 = CARTESIAN_POINT ( 'NONE',  ( 4.919999999999999900, 0.0000000000000000000, 3.500000000000000000 ) ) ;
#280 = CIRCLE ( 'NONE', #57, 5.414999999999998300 ) ;
#281 = ORIENTED_EDGE ( 'NONE', *, *, #353, .F. ) ;
#282 = DIRECTION ( 'NONE',  ( 1.000000000000000000, 0.0000000000000000000, 0.0000000000000000000 ) ) ;
#283 = ORIENTED_EDGE ( 'NONE', *, *, #353, .T. ) ;
#284 = ORIENTED_EDGE ( 'NONE', *, *, #223, .T. ) ;
#285 = PERSON_AND_ORGANIZATION ( #324, #13 ) ;
#286 = CONICAL_SURFACE ( 'NONE', #218, 5.414999999999998300, 1.047197551196599900 ) ;
#287 = ORIENTED_EDGE ( 'NONE', *, *, #122, .T. ) ;
#288 = FACE_OUTER_BOUND ( 'NONE', #166, .T. ) ;
#289 = DIRECTION ( 'NONE',  ( 0.0000000000000000000, 0.0000000000000000000, 1.000000000000000000 ) ) ;
#290 = FACE_OUTER_BOUND ( 'NONE', #3, .T. ) ;
#291 = AXIS2_PLACEMENT_3D ( 'NONE', #43, #149, #64 ) ;
#292 = AXIS2_PLACEMENT_3D ( 'NONE', #275, #256, #249 ) ;
#293 = APPROVAL_DATE_TIME ( #123, #216 ) ;
#294 = VERTEX_POINT ( 'NONE', #195 ) ;
#295 = DIRECTION ( 'NONE',  ( 0.0000000000000000000, 0.0000000000000000000, -1.000000000000000000 ) ) ;
#296 = CARTESIAN_POINT ( 'NONE',  ( 0.0000000000000000000, 0.0000000000000000000, -2.055070415551617300 ) ) ;
#297 = AXIS2_PLACEMENT_3D ( 'NONE', #315, #316, #318 ) ;
#298 = DIRECTION ( 'NONE',  ( 1.000000000000000000, 0.0000000000000000000, 0.0000000000000000000 ) ) ;
#299 = DIRECTION ( 'NONE',  ( -0.0000000000000000000, -0.0000000000000000000, 1.000000000000000000 ) ) ;
#300 = ORIENTED_EDGE ( 'NONE', *, *, #122, .F. ) ;
#301 = DIRECTION ( 'NONE',  ( 1.000000000000000000, 0.0000000000000000000, 0.0000000000000000000 ) ) ;
#302 = CARTESIAN_POINT ( 'NONE',  ( 0.0000000000000000000, 0.0000000000000000000, -3.500000000000000000 ) ) ;
#303 = DIRECTION ( 'NONE',  ( -0.0000000000000000000, -0.0000000000000000000, 1.000000000000000000 ) ) ;
#304 = CARTESIAN_POINT ( 'NONE',  ( 4.919999999999999900, 0.0000000000000000000, -1.199999999999999700 ) ) ;
#305 = DIRECTION ( 'NONE',  ( 1.000000000000000000, 0.0000000000000000000, 0.0000000000000000000 ) ) ;
#306 = CIRCLE ( 'NONE', #107, 4.919999999999999900 ) ;
#307 = ADVANCED_FACE ( 'NONE', ( #162, #19 ), #183, .T. ) ;
#308 = DIRECTION ( 'NONE',  ( -0.0000000000000000000, -0.0000000000000000000, 1.000000000000000000 ) ) ;
#309 = EDGE_LOOP ( 'NONE', ( #170 ) ) ;
#310 = CONICAL_SURFACE ( 'NONE', #83, 5.414999999999998300, 1.047197551196599900 ) ;
#311 = APPROVAL_PERSON_ORGANIZATION ( #364, #270, #153 ) ;
#312 = LOCAL_TIME ( 9, 42, 18.00000000000000000, #238 ) ;
#313 = DIRECTION ( 'NONE',  ( -0.0000000000000000000, -0.0000000000000000000, 1.000000000000000000 ) ) ;
#314 = DIRECTION ( 'NONE',  ( 0.0000000000000000000, -0.0000000000000000000, 1.000000000000000000 ) ) ;
#315 = CARTESIAN_POINT ( 'NONE',  ( 0.0000000000000000000, 0.0000000000000000000, -1.951147367097484600 ) ) ;
#316 = DIRECTION ( 'NONE',  ( -0.0000000000000000000, -0.0000000000000000000, 1.000000000000000000 ) ) ;
#317 = DIRECTION ( 'NONE',  ( 1.000000000000000000, 0.0000000000000000000, 0.0000000000000000000 ) ) ;
#318 = DIRECTION ( 'NONE',  ( 1.000000000000000000, 0.0000000000000000000, 0.0000000000000000000 ) ) ;
#319 = FACE_OUTER_BOUND ( 'NONE', #10, .T. ) ;
#320 = APPROVAL_ROLE ( '' ) ;
#321 = DIRECTION ( 'NONE',  ( -0.0000000000000000000, -0.0000000000000000000, 1.000000000000000000 ) ) ;
#322 = LOCAL_TIME ( 9, 42, 18.00000000000000000, #15 ) ;
#323 = PERSON_AND_ORGANIZATION_ROLE ( 'design_owner' ) ;
#324 = PERSON ( 'UNSPECIFIED', 'UNSPECIFIED', 'UNSPECIFIED', ('UNSPECIFIED'), ('UNSPECIFIED'), ('UNSPECIFIED') ) ;
#325 = EDGE_LOOP ( 'NONE', ( #126 ) ) ;
#326 = CALENDAR_DATE ( 2017, 1, 8 ) ;
#327 = APPROVAL ( #233, 'UNSPECIFIED' ) ;
#328 = CIRCLE ( 'NONE', #144, 5.414999999999998300 ) ;
#329 = AXIS2_PLACEMENT_3D ( 'NONE', #32, #308, #243 ) ;
#330 = CARTESIAN_POINT ( 'NONE',  ( 4.979999999999999500, 0.0000000000000000000, 1.951147367097484600 ) ) ;
#331 = VERTEX_POINT ( 'NONE', #267 ) ;
#332 = ORIENTED_EDGE ( 'NONE', *, *, #363, .T. ) ;
#333 = EDGE_LOOP ( 'NONE', ( #284 ) ) ;
#334 = DATE_AND_TIME ( #129, #210 ) ;
#335 = DIRECTION ( 'NONE',  ( -0.0000000000000000000, -0.0000000000000000000, 1.000000000000000000 ) ) ;
#336 = ADVANCED_FACE ( 'NONE', ( #23, #319 ), #209, .T. ) ;
#337 = DIRECTION ( 'NONE',  ( -1.000000000000000000, 0.0000000000000000000, 0.0000000000000000000 ) ) ;
#338 = EDGE_LOOP ( 'NONE', ( #138 ) ) ;
#339 = DATE_AND_TIME ( #359, #63 ) ;
#340 = FACE_OUTER_BOUND ( 'NONE', #6, .T. ) ;
#341 = CARTESIAN_POINT ( 'NONE',  ( 0.0000000000000000000, 0.0000000000000000000, 0.0000000000000000000 ) ) ;
#342 = UNCERTAINTY_MEASURE_WITH_UNIT (LENGTH_MEASURE( 1.000000000000000100E-005 ), #37, 'distance_accuracy_value', 'NONE');
#343 = EDGE_LOOP ( 'NONE', ( #300 ) ) ;
#344 = EDGE_LOOP ( 'NONE', ( #283 ) ) ;
#345 = FACE_OUTER_BOUND ( 'NONE', #268, .T. ) ;
#346 = CIRCLE ( 'NONE', #371, 4.025999999999999800 ) ;
#347 = DIRECTION ( 'NONE',  ( 1.000000000000000000, 0.0000000000000000000, 0.0000000000000000000 ) ) ;
#348 = DIRECTION ( 'NONE',  ( 1.000000000000000000, 0.0000000000000000000, 0.0000000000000000000 ) ) ;
#349 = PERSON_AND_ORGANIZATION_ROLE ( 'creator' ) ;
#350 = EDGE_LOOP ( 'NONE', ( #189 ) ) ;
#351 = FACE_OUTER_BOUND ( 'NONE', #79, .T. ) ;
#352 = PLANE ( 'NONE',  #188 ) ;
#353 = EDGE_CURVE ( 'NONE', #197, #197, #280, .T. ) ;
#354 = DIRECTION ( 'NONE',  ( 0.0000000000000000000, 0.0000000000000000000, 1.000000000000000000 ) ) ;
#355 = FACE_OUTER_BOUND ( 'NONE', #67, .T. ) ;
#356 = ORIENTED_EDGE ( 'NONE', *, *, #234, .F. ) ;
#357 = CC_DESIGN_DATE_AND_TIME_ASSIGNMENT ( #46, #117, ( #36 ) ) ;
#358 = ORIENTED_EDGE ( 'NONE', *, *, #196, .T. ) ;
#359 = CALENDAR_DATE ( 2017, 1, 8 ) ;
#360 = DIRECTION ( 'NONE',  ( 1.000000000000000000, 0.0000000000000000000, 0.0000000000000000000 ) ) ;
#361 = CARTESIAN_POINT ( 'NONE',  ( 5.414999999999998300, 0.0000000000000000000, -1.199999999999999700 ) ) ;
#362 = ADVANCED_FACE ( 'NONE', ( #251, #288 ), #226, .F. ) ;
#363 = EDGE_CURVE ( 'NONE', #59, #59, #49, .T. ) ;
#364 = PERSON_AND_ORGANIZATION ( #324, #13 ) ;
#365 = FACE_OUTER_BOUND ( 'NONE', #136, .T. ) ;
#366 = DIRECTION ( 'NONE',  ( 1.000000000000000000, 0.0000000000000000000, 0.0000000000000000000 ) ) ;
#367 = PERSON_AND_ORGANIZATION ( #324, #13 ) ;
#368 = ORIENTED_EDGE ( 'NONE', *, *, #174, .F. ) ;
#369 = PERSON_AND_ORGANIZATION_ROLE ( 'classification_officer' ) ;
#370 = DIRECTION ( 'NONE',  ( -1.000000000000000000, 0.0000000000000000000, 0.0000000000000000000 ) ) ;
#371 = AXIS2_PLACEMENT_3D ( 'NONE', #222, #313, #282 ) ;
#372 = CARTESIAN_POINT ( 'NONE',  ( 0.0000000000000000000, 0.0000000000000000000, 1.199999999999999700 ) ) ;
ENDSEC;
END-ISO-10303-21;
