ISO-10303-21;
HEADER;
FILE_DESCRIPTION (( 'STEP AP203' ),
    '1' );
FILE_NAME ('581138010.STEP',
    '2017-07-28T19:03:48',
    ( '' ),
    ( '' ),
    'SwSTEP 2.0',
    'SolidWorks 2017',
    '' );
FILE_SCHEMA (( 'CONFIG_CONTROL_DESIGN' ));
ENDSEC;

DATA;
#1 = ORIENTED_EDGE ( 'NONE', *, *, #88, .F. ) ;
#2 = SHAPE_DEFINITION_REPRESENTATION ( #186, #125 ) ;
#3 = APPROVAL_STATUS ( 'not_yet_approved' ) ;
#4 = EDGE_LOOP ( 'NONE', ( #197 ) ) ;
#5 = DIRECTION ( 'NONE',  ( -1.000000000000000000, 0.0000000000000000000, -0.0000000000000000000 ) ) ;
#6 = DIRECTION ( 'NONE',  ( -1.000000000000000000, -0.0000000000000000000, -0.0000000000000000000 ) ) ;
#7 = DIRECTION ( 'NONE',  ( 0.0000000000000000000, 0.0000000000000000000, 1.000000000000000000 ) ) ;
#8 = APPROVAL_PERSON_ORGANIZATION ( #61, #193, #11 ) ;
#9 = APPROVAL_PERSON_ORGANIZATION ( #112, #62, #66 ) ;
#10 = LOCAL_TIME ( 15, 3, 48.00000000000000000, #202 ) ;
#11 = APPROVAL_ROLE ( '' ) ;
#12 = ORIENTED_EDGE ( 'NONE', *, *, #104, .F. ) ;
#13 = CARTESIAN_POINT ( 'NONE',  ( 2.332147878608248300, 0.0000000000000000000, 0.5160000000000000100 ) ) ;
#14 = AXIS2_PLACEMENT_3D ( 'NONE', #155, #25, #90 ) ;
#15 = DIRECTION ( 'NONE',  ( -1.000000000000000000, -0.0000000000000000000, -0.0000000000000000000 ) ) ;
#16 = ORIENTED_EDGE ( 'NONE', *, *, #60, .F. ) ;
#17 = AXIS2_PLACEMENT_3D ( 'NONE', #68, #70, #73 ) ;
#18 =( GEOMETRIC_REPRESENTATION_CONTEXT ( 3 ) GLOBAL_UNCERTAINTY_ASSIGNED_CONTEXT ( ( #38 ) ) GLOBAL_UNIT_ASSIGNED_CONTEXT ( ( #139, #131, #148 ) ) REPRESENTATION_CONTEXT ( 'NONE', 'WORKASPACE' ) );
#19 = DIRECTION ( 'NONE',  ( 0.0000000000000000000, 0.0000000000000000000, 1.000000000000000000 ) ) ;
#20 = MANIFOLD_SOLID_BREP ( 'Base-Revolve', #172 ) ;
#21 = COORDINATED_UNIVERSAL_TIME_OFFSET ( 5, 0, .BEHIND. ) ;
#22 = ORIENTED_EDGE ( 'NONE', *, *, #126, .T. ) ;
#23 = CARTESIAN_POINT ( 'NONE',  ( -4.463181148748159200, 0.0000000000000000000, 0.0000000000000000000 ) ) ;
#24 = PERSON_AND_ORGANIZATION ( #40, #95 ) ;
#25 = DIRECTION ( 'NONE',  ( -1.000000000000000000, -0.0000000000000000000, -0.0000000000000000000 ) ) ;
#26 = AXIS2_PLACEMENT_3D ( 'NONE', #71, #30, #36 ) ;
#27 = FACE_OUTER_BOUND ( 'NONE', #55, .T. ) ;
#28 = CARTESIAN_POINT ( 'NONE',  ( 0.3621478786082472100, 0.0000000000000000000, 0.0000000000000000000 ) ) ;
#29 = CALENDAR_DATE ( 2017, 28, 7 ) ;
#30 = DIRECTION ( 'NONE',  ( -1.000000000000000000, -0.0000000000000000000, -0.0000000000000000000 ) ) ;
#31 = EDGE_CURVE ( 'NONE', #141, #141, #89, .T. ) ;
#32 = VERTEX_POINT ( 'NONE', #205 ) ;
#33 = DIRECTION ( 'NONE',  ( -1.000000000000000000, 0.0000000000000000000, -0.0000000000000000000 ) ) ;
#34 = CC_DESIGN_APPROVAL ( #193, ( #161 ) ) ;
#35 = ORIENTED_EDGE ( 'NONE', *, *, #31, .F. ) ;
#36 = DIRECTION ( 'NONE',  ( 0.0000000000000000000, 0.0000000000000000000, 1.000000000000000000 ) ) ;
#37 = CARTESIAN_POINT ( 'NONE',  ( 1.622147878608247500, 0.0000000000000000000, 0.0000000000000000000 ) ) ;
#38 = UNCERTAINTY_MEASURE_WITH_UNIT (LENGTH_MEASURE( 1.000000000000000100E-005 ), #139, 'distance_accuracy_value', 'NONE');
#39 = EDGE_LOOP ( 'NONE', ( #35 ) ) ;
#40 = PERSON ( 'UNSPECIFIED', 'UNSPECIFIED', 'UNSPECIFIED', ('UNSPECIFIED'), ('UNSPECIFIED'), ('UNSPECIFIED') ) ;
#41 = FACE_OUTER_BOUND ( 'NONE', #133, .T. ) ;
#42 = DESIGN_CONTEXT ( 'detailed design', #228, 'design' ) ;
#43 = CARTESIAN_POINT ( 'NONE',  ( 0.6621478786082478600, 0.0000000000000000000, 1.250000000000000000 ) ) ;
#44 = ORIENTED_EDGE ( 'NONE', *, *, #137, .F. ) ;
#45 = LOCAL_TIME ( 15, 3, 48.00000000000000000, #232 ) ;
#46 = VERTEX_POINT ( 'NONE', #52 ) ;
#47 = FACE_OUTER_BOUND ( 'NONE', #58, .T. ) ;
#48 = EDGE_LOOP ( 'NONE', ( #16 ) ) ;
#49 = APPROVAL ( #102, 'UNSPECIFIED' ) ;
#50 = FACE_OUTER_BOUND ( 'NONE', #48, .T. ) ;
#51 = EDGE_LOOP ( 'NONE', ( #44 ) ) ;
#52 = CARTESIAN_POINT ( 'NONE',  ( 0.6621478786082478600, 0.0000000000000000000, 0.7850000000000001400 ) ) ;
#53 = CYLINDRICAL_SURFACE ( 'NONE', #56, 1.250000000000000000 ) ;
#54 = DIMENSIONAL_EXPONENTS ( 1.000000000000000000, 0.0000000000000000000, 0.0000000000000000000, 0.0000000000000000000, 0.0000000000000000000, 0.0000000000000000000, 0.0000000000000000000 ) ;
#55 = EDGE_LOOP ( 'NONE', ( #194 ) ) ;
#56 = AXIS2_PLACEMENT_3D ( 'NONE', #160, #188, #7 ) ;
#57 = CARTESIAN_POINT ( 'NONE',  ( 0.0000000000000000000, 0.0000000000000000000, 0.0000000000000000000 ) ) ;
#58 = EDGE_LOOP ( 'NONE', ( #204 ) ) ;
#59 = PERSON_AND_ORGANIZATION_ROLE ( 'creator' ) ;
#60 = EDGE_CURVE ( 'NONE', #210, #210, #103, .T. ) ;
#61 = PERSON_AND_ORGANIZATION ( #40, #95 ) ;
#62 = APPROVAL ( #3, 'UNSPECIFIED' ) ;
#63 = PLANE ( 'NONE',  #181 ) ;
#64 = PRODUCT_DEFINITION ( 'UNKNOWN', '', #161, #42 ) ;
#65 = CARTESIAN_POINT ( 'NONE',  ( 2.332147878608247900, 0.6300000000000000000, 0.0000000000000000000 ) ) ;
#66 = APPROVAL_ROLE ( '' ) ;
#67 = CYLINDRICAL_SURFACE ( 'NONE', #165, 0.5159999999999999000 ) ;
#68 = CARTESIAN_POINT ( 'NONE',  ( 0.3621478786082477600, 0.0000000000000000000, 0.0000000000000000000 ) ) ;
#69 = CC_DESIGN_PERSON_AND_ORGANIZATION_ASSIGNMENT ( #201, #143, ( #118 ) ) ;
#70 = DIRECTION ( 'NONE',  ( -1.000000000000000000, -0.0000000000000000000, -0.0000000000000000000 ) ) ;
#71 = CARTESIAN_POINT ( 'NONE',  ( -4.463181148748159200, 0.0000000000000000000, 0.0000000000000000000 ) ) ;
#72 = VERTEX_POINT ( 'NONE', #13 ) ;
#73 = DIRECTION ( 'NONE',  ( 0.0000000000000000000, 0.0000000000000000000, 1.000000000000000000 ) ) ;
#74 = APPROVAL_DATE_TIME ( #221, #49 ) ;
#75 = DIRECTION ( 'NONE',  ( 0.0000000000000000000, 0.0000000000000000000, 1.000000000000000000 ) ) ;
#76 = CC_DESIGN_DATE_AND_TIME_ASSIGNMENT ( #156, #98, ( #64 ) ) ;
#77 = APPROVAL_DATE_TIME ( #108, #62 ) ;
#78 = CC_DESIGN_APPROVAL ( #62, ( #64 ) ) ;
#79 = ORIENTED_EDGE ( 'NONE', *, *, #31, .T. ) ;
#80 = ADVANCED_FACE ( 'NONE', ( #128, #214 ), #67, .F. ) ;
#81 = DIRECTION ( 'NONE',  ( 1.000000000000000000, 0.0000000000000000000, 0.0000000000000000000 ) ) ;
#82 = CARTESIAN_POINT ( 'NONE',  ( 0.6621478786082475300, 1.250000000000000000, 0.0000000000000000000 ) ) ;
#83 = CIRCLE ( 'NONE', #132, 0.5159999999999997900 ) ;
#84 = DIRECTION ( 'NONE',  ( -1.000000000000000000, -0.0000000000000000000, -0.0000000000000000000 ) ) ;
#85 = AXIS2_PLACEMENT_3D ( 'NONE', #92, #123, #227 ) ;
#86 = CARTESIAN_POINT ( 'NONE',  ( 1.622147878608247500, 0.0000000000000000000, 0.6299999999999997800 ) ) ;
#87 = PLANE ( 'NONE',  #216 ) ;
#88 = EDGE_CURVE ( 'NONE', #46, #46, #111, .T. ) ;
#89 = CIRCLE ( 'NONE', #140, 0.6299999999999997800 ) ;
#90 = DIRECTION ( 'NONE',  ( 0.0000000000000000000, 0.0000000000000000000, 1.000000000000000000 ) ) ;
#91 = APPROVAL_DATE_TIME ( #180, #193 ) ;
#92 = CARTESIAN_POINT ( 'NONE',  ( 0.3621478786082475400, 1.250000000000000000, 0.0000000000000000000 ) ) ;
#93 = ADVANCED_FACE ( 'NONE', ( #225, #27 ), #53, .T. ) ;
#94 = AXIS2_PLACEMENT_3D ( 'NONE', #199, #170, #162 ) ;
#95 = ORGANIZATION ( 'UNSPECIFIED', 'UNSPECIFIED', '' ) ;
#96 = SECURITY_CLASSIFICATION_LEVEL ( 'unclassified' ) ;
#97 = CIRCLE ( 'NONE', #14, 0.5160000000000000100 ) ;
#98 = DATE_TIME_ROLE ( 'creation_date' ) ;
#99 = CC_DESIGN_APPROVAL ( #49, ( #195 ) ) ;
#100 = APPLICATION_PROTOCOL_DEFINITION ( 'international standard', 'config_control_design', 1994, #218 ) ;
#101 = ADVANCED_FACE ( 'NONE', ( #41, #135 ), #182, .T. ) ;
#102 = APPROVAL_STATUS ( 'not_yet_approved' ) ;
#103 = CIRCLE ( 'NONE', #94, 0.6300000000000000000 ) ;
#104 = EDGE_CURVE ( 'NONE', #32, #32, #83, .T. ) ;
#105 = DATE_TIME_ROLE ( 'classification_date' ) ;
#106 = APPROVAL_ROLE ( '' ) ;
#107 = ADVANCED_FACE ( 'NONE', ( #50, #222 ), #87, .F. ) ;
#108 = DATE_AND_TIME ( #196, #45 ) ;
#109 = LOCAL_TIME ( 15, 3, 48.00000000000000000, #21 ) ;
#110 = CIRCLE ( 'NONE', #190, 1.250000000000000000 ) ;
#111 = CIRCLE ( 'NONE', #200, 0.7850000000000001400 ) ;
#112 = PERSON_AND_ORGANIZATION ( #40, #95 ) ;
#113 = CC_DESIGN_PERSON_AND_ORGANIZATION_ASSIGNMENT ( #24, #59, ( #161 ) ) ;
#114 = CARTESIAN_POINT ( 'NONE',  ( 0.6621478786082478600, 0.0000000000000000000, 0.0000000000000000000 ) ) ;
#115 = EDGE_LOOP ( 'NONE', ( #12 ) ) ;
#116 = CARTESIAN_POINT ( 'NONE',  ( 0.3621478786082477600, 0.0000000000000000000, 1.250000000000000000 ) ) ;
#117 = EDGE_LOOP ( 'NONE', ( #122 ) ) ;
#118 = PRODUCT ( '581138010', '581138010', '', ( #145 ) ) ;
#119 = ADVANCED_FACE ( 'NONE', ( #121, #179 ), #63, .F. ) ;
#120 = DIRECTION ( 'NONE',  ( 0.0000000000000000000, 0.0000000000000000000, 1.000000000000000000 ) ) ;
#121 = FACE_OUTER_BOUND ( 'NONE', #117, .T. ) ;
#122 = ORIENTED_EDGE ( 'NONE', *, *, #198, .F. ) ;
#123 = DIRECTION ( 'NONE',  ( 1.000000000000000000, 0.0000000000000000000, 0.0000000000000000000 ) ) ;
#124 = FACE_OUTER_BOUND ( 'NONE', #39, .T. ) ;
#125 = ADVANCED_BREP_SHAPE_REPRESENTATION ( '581138010', ( #20, #230 ), #18 ) ;
#126 = EDGE_CURVE ( 'NONE', #152, #152, #189, .T. ) ;
#127 = PERSON_AND_ORGANIZATION_ROLE ( 'classification_officer' ) ;
#128 = FACE_OUTER_BOUND ( 'NONE', #51, .T. ) ;
#129 = DIRECTION ( 'NONE',  ( -1.000000000000000000, -0.0000000000000000000, -0.0000000000000000000 ) ) ;
#130 = ADVANCED_FACE ( 'NONE', ( #124, #47 ), #217, .T. ) ;
#131 =( NAMED_UNIT ( * ) PLANE_ANGLE_UNIT ( ) SI_UNIT ( $, .RADIAN. ) );
#132 = AXIS2_PLACEMENT_3D ( 'NONE', #28, #15, #19 ) ;
#133 = EDGE_LOOP ( 'NONE', ( #1 ) ) ;
#134 = PERSON_AND_ORGANIZATION_ROLE ( 'creator' ) ;
#135 = FACE_BOUND ( 'NONE', #146, .T. ) ;
#136 = EDGE_LOOP ( 'NONE', ( #22 ) ) ;
#137 = EDGE_CURVE ( 'NONE', #72, #72, #97, .T. ) ;
#138 = CALENDAR_DATE ( 2017, 28, 7 ) ;
#139 =( CONVERSION_BASED_UNIT ( 'INCH', #185 ) LENGTH_UNIT ( ) NAMED_UNIT ( #54 ) );
#140 = AXIS2_PLACEMENT_3D ( 'NONE', #37, #129, #169 ) ;
#141 = VERTEX_POINT ( 'NONE', #86 ) ;
#142 = CC_DESIGN_SECURITY_CLASSIFICATION ( #195, ( #161 ) ) ;
#143 = PERSON_AND_ORGANIZATION_ROLE ( 'design_owner' ) ;
#144 = DIRECTION ( 'NONE',  ( -1.000000000000000000, -0.0000000000000000000, -0.0000000000000000000 ) ) ;
#145 = MECHANICAL_CONTEXT ( 'NONE', #218, 'mechanical' ) ;
#146 = EDGE_LOOP ( 'NONE', ( #79 ) ) ;
#147 = DIRECTION ( 'NONE',  ( -0.0000000000000000000, 0.0000000000000000000, 1.000000000000000000 ) ) ;
#148 =( NAMED_UNIT ( * ) SI_UNIT ( $, .STERADIAN. ) SOLID_ANGLE_UNIT ( ) );
#149 = ORIENTED_EDGE ( 'NONE', *, *, #137, .T. ) ;
#150 = ORIENTED_EDGE ( 'NONE', *, *, #88, .T. ) ;
#151 = DIRECTION ( 'NONE',  ( -0.0000000000000000000, 0.0000000000000000000, 1.000000000000000000 ) ) ;
#152 = VERTEX_POINT ( 'NONE', #116 ) ;
#153 = DATE_AND_TIME ( #138, #10 ) ;
#154 = CC_DESIGN_PERSON_AND_ORGANIZATION_ASSIGNMENT ( #215, #134, ( #64 ) ) ;
#155 = CARTESIAN_POINT ( 'NONE',  ( 2.332147878608248300, 0.0000000000000000000, 0.0000000000000000000 ) ) ;
#156 = DATE_AND_TIME ( #177, #173 ) ;
#157 = PERSON_AND_ORGANIZATION_ROLE ( 'design_supplier' ) ;
#158 = CARTESIAN_POINT ( 'NONE',  ( 1.622147878608247500, 0.0000000000000000000, 0.0000000000000000000 ) ) ;
#159 = PLANE ( 'NONE',  #85 ) ;
#160 = CARTESIAN_POINT ( 'NONE',  ( -4.463181148748159200, 0.0000000000000000000, 0.0000000000000000000 ) ) ;
#161 = PRODUCT_DEFINITION_FORMATION_WITH_SPECIFIED_SOURCE ( 'ANY', '', #118, .NOT_KNOWN. ) ;
#162 = DIRECTION ( 'NONE',  ( 0.0000000000000000000, 0.0000000000000000000, 1.000000000000000000 ) ) ;
#163 = APPLICATION_PROTOCOL_DEFINITION ( 'international standard', 'config_control_design', 1994, #228 ) ;
#164 = FACE_BOUND ( 'NONE', #115, .T. ) ;
#165 = AXIS2_PLACEMENT_3D ( 'NONE', #23, #176, #75 ) ;
#166 =( LENGTH_UNIT ( ) NAMED_UNIT ( * ) SI_UNIT ( $, .METRE. ) );
#167 = COORDINATED_UNIVERSAL_TIME_OFFSET ( 5, 0, .BEHIND. ) ;
#168 = PERSON_AND_ORGANIZATION ( #40, #95 ) ;
#169 = DIRECTION ( 'NONE',  ( 0.0000000000000000000, 0.0000000000000000000, 1.000000000000000000 ) ) ;
#170 = DIRECTION ( 'NONE',  ( -1.000000000000000000, -0.0000000000000000000, -0.0000000000000000000 ) ) ;
#171 = COORDINATED_UNIVERSAL_TIME_OFFSET ( 5, 0, .BEHIND. ) ;
#172 = CLOSED_SHELL ( 'NONE', ( #211, #80, #107, #130, #101, #119, #93 ) ) ;
#173 = LOCAL_TIME ( 15, 3, 48.00000000000000000, #167 ) ;
#174 = CARTESIAN_POINT ( 'NONE',  ( 0.6621478786082478600, 0.0000000000000000000, 0.0000000000000000000 ) ) ;
#175 = DIRECTION ( 'NONE',  ( 0.0000000000000000000, 0.0000000000000000000, 1.000000000000000000 ) ) ;
#176 = DIRECTION ( 'NONE',  ( -1.000000000000000000, -0.0000000000000000000, -0.0000000000000000000 ) ) ;
#177 = CALENDAR_DATE ( 2017, 28, 7 ) ;
#178 = APPROVAL_PERSON_ORGANIZATION ( #168, #49, #106 ) ;
#179 = FACE_BOUND ( 'NONE', #183, .T. ) ;
#180 = DATE_AND_TIME ( #219, #208 ) ;
#181 = AXIS2_PLACEMENT_3D ( 'NONE', #82, #33, #151 ) ;
#182 = CONICAL_SURFACE ( 'NONE', #224, 0.6299999999999997800, 0.1600768696771425200 ) ;
#183 = EDGE_LOOP ( 'NONE', ( #150 ) ) ;
#184 = PERSON_AND_ORGANIZATION ( #40, #95 ) ;
#185 = LENGTH_MEASURE_WITH_UNIT ( LENGTH_MEASURE( 0.02539999999999999900 ), #166 );
#186 = PRODUCT_DEFINITION_SHAPE ( 'NONE', 'NONE',  #64 ) ;
#187 = CC_DESIGN_PERSON_AND_ORGANIZATION_ASSIGNMENT ( #184, #157, ( #161 ) ) ;
#188 = DIRECTION ( 'NONE',  ( -1.000000000000000000, -0.0000000000000000000, -0.0000000000000000000 ) ) ;
#189 = CIRCLE ( 'NONE', #17, 1.250000000000000000 ) ;
#190 = AXIS2_PLACEMENT_3D ( 'NONE', #174, #144, #175 ) ;
#191 = PERSON_AND_ORGANIZATION ( #40, #95 ) ;
#192 = FACE_OUTER_BOUND ( 'NONE', #136, .T. ) ;
#193 = APPROVAL ( #223, 'UNSPECIFIED' ) ;
#194 = ORIENTED_EDGE ( 'NONE', *, *, #198, .T. ) ;
#195 = SECURITY_CLASSIFICATION ( '', '', #96 ) ;
#196 = CALENDAR_DATE ( 2017, 28, 7 ) ;
#197 = ORIENTED_EDGE ( 'NONE', *, *, #126, .F. ) ;
#198 = EDGE_CURVE ( 'NONE', #209, #209, #110, .T. ) ;
#199 = CARTESIAN_POINT ( 'NONE',  ( 2.332147878608248300, 0.0000000000000000000, 0.0000000000000000000 ) ) ;
#200 = AXIS2_PLACEMENT_3D ( 'NONE', #114, #6, #212 ) ;
#201 = PERSON_AND_ORGANIZATION ( #40, #95 ) ;
#202 = COORDINATED_UNIVERSAL_TIME_OFFSET ( 5, 0, .BEHIND. ) ;
#203 = EDGE_LOOP ( 'NONE', ( #149 ) ) ;
#204 = ORIENTED_EDGE ( 'NONE', *, *, #60, .T. ) ;
#205 = CARTESIAN_POINT ( 'NONE',  ( 0.3621478786082472100, 0.0000000000000000000, 0.5159999999999997900 ) ) ;
#206 = PRODUCT_RELATED_PRODUCT_CATEGORY ( 'detail', '', ( #118 ) ) ;
#207 = ORIENTED_EDGE ( 'NONE', *, *, #104, .T. ) ;
#208 = LOCAL_TIME ( 15, 3, 48.00000000000000000, #171 ) ;
#209 = VERTEX_POINT ( 'NONE', #43 ) ;
#210 = VERTEX_POINT ( 'NONE', #220 ) ;
#211 = ADVANCED_FACE ( 'NONE', ( #164, #192 ), #159, .F. ) ;
#212 = DIRECTION ( 'NONE',  ( 0.0000000000000000000, 0.0000000000000000000, 1.000000000000000000 ) ) ;
#213 = CC_DESIGN_PERSON_AND_ORGANIZATION_ASSIGNMENT ( #191, #127, ( #195 ) ) ;
#214 = FACE_OUTER_BOUND ( 'NONE', #231, .T. ) ;
#215 = PERSON_AND_ORGANIZATION ( #40, #95 ) ;
#216 = AXIS2_PLACEMENT_3D ( 'NONE', #65, #5, #147 ) ;
#217 = CYLINDRICAL_SURFACE ( 'NONE', #26, 0.6299999999999997800 ) ;
#218 = APPLICATION_CONTEXT ( 'configuration controlled 3d designs of mechanical parts and assemblies' ) ;
#219 = CALENDAR_DATE ( 2017, 28, 7 ) ;
#220 = CARTESIAN_POINT ( 'NONE',  ( 2.332147878608248300, 0.0000000000000000000, 0.6300000000000000000 ) ) ;
#221 = DATE_AND_TIME ( #29, #109 ) ;
#222 = FACE_BOUND ( 'NONE', #203, .T. ) ;
#223 = APPROVAL_STATUS ( 'not_yet_approved' ) ;
#224 = AXIS2_PLACEMENT_3D ( 'NONE', #158, #84, #120 ) ;
#225 = FACE_OUTER_BOUND ( 'NONE', #4, .T. ) ;
#226 = CC_DESIGN_DATE_AND_TIME_ASSIGNMENT ( #153, #105, ( #195 ) ) ;
#227 = DIRECTION ( 'NONE',  ( 0.0000000000000000000, 0.0000000000000000000, -1.000000000000000000 ) ) ;
#228 = APPLICATION_CONTEXT ( 'configuration controlled 3d designs of mechanical parts and assemblies' ) ;
#229 = DIRECTION ( 'NONE',  ( 0.0000000000000000000, 0.0000000000000000000, 1.000000000000000000 ) ) ;
#230 = AXIS2_PLACEMENT_3D ( 'NONE', #57, #229, #81 ) ;
#231 = EDGE_LOOP ( 'NONE', ( #207 ) ) ;
#232 = COORDINATED_UNIVERSAL_TIME_OFFSET ( 5, 0, .BEHIND. ) ;
ENDSEC;
END-ISO-10303-21;
