ISO-10303-21;
HEADER;
FILE_DESCRIPTION (( 'STEP AP203' ),
    '1' );
FILE_NAME ('581138015.STEP',
    '2017-07-28T19:05:26',
    ( '' ),
    ( '' ),
    'SwSTEP 2.0',
    'SolidWorks 2017',
    '' );
FILE_SCHEMA (( 'CONFIG_CONTROL_DESIGN' ));
ENDSEC;

DATA;
#1 = DIRECTION ( 'NONE',  ( 0.0000000000000000000, -1.000000000000000000, 0.0000000000000000000 ) ) ;
#2 = AXIS2_PLACEMENT_3D ( 'NONE', #183, #12, #207 ) ;
#3 = VERTEX_POINT ( 'NONE', #102 ) ;
#4 = APPROVAL_PERSON_ORGANIZATION ( #113, #138, #197 ) ;
#5 = DATE_AND_TIME ( #62, #106 ) ;
#6 = CARTESIAN_POINT ( 'NONE',  ( -1.968503937007874500, -5.463695987328526400E-016, 0.0000000000000000000 ) ) ;
#7 = CIRCLE ( 'NONE', #25, 1.625000000000000000 ) ;
#8 = DIRECTION ( 'NONE',  ( -1.681137226870315800E-016, 1.000000000000000000, 0.0000000000000000000 ) ) ;
#9 = ORIENTED_EDGE ( 'NONE', *, *, #200, .F. ) ;
#10 = PERSON_AND_ORGANIZATION ( #81, #126 ) ;
#11 = ORIENTED_EDGE ( 'NONE', *, *, #88, .F. ) ;
#12 = DIRECTION ( 'NONE',  ( 1.000000000000000000, 1.421085471520199900E-016, -6.734421685528719600E-048 ) ) ;
#13 = EDGE_CURVE ( 'NONE', #101, #101, #152, .T. ) ;
#14 = CARTESIAN_POINT ( 'NONE',  ( -1.968503937007874700, 1.624999999999999600, 0.0000000000000000000 ) ) ;
#15 = EDGE_LOOP ( 'NONE', ( #220 ) ) ;
#16 = CIRCLE ( 'NONE', #45, 0.9842519685039372600 ) ;
#17 = EDGE_LOOP ( 'NONE', ( #140 ) ) ;
#18 = CARTESIAN_POINT ( 'NONE',  ( 0.0000000000000000000, 0.0000000000000000000, 0.0000000000000000000 ) ) ;
#19 = CYLINDRICAL_SURFACE ( 'NONE', #151, 1.625000000000000000 ) ;
#20 = APPLICATION_PROTOCOL_DEFINITION ( 'international standard', 'config_control_design', 1994, #35 ) ;
#21 = VERTEX_POINT ( 'NONE', #52 ) ;
#22 = LOCAL_TIME ( 15, 5, 26.00000000000000000, #78 ) ;
#23 = APPLICATION_PROTOCOL_DEFINITION ( 'international standard', 'config_control_design', 1994, #229 ) ;
#24 = DIRECTION ( 'NONE',  ( 1.000000000000000000, 1.421085471520199900E-016, 0.0000000000000000000 ) ) ;
#25 = AXIS2_PLACEMENT_3D ( 'NONE', #171, #172, #155 ) ;
#26 = APPROVAL_STATUS ( 'not_yet_approved' ) ;
#27 = FACE_OUTER_BOUND ( 'NONE', #232, .T. ) ;
#28 =( GEOMETRIC_REPRESENTATION_CONTEXT ( 3 ) GLOBAL_UNCERTAINTY_ASSIGNED_CONTEXT ( ( #176 ) ) GLOBAL_UNIT_ASSIGNED_CONTEXT ( ( #79, #83, #89 ) ) REPRESENTATION_CONTEXT ( 'NONE', 'WORKASPACE' ) );
#29 = APPROVAL_ROLE ( '' ) ;
#30 = PRODUCT_RELATED_PRODUCT_CATEGORY ( 'detail', '', ( #127 ) ) ;
#31 = EDGE_LOOP ( 'NONE', ( #68 ) ) ;
#32 = CALENDAR_DATE ( 2017, 28, 7 ) ;
#33 = DIRECTION ( 'NONE',  ( -1.000000000000000000, -1.421085471520199900E-016, -0.0000000000000000000 ) ) ;
#34 = DIRECTION ( 'NONE',  ( -1.000000000000000000, -8.524584255963739700E-048, -3.480540595496609900E-032 ) ) ;
#35 = APPLICATION_CONTEXT ( 'configuration controlled 3d designs of mechanical parts and assemblies' ) ;
#36 = ORIENTED_EDGE ( 'NONE', *, *, #119, .T. ) ;
#37 = CARTESIAN_POINT ( 'NONE',  ( -1.496062992125984000, 0.0000000000000000000, 0.0000000000000000000 ) ) ;
#38 = CARTESIAN_POINT ( 'NONE',  ( -1.732283464566929200, 0.0000000000000000000, 0.0000000000000000000 ) ) ;
#39 = PRODUCT_DEFINITION_SHAPE ( 'NONE', 'NONE',  #145 ) ;
#40 = ADVANCED_FACE ( 'NONE', ( #96, #50 ), #74, .T. ) ;
#41 = ORIENTED_EDGE ( 'NONE', *, *, #119, .F. ) ;
#42 = PERSON_AND_ORGANIZATION_ROLE ( 'creator' ) ;
#43 = COORDINATED_UNIVERSAL_TIME_OFFSET ( 5, 0, .BEHIND. ) ;
#44 = VERTEX_POINT ( 'NONE', #14 ) ;
#45 = AXIS2_PLACEMENT_3D ( 'NONE', #115, #203, #65 ) ;
#46 = EDGE_LOOP ( 'NONE', ( #9 ) ) ;
#47 = CARTESIAN_POINT ( 'NONE',  ( -1.496062992125984000, -1.200787401574802800, 0.0000000000000000000 ) ) ;
#48 = CARTESIAN_POINT ( 'NONE',  ( -1.496062992125984700, 1.625000000000000000, 0.0000000000000000000 ) ) ;
#49 = VERTEX_POINT ( 'NONE', #59 ) ;
#50 = FACE_OUTER_BOUND ( 'NONE', #177, .T. ) ;
#51 = DIRECTION ( 'NONE',  ( -1.000000000000000000, -1.137523590804464100E-016, 2.587919839273363600E-032 ) ) ;
#52 = CARTESIAN_POINT ( 'NONE',  ( -1.141344236968979400E-016, 0.8031496062992125000, 0.0000000000000000000 ) ) ;
#53 = APPROVAL_DATE_TIME ( #5, #138 ) ;
#54 = DIRECTION ( 'NONE',  ( -1.000000000000000000, -1.137523590804464100E-016, 2.587919839273363600E-032 ) ) ;
#55 = AXIS2_PLACEMENT_3D ( 'NONE', #141, #24, #103 ) ;
#56 = ADVANCED_FACE ( 'NONE', ( #60, #191 ), #87, .T. ) ;
#57 = ADVANCED_FACE ( 'NONE', ( #196, #121 ), #19, .T. ) ;
#58 = DATE_AND_TIME ( #159, #195 ) ;
#59 = CARTESIAN_POINT ( 'NONE',  ( -0.7874015748031496500, 0.9842519685039372600, -2.410642428784203200E-016 ) ) ;
#60 = FACE_OUTER_BOUND ( 'NONE', #180, .T. ) ;
#61 = COORDINATED_UNIVERSAL_TIME_OFFSET ( 5, 0, .BEHIND. ) ;
#62 = CALENDAR_DATE ( 2017, 28, 7 ) ;
#63 = DIRECTION ( 'NONE',  ( 0.0000000000000000000, 0.0000000000000000000, 1.000000000000000000 ) ) ;
#64 = DIRECTION ( 'NONE',  ( -1.681137226870315800E-016, 1.000000000000000000, 0.0000000000000000000 ) ) ;
#65 = DIRECTION ( 'NONE',  ( 1.387778780781445400E-016, 1.000000000000000000, -2.449212707644749600E-016 ) ) ;
#66 = CIRCLE ( 'NONE', #95, 1.625000000000000000 ) ;
#67 = AXIS2_PLACEMENT_3D ( 'NONE', #222, #225, #230 ) ;
#68 = ORIENTED_EDGE ( 'NONE', *, *, #200, .T. ) ;
#69 = CARTESIAN_POINT ( 'NONE',  ( -1.496062992125984300, 1.412893700787401600, -2.731847993664263200E-016 ) ) ;
#70 = APPROVAL_ROLE ( '' ) ;
#71 = AXIS2_PLACEMENT_3D ( 'NONE', #116, #105, #108 ) ;
#72 = VERTEX_POINT ( 'NONE', #47 ) ;
#73 =( LENGTH_UNIT ( ) NAMED_UNIT ( * ) SI_UNIT ( $, .METRE. ) );
#74 = PLANE ( 'NONE',  #104 ) ;
#75 = CALENDAR_DATE ( 2017, 28, 7 ) ;
#76 = CALENDAR_DATE ( 2017, 28, 7 ) ;
#77 = EDGE_CURVE ( 'NONE', #3, #3, #201, .T. ) ;
#78 = COORDINATED_UNIVERSAL_TIME_OFFSET ( 5, 0, .BEHIND. ) ;
#79 =( CONVERSION_BASED_UNIT ( 'INCH', #144 ) LENGTH_UNIT ( ) NAMED_UNIT ( #85 ) );
#80 = EDGE_LOOP ( 'NONE', ( #139 ) ) ;
#81 = PERSON ( 'UNSPECIFIED', 'UNSPECIFIED', 'UNSPECIFIED', ('UNSPECIFIED'), ('UNSPECIFIED'), ('UNSPECIFIED') ) ;
#82 = DIRECTION ( 'NONE',  ( 1.000000000000000000, 1.421085471520199900E-016, 0.0000000000000000000 ) ) ;
#83 =( NAMED_UNIT ( * ) PLANE_ANGLE_UNIT ( ) SI_UNIT ( $, .RADIAN. ) );
#84 = APPROVAL_STATUS ( 'not_yet_approved' ) ;
#85 = DIMENSIONAL_EXPONENTS ( 1.000000000000000000, 0.0000000000000000000, 0.0000000000000000000, 0.0000000000000000000, 0.0000000000000000000, 0.0000000000000000000, 0.0000000000000000000 ) ;
#86 = ORIENTED_EDGE ( 'NONE', *, *, #224, .F. ) ;
#87 = PLANE ( 'NONE',  #161 ) ;
#88 = EDGE_CURVE ( 'NONE', #44, #44, #66, .T. ) ;
#89 =( NAMED_UNIT ( * ) SI_UNIT ( $, .STERADIAN. ) SOLID_ANGLE_UNIT ( ) );
#90 = EDGE_LOOP ( 'NONE', ( #142 ) ) ;
#91 = CC_DESIGN_PERSON_AND_ORGANIZATION_ASSIGNMENT ( #136, #100, ( #127 ) ) ;
#92 = CC_DESIGN_DATE_AND_TIME_ASSIGNMENT ( #198, #94, ( #145 ) ) ;
#93 = EDGE_LOOP ( 'NONE', ( #131 ) ) ;
#94 = DATE_TIME_ROLE ( 'creation_date' ) ;
#95 = AXIS2_PLACEMENT_3D ( 'NONE', #6, #33, #8 ) ;
#96 = FACE_BOUND ( 'NONE', #228, .T. ) ;
#97 = VERTEX_POINT ( 'NONE', #48 ) ;
#98 = MANIFOLD_SOLID_BREP ( '1', #189 ) ;
#99 = AXIS2_PLACEMENT_3D ( 'NONE', #186, #231, #124 ) ;
#100 = PERSON_AND_ORGANIZATION_ROLE ( 'design_owner' ) ;
#101 = VERTEX_POINT ( 'NONE', #150 ) ;
#102 = CARTESIAN_POINT ( 'NONE',  ( 1.333141820908160800E-016, 0.9842519685039370400, 0.0000000000000000000 ) ) ;
#103 = DIRECTION ( 'NONE',  ( -1.387778780781445700E-016, 1.000000000000000000, 0.0000000000000000000 ) ) ;
#104 = AXIS2_PLACEMENT_3D ( 'NONE', #69, #227, #199 ) ;
#105 = DIRECTION ( 'NONE',  ( -1.000000000000000000, -1.421085471520199900E-016, 6.734421685528719600E-048 ) ) ;
#106 = LOCAL_TIME ( 15, 5, 26.00000000000000000, #43 ) ;
#107 = CYLINDRICAL_SURFACE ( 'NONE', #2, 0.8031496062992125000 ) ;
#108 = DIRECTION ( 'NONE',  ( -1.421085471520199900E-016, 1.000000000000000000, 0.0000000000000000000 ) ) ;
#109 = CYLINDRICAL_SURFACE ( 'NONE', #55, 0.9842519685039370400 ) ;
#110 = PRODUCT_DEFINITION_FORMATION_WITH_SPECIFIED_SOURCE ( 'ANY', '', #127, .NOT_KNOWN. ) ;
#111 = SECURITY_CLASSIFICATION ( '', '', #206 ) ;
#112 = DIRECTION ( 'NONE',  ( 1.000000000000000000, 8.524584255963739700E-048, 3.480540595496609900E-032 ) ) ;
#113 = PERSON_AND_ORGANIZATION ( #81, #126 ) ;
#114 = COORDINATED_UNIVERSAL_TIME_OFFSET ( 5, 0, .BEHIND. ) ;
#115 = CARTESIAN_POINT ( 'NONE',  ( -0.7874015748031497600, 0.0000000000000000000, 0.0000000000000000000 ) ) ;
#116 = CARTESIAN_POINT ( 'NONE',  ( 0.0000000000000000000, 0.0000000000000000000, 0.0000000000000000000 ) ) ;
#117 = PERSON_AND_ORGANIZATION ( #81, #126 ) ;
#118 = APPROVAL_DATE_TIME ( #129, #158 ) ;
#119 = EDGE_CURVE ( 'NONE', #72, #72, #162, .T. ) ;
#120 = ADVANCED_FACE ( 'NONE', ( #209, #173 ), #107, .F. ) ;
#121 = FACE_OUTER_BOUND ( 'NONE', #90, .T. ) ;
#122 = CC_DESIGN_PERSON_AND_ORGANIZATION_ASSIGNMENT ( #175, #134, ( #145 ) ) ;
#123 = CC_DESIGN_APPROVAL ( #158, ( #110 ) ) ;
#124 = DIRECTION ( 'NONE',  ( 0.0000000000000000000, 1.000000000000000000, 0.0000000000000000000 ) ) ;
#125 = LOCAL_TIME ( 15, 5, 26.00000000000000000, #204 ) ;
#126 = ORGANIZATION ( 'UNSPECIFIED', 'UNSPECIFIED', '' ) ;
#127 = PRODUCT ( '581138015', '581138015', '', ( #182 ) ) ;
#128 = DIRECTION ( 'NONE',  ( 3.480540595496609900E-032, 0.0000000000000000000, -1.000000000000000000 ) ) ;
#129 = DATE_AND_TIME ( #75, #125 ) ;
#130 = DIRECTION ( 'NONE',  ( -3.480540595496609900E-032, 0.0000000000000000000, 1.000000000000000000 ) ) ;
#131 = ORIENTED_EDGE ( 'NONE', *, *, #77, .F. ) ;
#132 = APPROVAL_DATE_TIME ( #217, #179 ) ;
#133 = CARTESIAN_POINT ( 'NONE',  ( -1.968503937007874100, 1.214074803149606500, -2.731847993664263200E-016 ) ) ;
#134 = PERSON_AND_ORGANIZATION_ROLE ( 'creator' ) ;
#135 = AXIS2_PLACEMENT_3D ( 'NONE', #37, #51, #1 ) ;
#136 = PERSON_AND_ORGANIZATION ( #81, #126 ) ;
#137 = CC_DESIGN_APPROVAL ( #179, ( #145 ) ) ;
#138 = APPROVAL ( #214, 'UNSPECIFIED' ) ;
#139 = ORIENTED_EDGE ( 'NONE', *, *, #13, .T. ) ;
#140 = ORIENTED_EDGE ( 'NONE', *, *, #77, .T. ) ;
#141 = CARTESIAN_POINT ( 'NONE',  ( -0.3937007874015744400, 0.0000000000000000000, 0.0000000000000000000 ) ) ;
#142 = ORIENTED_EDGE ( 'NONE', *, *, #181, .T. ) ;
#143 = EDGE_LOOP ( 'NONE', ( #11 ) ) ;
#144 = LENGTH_MEASURE_WITH_UNIT ( LENGTH_MEASURE( 0.02539999999999999900 ), #73 );
#145 = PRODUCT_DEFINITION ( 'UNKNOWN', '', #110, #148 ) ;
#146 = EDGE_LOOP ( 'NONE', ( #41 ) ) ;
#147 = AXIS2_PLACEMENT_3D ( 'NONE', #167, #112, #128 ) ;
#148 = DESIGN_CONTEXT ( 'detailed design', #35, 'design' ) ;
#149 = SHAPE_DEFINITION_REPRESENTATION ( #39, #221 ) ;
#150 = CARTESIAN_POINT ( 'NONE',  ( -1.968503937007874100, 0.8031496062992119500, 0.0000000000000000000 ) ) ;
#151 = AXIS2_PLACEMENT_3D ( 'NONE', #38, #82, #64 ) ;
#152 = CIRCLE ( 'NONE', #99, 0.8031496062992125000 ) ;
#153 = ADVANCED_FACE ( 'NONE', ( #165, #185 ), #187, .T. ) ;
#154 = ORIENTED_EDGE ( 'NONE', *, *, #181, .F. ) ;
#155 = DIRECTION ( 'NONE',  ( -1.681137226870315800E-016, 1.000000000000000000, 0.0000000000000000000 ) ) ;
#156 = FACE_OUTER_BOUND ( 'NONE', #93, .T. ) ;
#157 = DIRECTION ( 'NONE',  ( 0.0000000000000000000, -1.000000000000000000, 0.0000000000000000000 ) ) ;
#158 = APPROVAL ( #84, 'UNSPECIFIED' ) ;
#159 = CALENDAR_DATE ( 2017, 28, 7 ) ;
#160 = CARTESIAN_POINT ( 'NONE',  ( -1.496062992125984000, 0.0000000000000000000, 0.0000000000000000000 ) ) ;
#161 = AXIS2_PLACEMENT_3D ( 'NONE', #133, #34, #130 ) ;
#162 = CIRCLE ( 'NONE', #135, 1.200787401574802800 ) ;
#163 = PERSON_AND_ORGANIZATION ( #81, #126 ) ;
#164 = PLANE ( 'NONE',  #147 ) ;
#165 = FACE_OUTER_BOUND ( 'NONE', #146, .T. ) ;
#166 = CC_DESIGN_PERSON_AND_ORGANIZATION_ASSIGNMENT ( #163, #223, ( #110 ) ) ;
#167 = CARTESIAN_POINT ( 'NONE',  ( 0.0000000000000000000, 0.8937007874015747700, -2.731847993664263200E-016 ) ) ;
#168 = AXIS2_PLACEMENT_3D ( 'NONE', #18, #63, #216 ) ;
#169 = APPROVAL_PERSON_ORGANIZATION ( #212, #158, #70 ) ;
#170 = PERSON_AND_ORGANIZATION ( #81, #126 ) ;
#171 = CARTESIAN_POINT ( 'NONE',  ( -1.496062992125984500, 0.0000000000000000000, 0.0000000000000000000 ) ) ;
#172 = DIRECTION ( 'NONE',  ( -1.000000000000000000, -1.421085471520199900E-016, -0.0000000000000000000 ) ) ;
#173 = FACE_OUTER_BOUND ( 'NONE', #15, .T. ) ;
#174 = ORIENTED_EDGE ( 'NONE', *, *, #88, .T. ) ;
#175 = PERSON_AND_ORGANIZATION ( #81, #126 ) ;
#176 = UNCERTAINTY_MEASURE_WITH_UNIT (LENGTH_MEASURE( 1.000000000000000100E-005 ), #79, 'distance_accuracy_value', 'NONE');
#177 = EDGE_LOOP ( 'NONE', ( #154 ) ) ;
#178 = CC_DESIGN_PERSON_AND_ORGANIZATION_ASSIGNMENT ( #117, #42, ( #110 ) ) ;
#179 = APPROVAL ( #26, 'UNSPECIFIED' ) ;
#180 = EDGE_LOOP ( 'NONE', ( #174 ) ) ;
#181 = EDGE_CURVE ( 'NONE', #97, #97, #7, .T. ) ;
#182 = MECHANICAL_CONTEXT ( 'NONE', #229, 'mechanical' ) ;
#183 = CARTESIAN_POINT ( 'NONE',  ( -0.9842519685039370400, 0.0000000000000000000, 0.0000000000000000000 ) ) ;
#184 = ORIENTED_EDGE ( 'NONE', *, *, #224, .T. ) ;
#185 = FACE_BOUND ( 'NONE', #211, .T. ) ;
#186 = CARTESIAN_POINT ( 'NONE',  ( -1.968503937007874100, -5.463695987328526400E-016, 0.0000000000000000000 ) ) ;
#187 = CONICAL_SURFACE ( 'NONE', #226, 1.200787401574802800, 0.2965458090696997400 ) ;
#188 = CC_DESIGN_PERSON_AND_ORGANIZATION_ASSIGNMENT ( #10, #218, ( #111 ) ) ;
#189 = CLOSED_SHELL ( 'NONE', ( #56, #57, #120, #40, #208, #153, #210 ) ) ;
#190 = FACE_BOUND ( 'NONE', #31, .T. ) ;
#191 = FACE_BOUND ( 'NONE', #80, .T. ) ;
#192 = FACE_OUTER_BOUND ( 'NONE', #17, .T. ) ;
#193 = CIRCLE ( 'NONE', #71, 0.8031496062992125000 ) ;
#194 = CC_DESIGN_DATE_AND_TIME_ASSIGNMENT ( #58, #215, ( #111 ) ) ;
#195 = LOCAL_TIME ( 15, 5, 26.00000000000000000, #61 ) ;
#196 = FACE_OUTER_BOUND ( 'NONE', #143, .T. ) ;
#197 = APPROVAL_ROLE ( '' ) ;
#198 = DATE_AND_TIME ( #32, #213 ) ;
#199 = DIRECTION ( 'NONE',  ( 3.480540595496609900E-032, 0.0000000000000000000, -1.000000000000000000 ) ) ;
#200 = EDGE_CURVE ( 'NONE', #21, #21, #193, .T. ) ;
#201 = CIRCLE ( 'NONE', #67, 0.9842519685039370400 ) ;
#202 = CC_DESIGN_APPROVAL ( #138, ( #111 ) ) ;
#203 = DIRECTION ( 'NONE',  ( -1.000000000000000000, -1.421085471520199900E-016, 0.0000000000000000000 ) ) ;
#204 = COORDINATED_UNIVERSAL_TIME_OFFSET ( 5, 0, .BEHIND. ) ;
#205 = APPROVAL_PERSON_ORGANIZATION ( #170, #179, #29 ) ;
#206 = SECURITY_CLASSIFICATION_LEVEL ( 'unclassified' ) ;
#207 = DIRECTION ( 'NONE',  ( -1.700709290173340700E-016, 1.000000000000000000, 0.0000000000000000000 ) ) ;
#208 = ADVANCED_FACE ( 'NONE', ( #190, #192 ), #164, .T. ) ;
#209 = FACE_OUTER_BOUND ( 'NONE', #46, .T. ) ;
#210 = ADVANCED_FACE ( 'NONE', ( #27, #156 ), #109, .T. ) ;
#211 = EDGE_LOOP ( 'NONE', ( #184 ) ) ;
#212 = PERSON_AND_ORGANIZATION ( #81, #126 ) ;
#213 = LOCAL_TIME ( 15, 5, 26.00000000000000000, #114 ) ;
#214 = APPROVAL_STATUS ( 'not_yet_approved' ) ;
#215 = DATE_TIME_ROLE ( 'classification_date' ) ;
#216 = DIRECTION ( 'NONE',  ( 1.000000000000000000, 0.0000000000000000000, 0.0000000000000000000 ) ) ;
#217 = DATE_AND_TIME ( #76, #22 ) ;
#218 = PERSON_AND_ORGANIZATION_ROLE ( 'classification_officer' ) ;
#219 = CC_DESIGN_SECURITY_CLASSIFICATION ( #111, ( #110 ) ) ;
#220 = ORIENTED_EDGE ( 'NONE', *, *, #13, .F. ) ;
#221 = ADVANCED_BREP_SHAPE_REPRESENTATION ( '581138015', ( #98, #168 ), #28 ) ;
#222 = CARTESIAN_POINT ( 'NONE',  ( 2.731847993664263200E-016, 0.0000000000000000000, 0.0000000000000000000 ) ) ;
#223 = PERSON_AND_ORGANIZATION_ROLE ( 'design_supplier' ) ;
#224 = EDGE_CURVE ( 'NONE', #49, #49, #16, .T. ) ;
#225 = DIRECTION ( 'NONE',  ( 1.000000000000000000, 1.421085471520199900E-016, 0.0000000000000000000 ) ) ;
#226 = AXIS2_PLACEMENT_3D ( 'NONE', #160, #54, #157 ) ;
#227 = DIRECTION ( 'NONE',  ( 1.000000000000000000, 8.524584255963739700E-048, 3.480540595496609900E-032 ) ) ;
#228 = EDGE_LOOP ( 'NONE', ( #36 ) ) ;
#229 = APPLICATION_CONTEXT ( 'configuration controlled 3d designs of mechanical parts and assemblies' ) ;
#230 = DIRECTION ( 'NONE',  ( -1.421085471520200200E-016, 1.000000000000000000, 0.0000000000000000000 ) ) ;
#231 = DIRECTION ( 'NONE',  ( 1.000000000000000000, 1.421085471520199900E-016, -6.734421685528719600E-048 ) ) ;
#232 = EDGE_LOOP ( 'NONE', ( #86 ) ) ;
ENDSEC;
END-ISO-10303-21;
