ISO-10303-21;
HEADER;
FILE_DESCRIPTION (( 'STEP AP203' ),
    '1' );
FILE_NAME ('581138020.STEP',
    '2017-07-28T19:07:27',
    ( '' ),
    ( '' ),
    'SwSTEP 2.0',
    'SolidWorks 2017',
    '' );
FILE_SCHEMA (( 'CONFIG_CONTROL_DESIGN' ));
ENDSEC;

DATA;
#1 = FACE_OUTER_BOUND ( 'NONE', #205, .T. ) ;
#2 = ORIENTED_EDGE ( 'NONE', *, *, #52, .T. ) ;
#3 = SHAPE_DEFINITION_REPRESENTATION ( #37, #58 ) ;
#4 = AXIS2_PLACEMENT_3D ( 'NONE', #79, #64, #27 ) ;
#5 = PERSON_AND_ORGANIZATION_ROLE ( 'design_supplier' ) ;
#6 = ADVANCED_FACE ( 'NONE', ( #171, #69 ), #115, .T. ) ;
#7 = DATE_AND_TIME ( #131, #163 ) ;
#8 = LENGTH_MEASURE_WITH_UNIT ( LENGTH_MEASURE( 0.02539999999999999900 ), #189 );
#9 = PERSON_AND_ORGANIZATION_ROLE ( 'creator' ) ;
#10 = EDGE_CURVE ( 'NONE', #136, #136, #91, .T. ) ;
#11 = APPROVAL_DATE_TIME ( #7, #68 ) ;
#12 = CARTESIAN_POINT ( 'NONE',  ( -0.7086614173228327200, 1.240157480314957800, 1.548957812407637800E-016 ) ) ;
#13 = CARTESIAN_POINT ( 'NONE',  ( 0.0000000000000000000, 0.0000000000000000000, 0.0000000000000000000 ) ) ;
#14 = AXIS2_PLACEMENT_3D ( 'NONE', #148, #29, #130 ) ;
#15 = DIRECTION ( 'NONE',  ( 1.000000000000000000, -1.665334536937735300E-016, 2.775557561562891800E-016 ) ) ;
#16 = DIRECTION ( 'NONE',  ( -1.000000000000000000, 1.665334536937737000E-016, 3.469446951953606800E-016 ) ) ;
#17 = EDGE_LOOP ( 'NONE', ( #97 ) ) ;
#18 = DATE_AND_TIME ( #181, #175 ) ;
#19 = CALENDAR_DATE ( 2017, 28, 7 ) ;
#20 = CC_DESIGN_PERSON_AND_ORGANIZATION_ASSIGNMENT ( #166, #194, ( #213 ) ) ;
#21 = ORIENTED_EDGE ( 'NONE', *, *, #149, .F. ) ;
#22 = DIRECTION ( 'NONE',  ( 1.000000000000000000, -1.665334536937735300E-016, 2.775557561562891800E-016 ) ) ;
#23 = PERSON_AND_ORGANIZATION ( #221, #43 ) ;
#24 = ORIENTED_EDGE ( 'NONE', *, *, #146, .F. ) ;
#25 = APPLICATION_PROTOCOL_DEFINITION ( 'international standard', 'config_control_design', 1994, #188 ) ;
#26 = SECURITY_CLASSIFICATION_LEVEL ( 'unclassified' ) ;
#27 = DIRECTION ( 'NONE',  ( -4.146749344964471000E-016, -2.914335439641029500E-016, -1.000000000000000000 ) ) ;
#28 = DIRECTION ( 'NONE',  ( -3.304235192336769100E-016, -2.914335439641030000E-016, -1.000000000000000000 ) ) ;
#29 = DIRECTION ( 'NONE',  ( -1.000000000000000000, 1.665334536937735300E-016, -2.775557561562891800E-016 ) ) ;
#30 = ADVANCED_FACE ( 'NONE', ( #141, #211 ), #109, .T. ) ;
#31 = COORDINATED_UNIVERSAL_TIME_OFFSET ( 5, 0, .BEHIND. ) ;
#32 = AXIS2_PLACEMENT_3D ( 'NONE', #94, #71, #89 ) ;
#33 = CC_DESIGN_SECURITY_CLASSIFICATION ( #217, ( #213 ) ) ;
#34 = APPROVAL_STATUS ( 'not_yet_approved' ) ;
#35 = FACE_OUTER_BOUND ( 'NONE', #196, .T. ) ;
#36 = AXIS2_PLACEMENT_3D ( 'NONE', #214, #230, #103 ) ;
#37 = PRODUCT_DEFINITION_SHAPE ( 'NONE', 'NONE',  #231 ) ;
#38 = PRODUCT ( '581138020', '581138020', '', ( #125 ) ) ;
#39 = EDGE_LOOP ( 'NONE', ( #157 ) ) ;
#40 =( NAMED_UNIT ( * ) SI_UNIT ( $, .STERADIAN. ) SOLID_ANGLE_UNIT ( ) );
#41 = DIRECTION ( 'NONE',  ( 3.304235192336772100E-016, 1.000000000000000000, 1.249000902703300100E-016 ) ) ;
#42 = DIRECTION ( 'NONE',  ( 1.000000000000000000, -1.665334536937735300E-016, 2.775557561562891800E-016 ) ) ;
#43 = ORGANIZATION ( 'UNSPECIFIED', 'UNSPECIFIED', '' ) ;
#44 = CIRCLE ( 'NONE', #219, 1.240157480314962000 ) ;
#45 = DIRECTION ( 'NONE',  ( -1.000000000000000000, 1.665334536937735300E-016, -2.775557561562891800E-016 ) ) ;
#46 = CC_DESIGN_PERSON_AND_ORGANIZATION_ASSIGNMENT ( #187, #107, ( #217 ) ) ;
#47 = DIRECTION ( 'NONE',  ( -3.469446951953607300E-016, -2.914335439641030000E-016, -1.000000000000000000 ) ) ;
#48 = AXIS2_PLACEMENT_3D ( 'NONE', #193, #142, #210 ) ;
#49 = CC_DESIGN_DATE_AND_TIME_ASSIGNMENT ( #202, #53, ( #217 ) ) ;
#50 = COORDINATED_UNIVERSAL_TIME_OFFSET ( 5, 0, .BEHIND. ) ;
#51 = FACE_OUTER_BOUND ( 'NONE', #76, .T. ) ;
#52 = EDGE_CURVE ( 'NONE', #144, #144, #183, .T. ) ;
#53 = DATE_TIME_ROLE ( 'classification_date' ) ;
#54 = DATE_TIME_ROLE ( 'creation_date' ) ;
#55 = AXIS2_PLACEMENT_3D ( 'NONE', #100, #82, #28 ) ;
#56 = EDGE_CURVE ( 'NONE', #155, #155, #85, .T. ) ;
#57 = APPROVAL_ROLE ( '' ) ;
#58 = ADVANCED_BREP_SHAPE_REPRESENTATION ( '581138020', ( #74, #61 ), #133 ) ;
#59 = DATE_AND_TIME ( #124, #86 ) ;
#60 = DESIGN_CONTEXT ( 'detailed design', #225, 'design' ) ;
#61 = AXIS2_PLACEMENT_3D ( 'NONE', #13, #95, #78 ) ;
#62 = PERSON_AND_ORGANIZATION ( #221, #43 ) ;
#63 =( CONVERSION_BASED_UNIT ( 'INCH', #8 ) LENGTH_UNIT ( ) NAMED_UNIT ( #212 ) );
#64 = DIRECTION ( 'NONE',  ( -1.000000000000000000, 1.665334536937735300E-016, -2.775557561562891800E-016 ) ) ;
#65 = UNCERTAINTY_MEASURE_WITH_UNIT (LENGTH_MEASURE( 1.000000000000000100E-005 ), #63, 'distance_accuracy_value', 'NONE');
#66 = CARTESIAN_POINT ( 'NONE',  ( 0.0000000000000000000, 0.0000000000000000000, 0.0000000000000000000 ) ) ;
#67 = CARTESIAN_POINT ( 'NONE',  ( -1.968503937007871400, 1.494094488188971500, -1.748382715945128500E-014 ) ) ;
#68 = APPROVAL ( #121, 'UNSPECIFIED' ) ;
#69 = FACE_OUTER_BOUND ( 'NONE', #39, .T. ) ;
#70 = CARTESIAN_POINT ( 'NONE',  ( -0.7086614173228331600, -4.370956789862821100E-015, 0.0000000000000000000 ) ) ;
#71 = DIRECTION ( 'NONE',  ( 1.000000000000000000, -1.665334536937737000E-016, -3.469446951953606800E-016 ) ) ;
#72 = ORIENTED_EDGE ( 'NONE', *, *, #149, .T. ) ;
#73 = ORIENTED_EDGE ( 'NONE', *, *, #176, .F. ) ;
#74 = MANIFOLD_SOLID_BREP ( '1', #104 ) ;
#75 = ORIENTED_EDGE ( 'NONE', *, *, #10, .F. ) ;
#76 = EDGE_LOOP ( 'NONE', ( #24 ) ) ;
#77 = AXIS2_PLACEMENT_3D ( 'NONE', #81, #99, #195 ) ;
#78 = DIRECTION ( 'NONE',  ( 1.000000000000000000, 0.0000000000000000000, 0.0000000000000000000 ) ) ;
#79 = CARTESIAN_POINT ( 'NONE',  ( -1.417322834645664100, -4.370956789862821100E-015, 0.0000000000000000000 ) ) ;
#80 = FACE_OUTER_BOUND ( 'NONE', #164, .T. ) ;
#81 = CARTESIAN_POINT ( 'NONE',  ( -1.417322834645664100, -4.370956789862821100E-015, 0.0000000000000000000 ) ) ;
#82 = DIRECTION ( 'NONE',  ( 1.000000000000000000, -1.665334536937735300E-016, 2.775557561562891800E-016 ) ) ;
#83 = PERSON_AND_ORGANIZATION ( #221, #43 ) ;
#84 = PERSON_AND_ORGANIZATION ( #221, #43 ) ;
#85 = CIRCLE ( 'NONE', #180, 1.240157480314963100 ) ;
#86 = LOCAL_TIME ( 15, 7, 27.00000000000000000, #31 ) ;
#87 = CC_DESIGN_APPROVAL ( #68, ( #231 ) ) ;
#88 = FACE_OUTER_BOUND ( 'NONE', #17, .T. ) ;
#89 = DIRECTION ( 'NONE',  ( -3.469446951953607300E-016, -2.914335439641030000E-016, -1.000000000000000000 ) ) ;
#90 = ADVANCED_FACE ( 'NONE', ( #228, #88 ), #150, .T. ) ;
#91 = CIRCLE ( 'NONE', #14, 1.976377952755909600 ) ;
#92 = ORIENTED_EDGE ( 'NONE', *, *, #52, .F. ) ;
#93 = APPLICATION_PROTOCOL_DEFINITION ( 'international standard', 'config_control_design', 1994, #225 ) ;
#94 = CARTESIAN_POINT ( 'NONE',  ( -1.417322834645666300, 1.726377952755918700, -3.496765431890256900E-014 ) ) ;
#95 = DIRECTION ( 'NONE',  ( 0.0000000000000000000, 0.0000000000000000000, 1.000000000000000000 ) ) ;
#96 = EDGE_LOOP ( 'NONE', ( #21 ) ) ;
#97 = ORIENTED_EDGE ( 'NONE', *, *, #56, .F. ) ;
#98 = CARTESIAN_POINT ( 'NONE',  ( -1.968503937007870100, -5.759828309841732300E-016, -1.976377952755909600 ) ) ;
#99 = DIRECTION ( 'NONE',  ( -1.000000000000000000, 1.665334536937735300E-016, -2.775557561562891800E-016 ) ) ;
#100 = CARTESIAN_POINT ( 'NONE',  ( -0.3543307086614165800, 0.0000000000000000000, 0.0000000000000000000 ) ) ;
#101 = VERTEX_POINT ( 'NONE', #126 ) ;
#102 = CONICAL_SURFACE ( 'NONE', #223, 1.476377952755908900, 0.3217505543966420700 ) ;
#103 = DIRECTION ( 'NONE',  ( -3.469446951953607300E-016, -2.914335439641030000E-016, -1.000000000000000000 ) ) ;
#104 = CLOSED_SHELL ( 'NONE', ( #30, #165, #120, #153, #6, #169, #90 ) ) ;
#105 = CC_DESIGN_APPROVAL ( #127, ( #217 ) ) ;
#106 = CIRCLE ( 'NONE', #4, 1.976377952755909600 ) ;
#107 = PERSON_AND_ORGANIZATION_ROLE ( 'classification_officer' ) ;
#108 = APPROVAL_ROLE ( '' ) ;
#109 = PLANE ( 'NONE',  #177 ) ;
#110 = CARTESIAN_POINT ( 'NONE',  ( -1.417322834645663400, -3.940690730860699700E-015, 1.476377952755908900 ) ) ;
#111 = DATE_AND_TIME ( #138, #232 ) ;
#112 = DIRECTION ( 'NONE',  ( -3.469446951953607300E-016, -2.914335439641030000E-016, -1.000000000000000000 ) ) ;
#113 = CIRCLE ( 'NONE', #134, 1.011811023622049400 ) ;
#114 = DIRECTION ( 'NONE',  ( 3.469446951953607300E-016, 2.914335439641030000E-016, 1.000000000000000000 ) ) ;
#115 = PLANE ( 'NONE',  #36 ) ;
#116 = VERTEX_POINT ( 'NONE', #110 ) ;
#117 = DIRECTION ( 'NONE',  ( 3.700743415417180300E-016, 2.914335439641028000E-016, 1.000000000000000000 ) ) ;
#118 = APPROVAL_STATUS ( 'not_yet_approved' ) ;
#119 = FACE_OUTER_BOUND ( 'NONE', #174, .T. ) ;
#120 = ADVANCED_FACE ( 'NONE', ( #1, #161 ), #190, .F. ) ;
#121 = APPROVAL_STATUS ( 'not_yet_approved' ) ;
#122 = FACE_BOUND ( 'NONE', #143, .T. ) ;
#123 = APPROVAL_ROLE ( '' ) ;
#124 = CALENDAR_DATE ( 2017, 28, 7 ) ;
#125 = MECHANICAL_CONTEXT ( 'NONE', #188, 'mechanical' ) ;
#126 = CARTESIAN_POINT ( 'NONE',  ( -1.417322834645664800, -4.946939620846994400E-015, -1.976377952755909600 ) ) ;
#127 = APPROVAL ( #34, 'UNSPECIFIED' ) ;
#128 = CARTESIAN_POINT ( 'NONE',  ( -4.302660590021214300E-016, -3.614234895617820200E-016, -1.240157480314963100 ) ) ;
#129 = CARTESIAN_POINT ( 'NONE',  ( 0.0000000000000000000, 0.0000000000000000000, 0.0000000000000000000 ) ) ;
#130 = DIRECTION ( 'NONE',  ( -4.146749344964471000E-016, -2.914335439641030000E-016, -1.000000000000000000 ) ) ;
#131 = CALENDAR_DATE ( 2017, 28, 7 ) ;
#132 = FACE_BOUND ( 'NONE', #178, .T. ) ;
#133 =( GEOMETRIC_REPRESENTATION_CONTEXT ( 3 ) GLOBAL_UNCERTAINTY_ASSIGNED_CONTEXT ( ( #65 ) ) GLOBAL_UNIT_ASSIGNED_CONTEXT ( ( #63, #167, #40 ) ) REPRESENTATION_CONTEXT ( 'NONE', 'WORKASPACE' ) );
#134 = AXIS2_PLACEMENT_3D ( 'NONE', #168, #42, #145 ) ;
#135 = APPROVAL_PERSON_ORGANIZATION ( #83, #68, #108 ) ;
#136 = VERTEX_POINT ( 'NONE', #98 ) ;
#137 = DIRECTION ( 'NONE',  ( -1.000000000000000000, 1.665334536937735300E-016, -2.775557561562891800E-016 ) ) ;
#138 = CALENDAR_DATE ( 2017, 28, 7 ) ;
#139 = CC_DESIGN_PERSON_AND_ORGANIZATION_ASSIGNMENT ( #62, #5, ( #213 ) ) ;
#140 = ORIENTED_EDGE ( 'NONE', *, *, #146, .T. ) ;
#141 = FACE_OUTER_BOUND ( 'NONE', #198, .T. ) ;
#142 = DIRECTION ( 'NONE',  ( 1.000000000000000000, -1.665334536937735300E-016, 2.775557561562891800E-016 ) ) ;
#143 = EDGE_LOOP ( 'NONE', ( #72 ) ) ;
#144 = VERTEX_POINT ( 'NONE', #192 ) ;
#145 = DIRECTION ( 'NONE',  ( -2.699958717473624100E-016, -2.914335439641030000E-016, -1.000000000000000000 ) ) ;
#146 = EDGE_CURVE ( 'NONE', #101, #101, #106, .T. ) ;
#147 = CYLINDRICAL_SURFACE ( 'NONE', #156, 1.976377952755909600 ) ;
#148 = CARTESIAN_POINT ( 'NONE',  ( -1.968503937007869200, 0.0000000000000000000, 0.0000000000000000000 ) ) ;
#149 = EDGE_CURVE ( 'NONE', #200, #200, #44, .T. ) ;
#150 = CYLINDRICAL_SURFACE ( 'NONE', #55, 1.240157480314963100 ) ;
#151 = COORDINATED_UNIVERSAL_TIME_OFFSET ( 5, 0, .BEHIND. ) ;
#152 = DIRECTION ( 'NONE',  ( -4.146749344964471000E-016, -2.914335439641030000E-016, -1.000000000000000000 ) ) ;
#153 = ADVANCED_FACE ( 'NONE', ( #132, #51 ), #160, .T. ) ;
#154 = VERTEX_POINT ( 'NONE', #226 ) ;
#155 = VERTEX_POINT ( 'NONE', #128 ) ;
#156 = AXIS2_PLACEMENT_3D ( 'NONE', #227, #22, #152 ) ;
#157 = ORIENTED_EDGE ( 'NONE', *, *, #56, .T. ) ;
#158 = COORDINATED_UNIVERSAL_TIME_OFFSET ( 5, 0, .BEHIND. ) ;
#159 = APPROVAL ( #118, 'UNSPECIFIED' ) ;
#160 = PLANE ( 'NONE',  #32 ) ;
#161 = FACE_OUTER_BOUND ( 'NONE', #207, .T. ) ;
#162 = EDGE_CURVE ( 'NONE', #116, #116, #203, .T. ) ;
#163 = LOCAL_TIME ( 15, 7, 27.00000000000000000, #50 ) ;
#164 = EDGE_LOOP ( 'NONE', ( #140 ) ) ;
#165 = ADVANCED_FACE ( 'NONE', ( #35, #80 ), #147, .T. ) ;
#166 = PERSON_AND_ORGANIZATION ( #221, #43 ) ;
#167 =( NAMED_UNIT ( * ) PLANE_ANGLE_UNIT ( ) SI_UNIT ( $, .RADIAN. ) );
#168 = CARTESIAN_POINT ( 'NONE',  ( -1.968503937007869200, 0.0000000000000000000, 0.0000000000000000000 ) ) ;
#169 = ADVANCED_FACE ( 'NONE', ( #119, #122 ), #102, .T. ) ;
#170 = ORIENTED_EDGE ( 'NONE', *, *, #162, .F. ) ;
#171 = FACE_BOUND ( 'NONE', #184, .T. ) ;
#172 = DIRECTION ( 'NONE',  ( -1.000000000000000000, 1.665334536937735300E-016, -2.775557561562891800E-016 ) ) ;
#173 = CARTESIAN_POINT ( 'NONE',  ( -1.417322834645664100, -4.370956789862821100E-015, 0.0000000000000000000 ) ) ;
#174 = EDGE_LOOP ( 'NONE', ( #170 ) ) ;
#175 = LOCAL_TIME ( 15, 7, 27.00000000000000000, #151 ) ;
#176 = EDGE_CURVE ( 'NONE', #154, #154, #113, .T. ) ;
#177 = AXIS2_PLACEMENT_3D ( 'NONE', #67, #16, #114 ) ;
#178 = EDGE_LOOP ( 'NONE', ( #216 ) ) ;
#179 = APPROVAL_DATE_TIME ( #18, #159 ) ;
#180 = AXIS2_PLACEMENT_3D ( 'NONE', #129, #15, #112 ) ;
#181 = CALENDAR_DATE ( 2017, 28, 7 ) ;
#182 = APPROVAL_DATE_TIME ( #111, #127 ) ;
#183 = CIRCLE ( 'NONE', #222, 1.011811023622049400 ) ;
#184 = EDGE_LOOP ( 'NONE', ( #2 ) ) ;
#185 = APPROVAL_PERSON_ORGANIZATION ( #209, #127, #123 ) ;
#186 = EDGE_LOOP ( 'NONE', ( #220 ) ) ;
#187 = PERSON_AND_ORGANIZATION ( #221, #43 ) ;
#188 = APPLICATION_CONTEXT ( 'configuration controlled 3d designs of mechanical parts and assemblies' ) ;
#189 =( LENGTH_UNIT ( ) NAMED_UNIT ( * ) SI_UNIT ( $, .METRE. ) );
#190 = CYLINDRICAL_SURFACE ( 'NONE', #48, 1.011811023622049400 ) ;
#191 = PERSON_AND_ORGANIZATION ( #221, #43 ) ;
#192 = CARTESIAN_POINT ( 'NONE',  ( -3.510424671858578700E-016, -2.948756724361206200E-016, -1.011811023622049400 ) ) ;
#193 = CARTESIAN_POINT ( 'NONE',  ( -0.9842519685039357000, -6.556435184794231700E-015, 0.0000000000000000000 ) ) ;
#194 = PERSON_AND_ORGANIZATION_ROLE ( 'creator' ) ;
#195 = DIRECTION ( 'NONE',  ( 3.700743415417180300E-016, 2.914335439641028000E-016, 1.000000000000000000 ) ) ;
#196 = EDGE_LOOP ( 'NONE', ( #75 ) ) ;
#197 = ORIENTED_EDGE ( 'NONE', *, *, #10, .T. ) ;
#198 = EDGE_LOOP ( 'NONE', ( #197 ) ) ;
#199 = PRODUCT_RELATED_PRODUCT_CATEGORY ( 'detail', '', ( #38 ) ) ;
#200 = VERTEX_POINT ( 'NONE', #12 ) ;
#201 = CC_DESIGN_APPROVAL ( #159, ( #213 ) ) ;
#202 = DATE_AND_TIME ( #19, #218 ) ;
#203 = CIRCLE ( 'NONE', #77, 1.476377952755908900 ) ;
#204 = CC_DESIGN_DATE_AND_TIME_ASSIGNMENT ( #59, #54, ( #231 ) ) ;
#205 = EDGE_LOOP ( 'NONE', ( #92 ) ) ;
#206 = PERSON_AND_ORGANIZATION_ROLE ( 'design_owner' ) ;
#207 = EDGE_LOOP ( 'NONE', ( #73 ) ) ;
#208 = APPROVAL_PERSON_ORGANIZATION ( #84, #159, #57 ) ;
#209 = PERSON_AND_ORGANIZATION ( #221, #43 ) ;
#210 = DIRECTION ( 'NONE',  ( -4.049938076210436100E-016, -2.914335439641028500E-016, -1.000000000000000000 ) ) ;
#211 = FACE_BOUND ( 'NONE', #186, .T. ) ;
#212 = DIMENSIONAL_EXPONENTS ( 1.000000000000000000, 0.0000000000000000000, 0.0000000000000000000, 0.0000000000000000000, 0.0000000000000000000, 0.0000000000000000000, 0.0000000000000000000 ) ;
#213 = PRODUCT_DEFINITION_FORMATION_WITH_SPECIFIED_SOURCE ( 'ANY', '', #38, .NOT_KNOWN. ) ;
#214 = CARTESIAN_POINT ( 'NONE',  ( 2.185478394931410600E-015, 1.125984251968504600, -1.748382715945128500E-014 ) ) ;
#215 = COORDINATED_UNIVERSAL_TIME_OFFSET ( 5, 0, .BEHIND. ) ;
#216 = ORIENTED_EDGE ( 'NONE', *, *, #162, .T. ) ;
#217 = SECURITY_CLASSIFICATION ( '', '', #26 ) ;
#218 = LOCAL_TIME ( 15, 7, 27.00000000000000000, #158 ) ;
#219 = AXIS2_PLACEMENT_3D ( 'NONE', #70, #137, #41 ) ;
#220 = ORIENTED_EDGE ( 'NONE', *, *, #176, .T. ) ;
#221 = PERSON ( 'UNSPECIFIED', 'UNSPECIFIED', 'UNSPECIFIED', ('UNSPECIFIED'), ('UNSPECIFIED'), ('UNSPECIFIED') ) ;
#222 = AXIS2_PLACEMENT_3D ( 'NONE', #66, #172, #47 ) ;
#223 = AXIS2_PLACEMENT_3D ( 'NONE', #173, #45, #117 ) ;
#224 = CC_DESIGN_PERSON_AND_ORGANIZATION_ASSIGNMENT ( #191, #9, ( #231 ) ) ;
#225 = APPLICATION_CONTEXT ( 'configuration controlled 3d designs of mechanical parts and assemblies' ) ;
#226 = CARTESIAN_POINT ( 'NONE',  ( -1.968503937007869600, -2.948756724361206200E-016, -1.011811023622049400 ) ) ;
#227 = CARTESIAN_POINT ( 'NONE',  ( -1.692913385826773300, 0.0000000000000000000, 0.0000000000000000000 ) ) ;
#228 = FACE_OUTER_BOUND ( 'NONE', #96, .T. ) ;
#229 = CC_DESIGN_PERSON_AND_ORGANIZATION_ASSIGNMENT ( #23, #206, ( #38 ) ) ;
#230 = DIRECTION ( 'NONE',  ( 1.000000000000000000, -1.665334536937737000E-016, -3.469446951953606800E-016 ) ) ;
#231 = PRODUCT_DEFINITION ( 'UNKNOWN', '', #213, #60 ) ;
#232 = LOCAL_TIME ( 15, 7, 27.00000000000000000, #215 ) ;
ENDSEC;
END-ISO-10303-21;
